Oops, an error
Loading. Please wait.

Analyse Tab

ver2
ver2

Whole song

More versions @911Tabs.com
2,548 views 18 this week
1 commentread comment
1 2 3 4 5
excellent!
x 3
Autoscroll
+/-
esc
set tempo
stop
Contributor
Tuning
C G C F A D
Hey! There's an official Ultimate Guitar app which is ideal
for learning songs when you're away from computer. Get the app
WARNING: You are trying to view
                                    content from Ultimate-Guitar.com
                                    in an unauthorized application,
                                    which is prohibited.

                                    Please use an official Ultimate
                                    Guitar Tabs application for iPhone,
                                    iPad or Android to access legitimate
                                    chords, guitar, bass, and drum tabs
                                    from Ultimate-Guitar.com database.

                                    Type "ultimate guitar tabs" in Apple
                                    App Store's or Android Market's
                                    search to find the application.
-------------------------------------------------------------------------------
                             Analyse - Thom Yorke
-------------------------------------------------------------------------------

Tabbed by: TaijiBjarte

I've been using Ultimate Guitar for years to find tabs for the songs I love, but this is 
the first time
I've contributed anything back. I was searching for a tab for Analyse, but couldn't find 
any that
sounded like the song, so I decided to transcribe it by ear. This is far from perfect, 
but it's my first
tab ever so cut me some slack. :-)

Tuning: C A# D# G C F

The tuning is a bit weird, but this is the way I found was the easiest to play it on 
guitar. To tune it
this way you first have to drop the low E string down to a C, that is two full steps, 
then you tune the
rest of the strings except the G string (Third string) up a half step.

Here is a makeshift guide to the tuning if you need some help with it:

If you start out with a guitar tuned to standard tuning an easy way to do that is to 
hold down the 9th
fret on 6th string (low E), and keep on loosening the string until it sounds the same as 
the 5th
string. After you have finished tuning the 6th string you can tune the 5th string by 
holding down the
10th fret of the 6th string and tightening it until the 5th string sounds the same as 
the 6th. Next
hold down the 5th fret on the 5th string and tighten the 4th until it sounds the same. 
The 3rd string
doesn't need any tweaking. Now hold down the 5th fret of the 3rd string and tighten the 
2nd string
until it sounds the same. And lastly hold down the 5th fret of the 2nd string and 
tighten the 1st
until it sounds the same as the 2nd.



Transcribed to guitar from the live piano version of "Analyse". For those of you to lazy 
to search it
on your own, here it is: http://www.youtube.com/watch?v=p8uGdz0LwY8 :-)

Pattern 1:

F |------7-----7---------7-----7---------7-----7---------7-----7---------7----|
C |--------7-----7---------7-----7---------5-----5---------5-----5---------4--|
G |----------------0---------------0---------------0---------------0----------|
D#|---------------------------------------------------------------------------|
A#|---------------------------------------------------------------------------|
C |--0---------------0---------------0---------------0---------------0--------|

                          Sometimes he plays the last two notes
                          on the fourth fret on the fifth fret
                              .     .
|-7---------7-----7---------7-----7---------7-----7---------7-----7---------|
|---4---------4-----4---------4-----4---------5-----5---------5-----5-------|
|-----0---------------0---------------0---------------0---------------0-----|
|---------------------------------------------------------------------------|
|---------------------------------------------------------------------------|
|-------0---------------0---------------0---------------5---------------5---|

|-7-----7-----------7-----7---------7-----7---------7-----7---------7-----7--|
|---5-----5-----------7-----7---------7-----7---------8-----8---------8-----8|
|-----------0-----------------0---------------0---------------0--------------|
|----------------------------------------------------------------------------|
|----------------------------------------------------------------------------|
|-------------7-----------------7---------------8---------------8------------|

|-------7-----7---------7-----7------|
|---------7-----7---------7-----7----|
|-0---------------0---------------0--|
|------------------------------------|  This pattern is repeated through most of the song
|------------------------------------|
|---7---------------7----------------|


Pattern 2:

1st "There's no time to analyse... "
|-----7-----7---------7-----7-------8-----8----------8-----8---------8------|
|-------5-----5---------5-----5-------8-----8----------8-----8---------8----|
|---------------0------------------------------0----------------0-----------|
|---------------------------------------------------------------------------|
|---------------------------------------------------------------------------|
|-5---------------5-------------7----------------7----------------5---------|

|-8----------8-----8---------7-----7---------7-----7---------8-----8--------|
|---8----------8-----8---------8-----8---------8-----8---------8-----8------|
|------0---------------0---------------0---------------0----------------0---|
|---------------------------------------------------------------------------|
|---------------------------------------------------------------------------|
|--------5---------------5---------------5---------------4----------------4-|

|--8-----8---------7-----7---------7-----7-----------7-----7--------7----7--|
|----8-----8---------8-----8---------8-----8-----------8-----8--------8----8|
|------------0---------------0---------------0-----------------0------------|
|---------------------------------------------------------------------------|
|---------------------------------------------------------------------------|
|--------------4---------------4----------------5----------------5----------|

|-------7-----7---------7-----7------|
|---------8-----8---------8-----8----|
|-0---------------0---------------0--| Shift back to back to pattern 1.
|------------------------------------|
|------------------------------------|
|---5---------------5----------------|

3rd pattern: Part played where the lyrics end, from: "and there's no time.... there's no 
time, to
analyse.... analyse....":

|-----7-----7---------7-----7---------7-----7---------7-----7---------8-----|
|-------5-----5---------5-----5---------7-----7---------7-----7---------8---|
|---------------0---------------0---------------0---------------0-----------|
|---------------------------------------------------------------------------|
|---------------------------------------------------------------------------|
|-5---------------5---------------7---------------7---------------8---------|

|-8---------8-----8----------7-----7---------7-----7---------7-----7--------|
|---8---------8-----8----------8-----8---------8-----8---------7-----7------|
|-----0---------------0----------------0---------------0---------------0----|
|---------------------------------------------------------------------------|
|---------------------------------------------------------------------------|
|-------8----------------7---------------7---------------0---------------0--|

|-7-----7---------7-----7---------7-----7---------7-----7----------7-----7--|
|---7-----7---------5-----5---------5-----5---------4-----4----------4-----4|
|-----------0---------------0---------------0----------------0--------------|
|---------------------------------------------------------------------------|
|---------------------------------------------------------------------------|
|-------------0---------------0---------------0----------------0------------|

|-------7-----7---------7-----7----------8-----8---------8-----8---------8--|
|---------5-----5---------5-----5----------8-----8---------8-----8---------8|
|-0---------------0---------------0----------------0---------------0--------|
|---------------------------------------------------------------------------|
|---------------------------------------------------------------------------|
|---0---------------0----------------5---------------5---------------7------|

|---7---------8-----8---------8-----8----------8-----8----------7-----7------|
|-----8---------8-----8---------8-----8----------8-----8----------8-----8----|
|-------0---------------0---------------0----------------0----------------0--|
|----------------------------------------------------------------------------|
|----------------------------------------------------------------------------|
|---------7---------------5----------------5---------------5----------------5|

|---7-----7-----|
|-----8-----8---|
|-------------0-|
|---------------| Move straight on to the ending below
|---------------|
|---------------|


Final (awesome sounding) part (tabbed out all the way to the end):
|-----2-----2---------2-----2---------2-----2---------2-----2--------2------|
|-------3-----3---------3-----3---------3-----3---------3-----3--------2----|
|---------------0---------------0---------------0---------------0-----------|
|---------------------------------------------------------------------------|
|-----------------------------------------------------------------0---------|
|-0---------------0---------------0---------------0-------------------------|

|2----------2-----2---------5-----5---------3-----3---------3-----3---------|
|--2----------2-----2---------2-----2---------2-----2---------3-----3-------|
|----0----------------0---------------0---------------0---------------0-----|
|---------------------------------------------------------------------------|
|------0----------------0---------------0-----------------------------------|
|-------------------------------------------------------5---------------5---|

|-3-----3---------3-----3---------2-----2---------7-----7---------7-----7---|
|---3-----3---------3-----3---------3-----3---------7-----7---------7-----7-|
|-----------0---------------0---------------0---------------0---------------|
|---------------------------------------------------------------------------|
|---------------------------------------------------------------------------|
|-------------5---------------5---------------0---------------0-------------|

|------7-----7---------7-----7---------7-----7---------5-----5---------5----|
|--------7-----7---------7-----7---------7-----7---------2-----2---------2--|
|0---------------0---------------0---------------0---------------0----------|
|---------------------------------------------------------------------------|
|----------------------------------0---------------0---------------0--------|
|--0---------------0--------------------------------------------------------|

|--5---------3-----3---------3-----3---------3-----3---------3-----3--------|
|----2---------2-----2---------3-----3---------3-----3---------3-----3------|
|------0---------------0---------------0---------------0---------------0----|
|---------------------------------------------------------------------------|
|--------0------------------------------------------------------------------|
|------------------------5---------------5---------------5---------------5--|

|---3-----3---------7-----7---------7-----7---------7-----7---------7-----7-|
|-----3-----3---------7-----7---------7-----7---------7-----7---------7-----|
|-------------0---------------0---------------0---------------0-------------|
|---------------------------------------------------------------------------|
|---------------------------------------------------------------------------|
|---------------0---------------0---------------0---------------0-----------|

|--------7-----7---------5-----5---------5-----5---------3-----3---------3--|
|-7--------7-----7---------2-----2---------2-----2---------2-----2---------3|
|---0--------------0---------------0---------------0---------------0--------|
|---------------------------------------------------------------------------|
|----0---------------0---------------0---------------0----------------------|
|---------------------------------------------------------------------5-----|

|---3---------3-----3---------3-----3---------3-----3---------7-----7-------|
|-----3---------3-----3---------3-----3---------3-----3---------7-----7-----|
|-------0---------------0---------------0---------------0---------------0---|
|---------------------------------------------------------------------------|
|---------------------------------------------------------------------------|
|---------5---------------5---------------5---------------0---------------0-|

|--7-----7---------7-----7---------7-----7----------7-----7--------7-----7--|
|----7-----7---------7-----7---------7-----7----------7-----7--------7-----7|
|------------0---------------0---------------0----------------0-------------|
|---------------------------------------------------------------------------|
|-----------------------------------------------0---------------0-----------|
|--------------0---------------0--------------------------------------------|

|-------5-----5---------3-----3---------3-----3---------3-----3---------3---|
|---------2-----2---------2-----2---------3-----3---------3-----3---------3-|
|-0---------------0---------------0---------------0---------------0---------|
|---------------------------------------------------------------------------|
|---0---------------0-------------------------------------------------------|
|-----------------------------------5---------------5---------------5-------|

|--3---------3-----3---------7-----7---------7-----7---------7-----7--------|
|----3---------3-----3---------7-----7---------7-----7---------7-----7------|
|------0---------------0---------------0------------------------------------|
|---------------------------------------------------------------------------|
|---------------------------------------------------------------------------|
|--------5---------------0---------------0---------------0---------------0--|

|--7-----7---------8-----8---------8-----8---------8-----8---------8----8----|
|----7-----7---------8-----8---------8-----8---------8-----8---------8----8--|
|----------------------------------------------------------------------------|
|----------------------------------------------------------------------------|
|----------------------------------------------------------------------------|
|--------------0---------------0---------------0---------------0-------------|

That's it boys and girls. I'd appreciate it if you took the time to comment and/or rate, 
took me a lot
longer than I thought to actually finish one of these :-) Hope you enjoyed it!

Brought to you buy a guy studying kung fu on top of a mountain in China. Follow me here:
http://bjarteslifeinchina.blogspot.com/
comments
We did not receive enough feedback on this tab! Please rate:
print report bad tab
1 2 3 4 5
1 comment total.
0 reply
taijibjarte wrote on May 11 2012, 10:09 am

It's also possible to play this with just dropping the sixth string (low E). But some passages will be harder to play, unless you have crazy-long fingers.

I want to post or [tab]
guest
You may want to rate the tab now too:
select rating
Please do not post tabs as comments. Select "correction" instead!