Oops, an error
Loading. Please wait.

Be Somebody Tab

ver2
ver2

Whole song

More versions @911Tabs.com
12,168 views 111 this week
no commentswrite comment
1 2 3 4 5
excellent!
x 11
Autoscroll
+/-
esc
set tempo
stop
Contributor
Difficulty
Tuning
novice
D A D G B E
Hey! There's an official Ultimate Guitar app which is ideal
for learning songs when you're away from computer. Get the app
WARNING: You are trying to view
                                    content from Ultimate-Guitar.com
                                    in an unauthorized application,
                                    which is prohibited.

                                    Please use an official Ultimate
                                    Guitar Tabs application for iPhone,
                                    iPad or Android to access legitimate
                                    chords, guitar, bass, and drum tabs
                                    from Ultimate-Guitar.com database.

                                    Type "ultimate guitar tabs" in Apple
                                    App Store's or Android Market's
                                    search to find the application.
----------------------------------------------------------------------------
                               Be Somebody
                           Thousand Foot Krutch
----------------------------------------------------------------------------

This song is so great it’s scary (not literally). I’ve been anticipating TFK’s new album
for a while now, and I was so happy of the outcome. It was just what I was hoping for;
amazing, creative music production. I hope you enjoy playing this song as much as I do. Enjoy!

Username: dkm817 (same on X box live)
Youtube Cover: http://www.youtube.com/watch?v=la_jL5za8a0
Email: guitardrums@rockfan.com

Guitar 1 Rhythmic (D A D G B E)
Guitar 2 Lead     (D A D G B E)
Guitar 3 Acoustic (E A D G B E)


Tab Guide...

==================================================================
(end of measures)

==================================================================
==================================================================
(end of parts)

==================================================================
==================================================================
==================================================================
(end of song)

(If there is a “continued” it is because the numbers could not
fit on 1 line.)


Verse 1

Guitar 1 (Echo Effect)
E-----------------------------------------------------------------|
B-----------------------------------------------------------------|
G------2~~~~~~~~~~~~~~~~~~~~~~~~~~~~~~-2~~~~~~~~~~~~~~~~~~~~~~~~~-|
D-0~~~~~~~~~~~~~~~~~~~~~~~~~~~~~~-0~~~~~~~~~~~~~~~~~~~~~~~~~~~~~~-|
A-----------------------------------------------------------------|
D-----------------------------------------------------------------|

==================================================================

Guitar 1
E-----------------------------------------------------------------|
B-----------------------------------------------------------------|
G------2~~~~~~~~~-1~~~~~~~~~~~~~~------2~~~~~~~~~-1~~~~~~~~~~~~~~-|
D-------------------------2~~~~~~-------------------------2~~~~~~-|
A-----------------------------------------------------------------|
D-4~~~~~~~~~~~~~~~----------------4~~~~~~~~~~~~~~~----------------|

==================================================================

Guitar 1
E-----------------------------------------------------------------|
B-----------------------------------------------------------------|
G------2~~~~~~~~~~~~~~~~~~~~~~~~~~~~~~-2~~~~~~~~~~~~~~~~~~~~~~~~~-|
D-0~~~~~~~~~~~~~~~~~~~~~~~~~~~~~~-0~~~~~~~~~~~~~~~~~~~~~~~~~~~~~~-|
A-----------------------------------------------------------------|
D-----------------------------------------------------------------|

==================================================================

Guitar 1
E-----------------------------------------------------------------|
B-----------------------------------------------------------------|
G------2~~~~~~~~~-1~~~~~~~~~~~~~~------2~~~~~~~~~-1~~~~~~~~~~~~~~-|
D-------------------------2~~~~~~-------------------------2~~~~~~-|
A-----------------------------------------------------------------|
D-4~~~~~~~~~~~~~~~----------------4~~~~~~~~~~~~~~~----------------|

==================================================================

Guitar 1
E-----------------------------------------------------------------|
B-----------------------------------------------------------------|
G-----2~~~~~~-1~~~~~~~~~~~~~~~~~~~~~~-2~~~~~~-1~~~~~~~~~~~~~~~~~~-|
D-0~~~~~~-2~~~~~~~~~~~~~~~~~~~~~~-0~~~~~~-2~~~~~~~~~~~~~~~~~~~~~~-|
A-----------------------------------------------------------------|
D-----------------------------------------------------------------|

==================================================================

Guitar 1
E-----------------------------------------------------------------|
B-------------------------------------------------2~~~~~~~~~~~~~~-|
G-----2~~~~~~~-1~~~~~~~~~~~~~~~~~-----2~~~~~~-1~~-----2~~~~~~~~~~-|
D---------2~~~~~~~~~~~~~~~~~~~~~~---------2~~~~~~---------2~~~~~~-|
A-------------------------------------------------------------2~~-|
D-4~~~~~~~~~~~~~~-----------------4~~~~~~~~~~~~~~-----------------|

==================================================================

Guitar 1
E-----------------------------------------------------------------|
B-----------------------------------------------------------------|
G-----2~~~~~~-1~~~~~~~~~~~~~~~~~~~~~~-2~~~~~~-1~~~~~~~~~~~~~~~~~~-|
D-0~~~~~~-2~~~~~~~~~~~~~~~~~~~~~~-0~~~~~~-2~~~~~~~~~~~~~~-2~~~~~~-|
A-----------------------------------------------------------------|
D-----------------------------------------------------------------|

==================================================================

Guitar 1
E-----------------------------------------------------------------|
B-------------------------------------------------2~~~~~~~~~~~~~~-|
G-----2~~~~~~~-1~~~~~~~~~~~~~~~~~-----2~~~~~~-1~~-----2~~~~~~~~~~-|
D---------2~~~~~~~~~~~~~~~~~~~~~~---------2~~~~~~---------2~~~~~~-|
A-------------------------------------------------------------2~~-|
D-4~~~~~~~~~~~~~~-----------------4~~~~~~~~~~~~~~-----------------|

==================================================================

Guitar 1
E-----------------------------------------------------------------|
B-----------------------------------------------------------------|
G-----2~~~~~~-1~~~~~~~~~~~~~~~~~~~~~~-2~~~~~~-1~~~~~~~~~~~~~~~~~~-|
D-0~~~~~~-2~~~~~~~~~~~~~~~~~~~~~~-0~~~~~~-2~~~~~~~~~~~~~~~~~~~~~~-|
A-----------------------------------------------------------------|
D-----------------------------------------------------------------|

==================================================================

Guitar 1
E-----------------------------------------------------------------|
B-------------------------------------------------2~~~~~~~~~~~~~~-|
G-----2~~~~~~~-1~~~~~~~~~~~~~~~~~-----2~~~~~~-1~~-----2~~~~~~~~~~-|
D---------2~~~~~~~~~~~~~~~~~~~~~~---------2~~~~~~---------2~~~~~~-|
A-------------------------------------------------------------2~~-|
D-4~~~~~~~~~~~~~~-----------------4~~~~~~~~~~~~~~-----------------|

==================================================================
==================================================================


Pre Chorus 1

Guitar 1
E-----------------------------------------------------------------|
B-----------------------------------------------------------------|
G-----2~~~~~~-1~~~~~~~~~~~~~~~~~~~~~~-2~~~~~~-1~~~~~~~~~~~~~~~~~~-|
D-0~~~~~~-2~~~~~~~~~~~~~~~~~~~~~~-0~~~~~~-2~~~~~~~~~~~~~~~~~~~~~~-|
A-----------------------------------------------------------------|
D-----------------------------------------------------------------|

Guitar 3
E-2---2---2---2-2---2-2---2---2---2---2---2---2-2---2-2---2---2---|
B-3---3---3---3-3---3-3---3---3---3---3---3---3-3---3-3---3---3---|
G-2---2---2---2-2---2-2---2---2---2---2---2---2-2---2-2---2---2---|
D-0---0---0---0-0---0-0---0---0---0---0---0---0-0---0-0---0---0---|
A-----------------------------------------------------------------|
E-----------------------------------------------------------------|

==================================================================

Guitar 1
E-----------------------------------------------------------------|
B-------------------------------------------------2~~~~~~~~~~~~~~-|
G-----2~~~~~~~-1~~~~~~~~~~~~~~~~~-----2~~~~~~-1~~-----2~~~~~~~~~~-|
D---------2~~~~~~~~~~~~~~~~~~~~~~---------2~~~~~~---------2~~~~~~-|
A-------------------------------------------------------------2~~-|
D-4~~~~~~~~~~~~~~-----------------4~~~~~~~~~~~~~~-----------------|

Guitar 3
E-2---2---2---2-2---2-2---2---2---2---2---2---2-2---2-2---2---2---|
B-2---2---2---2-2---2-2---2---2---2---2---2---2-2---2-2---2---2---|
G-2---2---2---2-2---2-2---2---2---2---2---2---2-2---2-2---2---2---|
D-4---4---4---4-4---4-4---4---4---4---4---4---4-4---4-4---4---4---|
A-4---4---4---4-4---4-4---4---4---4---4---4---4-4---4-4---4---4---|
E-----------------------------------------------------------------|

==================================================================

Guitar 1
E-----------------------------------------------------------------|
B-----------------------------------------------------------------|
G-----2~~~~~~-1~~~~~~~~~~~~~~~~~~~~~~-2~~~~~~-1~~~~~~~~~~~~~~~~~~-|
D-0~~~~~~-2~~~~~~~~~~~~~~~~~~~~~~-0~~~~~~-2~~~~~~~~~~~~~~-2~~~~~~-|
A-----------------------------------------------------------------|
D-----------------------------------------------------------------|

Guitar 3
E-2---2---2---2-2---2-2---2---2---2---2---2---2-2---2-2---2---2---|
B-3---3---3---3-3---3-3---3---3---3---3---3---3-3---3-3---3---3---|
G-2---2---2---2-2---2-2---2---2---2---2---2---2-2---2-2---2---2---|
D-0---0---0---0-0---0-0---0---0---0---0---0---0-0---0-0---0---0---|
A-----------------------------------------------------------------|
E-----------------------------------------------------------------|

==================================================================

Guitar 1
E-------------------------------------------------------------2~~-|
B-------------------------------------------------2~~~~~~~~~~~~~~-|
G-----2~~~~~~~-1~~~~~~~~~~~~~~~~~-----2~~~~~~-1~~-----2~~~~~~~~~~-|
D---------2~~~~~~~~~~~~~~~~~~~~~~---------2~~~~~~---------2~~~~~~-|
A-----------------------------------------------------------------|
D-4~~~~~~~~~~~~~~-----------------4~~~~~~~~~~~~~~-----------------|

Guitar 3
E-2---2---2---2-2---2-2---2---2---2---2---2---2-2---2-2---2---2---|
B-2---2---2---2-2---2-2---2---2---2---2---2---2-2---2-2---2---2---|
G-2---2---2---2-2---2-2---2---2---2---2---2---2-2---2-2---2---2---|
D-4---4---4---4-4---4-4---4---4---4---4---4---4-4---4-4---4---4---|
A-4---4---4---4-4---4-4---4---4---4---4---4---4-4---4-4---4---4---|
E-----------------------------------------------------------------|

==================================================================
==================================================================


Chorus 1

Guitar 1
E-----------------------------------------------------------------|
B-----------------------------------------------------------------|
G-----------------------------------------------------------------|
D-0---0---0---0---0---0---0---0---0---0---0---0---0---0---0---0---|
A-0---0---0---0---0---0---0---0---0---0---0---0---0---0---0---0---|
D-0---0---0---0---0---0---0---0---0---0---0---0---0---0---0---0---|

Guitar 2
E-----------------------------------------------------------------|
B-12------10--12------9---10~~~~~~~~~~~~~~~~~~~~~-10~~~~~~~~~~~~~-|
G-----11----------11----------------------------------------------|
D-----------------------------------------------------------------|
A-----------------------------------------------------------------|
D-----------------------------------------------------------------|
pm    .           .

Guitar 3
E-2---2---2---2---2---2---2---2---2---2---2---2---2---2---2---2---|
B-3---3---3---3---3---3---3---3---3---3---3---3---3---3---3---3---|
G-2---2---2---2---2---2---2---2---2---2---2---2---2---2---2---2---|
D-0---0---0---0---0---0---0---0---0---0---0---0---0---0---0---0---|
A-----------------------------------------------------------------|
E-----------------------------------------------------------------|

==================================================================

Guitar 1
E-----------------------------------------------------------------|
B-----------------------------------------------------------------|
G-----------------------------------------------------------------|
D-2---2---2---2---2---2---2---2---2---2---2---2---2---2---2---2---|
A-2---2---2---2---2---2---2---2---2---2---2---2---2---2---2---2---|
D-2---2---2---2---2---2---2---2---2---2---2---2---2---2---2---2---|

Guitar 2
E-------------------------9~~~~~~~~~~~~~~~~~~~~~~-9~~~~~~~~~~~~~~-|
B-12------10--12------9-------------------------------------------|
G-----11----------11----------------------------------------------|
D-----------------------------------------------------------------|
A-----------------------------------------------------------------|
D-----------------------------------------------------------------|
pm    .           .

Guitar 3
E-0---0---0---0---0---0---0---0---0---0---0---0---0---0---0---0---|
B-0---0---0---0---0---0---0---0---0---0---0---0---0---0---0---0---|
G-1---1---1---1---1---1---1---1---1---1---1---1---1---1---1---1---|
D-2---2---2---2---2---2---2---2---2---2---2---2---2---2---2---2---|
A-2---2---2---2---2---2---2---2---2---2---2---2---2---2---2---2---|
E-----------------------------------------------------------------|

==================================================================

Guitar 1
E-----------------------------------------------------------------|
B-----------------------------------------------------------------|
G-----------------------------------------------------------------|
D-4---4---4---4---4---4---4---4---4---4---4---4---4---4---4---4---|
A-4---4---4---4---4---4---4---4---4---4---4---4---4---4---4---4---|
D-4---4---4---4---4---4---4---4---4---4---4---4---4---4---4---4---|

Guitar 2
E-----------------------------------------------------------------|
B-12------10--12------9---10~~~~~~~~~~~~~~~~~~~~~-10~~~~~~~~~~~~~-|
G-----11----------11----------------------------------------------|
D-----------------------------------------------------------------|
A-----------------------------------------------------------------|
D-----------------------------------------------------------------|
pm    .           .

Guitar 3
E-2---2---2---2---2---2---2---2---2---2---2---2---2---2---2---2---|
B-2---2---2---2---2---2---2---2---2---2---2---2---2---2---2---2---|
G-2---2---2---2---2---2---2---2---2---2---2---2---2---2---2---2---|
D-4---4---4---4---4---4---4---4---4---4---4---4---4---4---4---4---|
A-4---4---4---4---4---4---4---4---4---4---4---4---4---4---4---4---|
E-----------------------------------------------------------------|

==================================================================

Guitar 1
E-----------------------------------------------------------------|
B-----------------------------------------------------------------|
G-----------------------------------------------------------------|
D-2---2---2---2---2---2---2---2---2---2---2---2---2---2---2---2---|
A-2---2---2---2---2---2---2---2---2---2---2---2---2---2---2---2---|
D-2---2---2---2---2---2---2---2---2---2---2---2---2---2---2---2---|

Guitar 2
E-----------------------------------------------------------------|
B-12------10--12------9---10~~~~~~~~~~~~~-9---10--9---7---9---7---|
G-----11----------11----------------------------------------------|
D-----------------------------------------------------------------|
A-----------------------------------------------------------------|
D-----------------------------------------------------------------|
pm    .           .

Guitar 3
E-0---0---0---0---0---0---0---0---0---0---0---0---0---0---0---0---|
B-0---0---0---0---0---0---0---0---0---0---0---0---0---0---0---0---|
G-1---1---1---1---1---1---1---1---1---1---1---1---1---1---1---1---|
D-2---2---2---2---2---2---2---2---2---2---2---2---2---2---2---2---|
A-2---2---2---2---2---2---2---2---2---2---2---2---2---2---2---2---|
E-----------------------------------------------------------------|

==================================================================

Guitar 1
E-----------------------------------------------------------------|
B-----------------------------------------------------------------|
G-----------------------------------------------------------------|
D-0---0---0---0---0---0---0---0---0---0---0---0---0---0---0---0---|
A-0---0---0---0---0---0---0---0---0---0---0---0---0---0---0---0---|
D-0---0---0---0---0---0---0---0---0---0---0---0---0---0---0---0---|

Guitar 2
E-----------------------------------------------------------------|
B-12------10--12------9---10~~~~~~~~~~~~~~~~~~~~~-10~~~~~~~~~~~~~-|
G-----11----------11----------------------------------------------|
D-----------------------------------------------------------------|
A-----------------------------------------------------------------|
D-----------------------------------------------------------------|
pm    .           .

Guitar 3
E-2---2---2---2---2---2---2---2---2---2---2---2---2---2---2---2---|
B-3---3---3---3---3---3---3---3---3---3---3---3---3---3---3---3---|
G-2---2---2---2---2---2---2---2---2---2---2---2---2---2---2---2---|
D-0---0---0---0---0---0---0---0---0---0---0---0---0---0---0---0---|
A-----------------------------------------------------------------|
E-----------------------------------------------------------------|

==================================================================

Guitar 1
E-----------------------------------------------------------------|
B-----------------------------------------------------------------|
G-----------------------------------------------------------------|
D-2---2---2---2---2---2---2---2---2---2---2---2---2---2---2---2---|
A-2---2---2---2---2---2---2---2---2---2---2---2---2---2---2---2---|
D-2---2---2---2---2---2---2---2---2---2---2---2---2---2---2---2---|

Guitar 2
E-------------------------9~~~~~~~~~~~~~~~~~~~~~~-9~~~~~~~~~~~~~~-|
B-12------10--12------9-------------------------------------------|
G-----11----------11----------------------------------------------|
D-----------------------------------------------------------------|
A-----------------------------------------------------------------|
D-----------------------------------------------------------------|
pm    .           .

Guitar 3
E-0---0---0---0---0---0---0---0---0---0---0---0---0---0---0---0---|
B-0---0---0---0---0---0---0---0---0---0---0---0---0---0---0---0---|
G-1---1---1---1---1---1---1---1---1---1---1---1---1---1---1---1---|
D-2---2---2---2---2---2---2---2---2---2---2---2---2---2---2---2---|
A-2---2---2---2---2---2---2---2---2---2---2---2---2---2---2---2---|
E-----------------------------------------------------------------|

==================================================================

Guitar 1
E-----------------------------------------------------------------|
B-----------------------------------------------------------------|
G-----------------------------------------------------------------|
D-4---4---4---4---4---4---4---4---4---4---4---4---4---4---4---4---|
A-4---4---4---4---4---4---4---4---4---4---4---4---4---4---4---4---|
D-4---4---4---4---4---4---4---4---4---4---4---4---4---4---4---4---|

Guitar 2
E-----------------------------------------------------------------|
B-12------10--12------9---10~~~~~~~~~~~~~~~~~~~~~-10~~~~~~~~~~~~~-|
G-----11----------11----------------------------------------------|
D-----------------------------------------------------------------|
A-----------------------------------------------------------------|
D-----------------------------------------------------------------|
pm    .           .

Guitar 3
E-2---2---2---2---2---2---2---2---2---2---2---2---2---2---2---2---|
B-2---2---2---2---2---2---2---2---2---2---2---2---2---2---2---2---|
G-2---2---2---2---2---2---2---2---2---2---2---2---2---2---2---2---|
D-4---4---4---4---4---4---4---4---4---4---4---4---4---4---4---4---|
A-4---4---4---4---4---4---4---4---4---4---4---4---4---4---4---4---|
E-----------------------------------------------------------------|

==================================================================

Guitar 1
E-----------------------------------------------------------------|
B-----------------------------------------------------------------|
G-9---9---9---9---9---9---9---9---9---9---9---9---9---9---9---9---|
D-9---9---9---9---9---9---9---9---9---9---9---9---9---9---9---9---|
A-7---7---7---7---7---7---7---7---7---7---7---7---7---7---7---7---|
D-7---7---7---7---7---7---7---7---7---7---7---7---7---7---7---7---|

Guitar 2
E-----------------------------------------------------------------|
B-12------10--12------9---10~~~~~~~~~~~~~-9---10--9---7---9---7---|
G-----11----------11----------------------------------------------|
D-----------------------------------------------------------------|
A-----------------------------------------------------------------|
D-----------------------------------------------------------------|
pm    .           .

Guitar 3
E-5---5---5---5---5---5---5---5---5---5---5---5---5---5---5---5---|
B-5---5---5---5---5---5---5---5---5---5---5---5---5---5---5---5---|
G-6---6---6---6---6---6---6---6---6---6---6---6---6---6---6---6---|
D-7---7---7---7---7---7---7---7---7---7---7---7---7---7---7---7---|
A-7---7---7---7---7---7---7---7---7---7---7---7---7---7---7---7---|
E-----------------------------------------------------------------|

==================================================================
==================================================================


Bridge 1

Guitar 1
E-----------------------------------------------------------------|
B-----------------------------------------------------------------|
G-----------------------------------------------------------------|
D-0~~~~~~~~~~~~~~~~~~~~~~~~~~~~~~~~~~~~~~~~~~~~~~~~~~~~~~~~~~~~~~-|
A-0~~~~~~~~~~~~~~~~~~~~~~~~~~~~~~~~~~~~~~~~~~~~~~~~~~~~~~~~~~~~~~-|
D-0~~~~~~~~~~~~~~~~~~~~~~~~~~~~~~~~~~~~~~~~~~~~~~~~~~~~~~~~~~~~~~-|

Guitar 2
E-----------------------------------------------------------------|
B-10~~~~~~~~~~~~~~~~~~~~~~~~~~~~~~~~~~~~~~~~~~~~~~~~~~~~~~~~~~~~~-|
G-----------------------------------------------------------------|
D-----------------------------------------------------------------|
A-----------------------------------------------------------------|
D-----------------------------------------------------------------|

Guitar 3
E-2~~~~~~~~~~~~~~~~~~~~~~~~~~~~~~~~~~~~~~~~~~~~~~~~~~~~~~~~~~~~~~-|
B-3~~~~~~~~~~~~~~~~~~~~~~~~~~~~~~~~~~~~~~~~~~~~~~~~~~~~~~~~~~~~~~-|
G-2~~~~~~~~~~~~~~~~~~~~~~~~~~~~~~~~~~~~~~~~~~~~~~~~~~~~~~~~~~~~~~-|
D-0~~~~~~~~~~~~~~~~~~~~~~~~~~~~~~~~~~~~~~~~~~~~~~~~~~~~~~~~~~~~~~-|
A-----------------------------------------------------------------|
E-----------------------------------------------------------------|

==================================================================

Guitar 1
E-----------------------------------------------------------------|
B-----------------------------------------------------------------|
G-----------------------------------------------------------------|
D-4~~~~~~~~~~~~~~~~~~~~~~~~~~~~~~~~~~~~~~~~~~~~~~~~~~~~~~~~~~~~~~-|
A-4~~~~~~~~~~~~~~~~~~~~~~~~~~~~~~~~~~~~~~~~~~~~~~~~~~~~~~~~~~~~~~-|
D-4~~~~~~~~~~~~~~~~~~~~~~~~~~~~~~~~~~~~~~~~~~~~~~~~~~~~~~~~~~~~~~-|

Guitar 3
E-2~~~~~~~~~~~~~~~~~~~~~~~~~~~~~~~~~~~~~~~~~~~~~~~~~~~~~~~~~~~~~~-|
B-2~~~~~~~~~~~~~~~~~~~~~~~~~~~~~~~~~~~~~~~~~~~~~~~~~~~~~~~~~~~~~~-|
G-2~~~~~~~~~~~~~~~~~~~~~~~~~~~~~~~~~~~~~~~~~~~~~~~~~~~~~~~~~~~~~~-|
D-4~~~~~~~~~~~~~~~~~~~~~~~~~~~~~~~~~~~~~~~~~~~~~~~~~~~~~~~~~~~~~~-|
A-4~~~~~~~~~~~~~~~~~~~~~~~~~~~~~~~~~~~~~~~~~~~~~~~~~~~~~~~~~~~~~~-|
E-----------------------------------------------------------------|

==================================================================
==================================================================


Verse 2

Guitar 1
E-----------------------------------------------------------------|
B-----------------------------------------------------------------|
G------2~~~~~~~~~~~~~~~~~~~~~~~~~~~~~~-2~~~~~~~~~~~~~~~~~~~~~~~~~-|
D-0~~~~~~~~~~~~~~~~~~~~~~~~~~~~~~-0~~~~~~~~~~~~~~~~~~~~~~~~~~~~~~-
A-----------------------------------------------------------------|
D-----------------------------------------------------------------|

==================================================================

Guitar 1
E-----------------------------------------------------------------|
B-----------------------------------------------------------------|
G------2~~~~~~~~~-1~~~~~~~~~~~~~~------2~~~~~~~~~-1~~~~~~~~~~~~~~-|
D-------------------------2~~~~~~-------------------------2~~~~~~-|
A-----------------------------------------------------------------|
D-4~~~~~~~~~~~~~~~----------------4~~~~~~~~~~~~~~~----------------|

==================================================================

Guitar 1
E-----------------------------------------------------------------|
B-----------------------------------------------------------------|
G------2~~~~~~~~~~~~~~~~~~~~~~~~~~~~~~-2~~~~~~~~~~~~~~~~~~~~~~~~~-|
D-0~~~~~~~~~~~~~~~~~~~~~~~~~~~~~~-0~~~~~~~~~~~~~~~~~~~~~~~~~~~~~~-|
A-----------------------------------------------------------------|
D-----------------------------------------------------------------|

==================================================================

Guitar 1
E-----------------------------------------------------------------|
B-----------------------------------------------------------------|
G------2~~~~~~~~~-1~~~~~~~~~~~~~~------2~~~~~~~~~-1~~~~~~~~~~~~~~-|
D-------------------------2~~~~~~-------------------------2~~~~~~-|
A-----------------------------------------------------------------|
D-4~~~~~~~~~~~~~~~----------------4~~~~~~~~~~~~~~~----------------|

==================================================================

Guitar 1
E-----------------------------------------------------------------|
B-----------------------------------------------------------------|
G-----2~~~~~~-1~~~~~~~~~~~~~~~~~~~~~~-2~~~~~~-1~~~~~~~~~~~~~~~~~~-|
D-0~~~~~~-2~~~~~~~~~~~~~~~~~~~~~~-0~~~~~~-2~~~~~~~~~~~~~~~~~~~~~~-|
A-----------------------------------------------------------------|
D-----------------------------------------------------------------|

Guitar 2
E-----------------------------------------------------------------|
B-----------------------------------------------------------------|
G-----------------------------------------------------------------|
D-0-4-7-0-0-7-0-0-7-0-0-0-6-0-6-7-0-4-7-0-0-7-0-0-7-0-----9-----9-|
A-----------------------------------------------------5-7---7-7---|
D-----------------------------------------------------------------|
Pm. . . . . . . . . . . . . . . . . . . . . . . . . . . . . . . .

==================================================================

Guitar 1
E-----------------------------------------------------------------|
B-------------------------------------------------2~~~~~~~~~~~~~~-|
G-----2~~~~~~~-1~~~~~~~~~~~~~~~~~-----2~~~~~~-1~~-----2~~~~~~~~~~-|
D---------2~~~~~~~~~~~~~~~~~~~~~~---------2~~~~~~---------2~~~~~~-|
A-------------------------------------------------------------2~~-|
D-4~~~~~~~~~~~~~~-----------------4~~~~~~~~~~~~~~-----------------|

Guitar 2
E-----------------------------------------------------------------|
B-----------------------------------------------------------------|
G-----------------------------------------------------------------|
D---4-7-----7-----7-------6---6-7---4-7-----7-----9-----9-----9---|
A---------------------------------------------5-7---7-7---7-7---7-|
D-4-----4-4---4-4---4-4-4---4-----4-----4-4-----------------------|
Pm. . . . . . . . . . . . . . . . . . . . . . . . . . . . . . . .

==================================================================

Guitar 1
E-----------------------------------------------------------------|
B-----------------------------------------------------------------|
G-----2~~~~~~-1~~~~~~~~~~~~~~~~~~~~~~-2~~~~~~-1~~~~~~~~~~~~~~~~~~-|
D-0~~~~~~-2~~~~~~~~~~~~~~~~~~~~~~-0~~~~~~-2~~~~~~~~~~~~~~-2~~~~~~-|
A-----------------------------------------------------------------|
D-----------------------------------------------------------------|

Guitar 2
E-----------------------------------------------------------------|
B-----------------------------------------------------------------|
G-----------------------------------------------------------------|
D-0-4-7-0-0-7-0-0-7-0-0-0-6-0-6-7-0-4-7-0-0-7-0-0-7-0-----9-----9-|
A-----------------------------------------------------5-7---7-7---|
D-----------------------------------------------------------------|
Pm. . . . . . . . . . . . . . . . . . . . . . . . . . . . . . . .

==================================================================

Guitar 1
E-----------------------------------------------------------------|
B-------------------------------------------------2~~~~~~~~~~~~~~-|
G-----2~~~~~~~-1~~~~~~~~~~~~~~~~~-----2~~~~~~-1~~-----2~~~~~~~~~~-|
D---------2~~~~~~~~~~~~~~~~~~~~~~---------2~~~~~~---------2~~~~~~-|
A-------------------------------------------------------------2~~-|
D-4~~~~~~~~~~~~~~-----------------4~~~~~~~~~~~~~~-----------------|

Guitar 2
E-----------------------------------------------------------------|
B-----------------------------------------------------------------|
G-----------------------------------------------------------------|
D---4-7-----7-----7-------6---6-7---4-7-----7-----9-----9-----9---|
A---------------------------------------------5-7---7-7---7-7---7-|
D-4-----4-4---4-4---4-4-4---4-----4-----4-4-----------------------|
Pm. . . . . . . . . . . . . . . . . . . . . . . . . . . . . . . .

==================================================================
==================================================================


Pre Chorus 2

Guitar 1
E-----------------------------------------------------------------|
B-----------------------------------------------------------------|
G-----2~~~~~~-1~~~~~~~~~~~~~~~~~~~~~~-2~~~~~~-1~~~~~~~~~~~~~~~~~~-|
D-0~~~~~~-2~~~~~~~~~~~~~~~~~~~~~~-0~~~~~~-2~~~~~~~~~~~~~~~~~~~~~~-|
A-----------------------------------------------------------------|
D-----------------------------------------------------------------|

Guitar 2
E-----------------------------------------------------------------|
B-----------------------------------------------------------------|
G-----------------------------------------------------------------|
D-0-4-7-0-0-7-0-0-7-0-0-0-6-0-6-7-0-4-7-0-0-7-0-0-7-0-----9-----9-|
A-----------------------------------------------------5-7---7-7---|
D-----------------------------------------------------------------|
Pm. . . . . . . . . . . . . . . . . . . . . . . . . . . . . . . .

Guitar 3
E-2---2---2---2-2---2-2---2---2---2---2---2---2-2---2-2---2---2---|
B-3---3---3---3-3---3-3---3---3---3---3---3---3-3---3-3---3---3---|
G-2---2---2---2-2---2-2---2---2---2---2---2---2-2---2-2---2---2---|
D-0---0---0---0-0---0-0---0---0---0---0---0---0-0---0-0---0---0---|
A-----------------------------------------------------------------|
E-----------------------------------------------------------------|

==================================================================

Guitar 1
E-----------------------------------------------------------------|
B-------------------------------------------------2~~~~~~~~~~~~~~-|
G-----2~~~~~~~-1~~~~~~~~~~~~~~~~~-----2~~~~~~-1~~-----2~~~~~~~~~~-|
D---------2~~~~~~~~~~~~~~~~~~~~~~---------2~~~~~~---------2~~~~~~-|
A-------------------------------------------------------------2~~-|
D-4~~~~~~~~~~~~~~-----------------4~~~~~~~~~~~~~~-----------------|

Guitar 2
E-----------------------------------------------------------------|
B-----------------------------------------------------------------|
G-----------------------------------------------------------------|
D---4-7-----7-----7-------6---6-7---4-7-----7-----9-----9-----9---|
A---------------------------------------------5-7---7-7---7-7---7-|
D-4-----4-4---4-4---4-4-4---4-----4-----4-4-----------------------|
Pm. . . . . . . . . . . . . . . . . . . . . . . . . . . . . . . .

Guitar 3
E-2---2---2---2-2---2-2---2---2---2---2---2---2-2---2-2---2---2---|
B-2---2---2---2-2---2-2---2---2---2---2---2---2-2---2-2---2---2---|
G-2---2---2---2-2---2-2---2---2---2---2---2---2-2---2-2---2---2---|
D-4---4---4---4-4---4-4---4---4---4---4---4---4-4---4-4---4---4---|
A-4---4---4---4-4---4-4---4---4---4---4---4---4-4---4-4---4---4---|
E-----------------------------------------------------------------|

==================================================================

Guitar 1
E-----------------------------------------------------------------|
B-----------------------------------------------------------------|
G-----2~~~~~~-1~~~~~~~~~~~~~~~~~~~~~~-2~~~~~~-1~~~~~~~~~~~~~~~~~~-|
D-0~~~~~~-2~~~~~~~~~~~~~~~~~~~~~~-0~~~~~~-2~~~~~~~~~~~~~~-2~~~~~~-|
A-----------------------------------------------------------------|
D-----------------------------------------------------------------|

Guitar 2
E-----------------------------------------------------------------|
B-----------------------------------------------------------------|
G-----------------------------------------------------------------|
D-0-4-7-0-0-7-0-0-7-0-0-0-6-0-6-7-0-4-7-0-0-7-0-0-7-0-----9-----9-|
A-----------------------------------------------------5-7---7-7---|
D-----------------------------------------------------------------|
Pm. . . . . . . . . . . . . . . . . . . . . . . . . . . . . . . .

Guitar 3
E-2---2---2---2-2---2-2---2---2---2---2---2---2-2---2-2---2---2---|
B-3---3---3---3-3---3-3---3---3---3---3---3---3-3---3-3---3---3---|
G-2---2---2---2-2---2-2---2---2---2---2---2---2-2---2-2---2---2---|
D-0---0---0---0-0---0-0---0---0---0---0---0---0-0---0-0---0---0---|
A-----------------------------------------------------------------|
E-----------------------------------------------------------------|

==================================================================

Guitar 1
E-------------------------------------------------------------2~~-|
B-------------------------------------------------2~~~~~~~~~~~~~~-|
G-----2~~~~~~~-1~~~~~~~~~~~~~~~~~-----2~~~~~~-1~~-----2~~~~~~~~~~-|
D---------2~~~~~~~~~~~~~~~~~~~~~~---------2~~~~~~---------2~~~~~~-|
A-----------------------------------------------------------------|
D-4~~~~~~~~~~~~~~-----------------4~~~~~~~~~~~~~~-----------------|

Guitar 2
E-----------------------------------------------------------------|
B-----------------------------------------------------------------|
G-----------------------------------------------------------------|
D---4-7-----7-----7-------6---6-7---4-7-----7-----9-----9-----9---|
A---------------------------------------------5-7---7-7---7-7---7-|
D-4-----4-4---4-4---4-4-4---4-----4-----4-4-----------------------|
Pm. . . . . . . . . . . . . . . . . . . . . . . . . . . . . . . .

Guitar 3
E-2---2---2---2-2---2-2---2---2---2---2---2---2-2---2-2---2---2---|
B-2---2---2---2-2---2-2---2---2---2---2---2---2-2---2-2---2---2---|
G-2---2---2---2-2---2-2---2---2---2---2---2---2-2---2-2---2---2---|
D-4---4---4---4-4---4-4---4---4---4---4---4---4-4---4-4---4---4---|
A-4---4---4---4-4---4-4---4---4---4---4---4---4-4---4-4---4---4---|
E-----------------------------------------------------------------|

==================================================================
==================================================================


Chorus 2

(x2)

Guitar 1
E-----------------------------------------------------------------|
B-----------------------------------------------------------------|
G-----------------------------------------------------------------|
D-0---0---0---0---0---0---0---0---0---0---0---0---0---0---0---0---|
A-0---0---0---0---0---0---0---0---0---0---0---0---0---0---0---0---|
D-0---0---0---0---0---0---0---0---0---0---0---0---0---0---0---0---|

Guitar 2
E-----------------------------------------------------------------|
B-12------10--12------9---10~~~~~~~~~~~~~~~~~~~~~-10~~~~~~~~~~~~~-|
G-----11----------11----------------------------------------------|
D-----------------------------------------------------------------|
A-----------------------------------------------------------------|
D-----------------------------------------------------------------|
pm    .           .

Guitar 3
E-2---2---2---2---2---2---2---2---2---2---2---2---2---2---2---2---|
B-3---3---3---3---3---3---3---3---3---3---3---3---3---3---3---3---|
G-2---2---2---2---2---2---2---2---2---2---2---2---2---2---2---2---|
D-0---0---0---0---0---0---0---0---0---0---0---0---0---0---0---0---|
A-----------------------------------------------------------------|
E-----------------------------------------------------------------|

==================================================================

Guitar 1
E-----------------------------------------------------------------|
B-----------------------------------------------------------------|
G-----------------------------------------------------------------|
D-2---2---2---2---2---2---2---2---2---2---2---2---2---2---2---2---|
A-2---2---2---2---2---2---2---2---2---2---2---2---2---2---2---2---|
D-2---2---2---2---2---2---2---2---2---2---2---2---2---2---2---2---|

Guitar 2
E-------------------------9~~~~~~~~~~~~~~~~~~~~~~-9~~~~~~~~~~~~~~-|
B-12------10--12------9-------------------------------------------|
G-----11----------11----------------------------------------------|
D-----------------------------------------------------------------|
A-----------------------------------------------------------------|
D-----------------------------------------------------------------|
pm    .           .

Guitar 3
E-0---0---0---0---0---0---0---0---0---0---0---0---0---0---0---0---|
B-0---0---0---0---0---0---0---0---0---0---0---0---0---0---0---0---|
G-1---1---1---1---1---1---1---1---1---1---1---1---1---1---1---1---|
D-2---2---2---2---2---2---2---2---2---2---2---2---2---2---2---2---|
A-2---2---2---2---2---2---2---2---2---2---2---2---2---2---2---2---|
E-----------------------------------------------------------------|

==================================================================

Guitar 1
E-----------------------------------------------------------------|
B-----------------------------------------------------------------|
G-----------------------------------------------------------------|
D-4---4---4---4---4---4---4---4---4---4---4---4---4---4---4---4---|
A-4---4---4---4---4---4---4---4---4---4---4---4---4---4---4---4---|
D-4---4---4---4---4---4---4---4---4---4---4---4---4---4---4---4---|

Guitar 2
E-----------------------------------------------------------------|
B-12------10--12------9---10~~~~~~~~~~~~~~~~~~~~~-10~~~~~~~~~~~~~-|
G-----11----------11----------------------------------------------|
D-----------------------------------------------------------------|
A-----------------------------------------------------------------|
D-----------------------------------------------------------------|
pm    .           .

Guitar 3
E-2---2---2---2---2---2---2---2---2---2---2---2---2---2---2---2---|
B-2---2---2---2---2---2---2---2---2---2---2---2---2---2---2---2---|
G-2---2---2---2---2---2---2---2---2---2---2---2---2---2---2---2---|
D-4---4---4---4---4---4---4---4---4---4---4---4---4---4---4---4---|
A-4---4---4---4---4---4---4---4---4---4---4---4---4---4---4---4---|
E-----------------------------------------------------------------|

==================================================================

Guitar 1
E-----------------------------------------------------------------|
B-----------------------------------------------------------------|
G-----------------------------------------------------------------|
D-2---2---2---2---2---2---2---2---2---2---2---2---2---2---2---2---|
A-2---2---2---2---2---2---2---2---2---2---2---2---2---2---2---2---|
D-2---2---2---2---2---2---2---2---2---2---2---2---2---2---2---2---|

Guitar 2
E-----------------------------------------------------------------|
B-12------10--12------9---10~~~~~~~~~~~~~-9---10--9---7---9---7---|
G-----11----------11----------------------------------------------|
D-----------------------------------------------------------------|
A-----------------------------------------------------------------|
D-----------------------------------------------------------------|
pm    .           .

Guitar 3
E-0---0---0---0---0---0---0---0---0---0---0---0---0---0---0---0---|
B-0---0---0---0---0---0---0---0---0---0---0---0---0---0---0---0---|
G-1---1---1---1---1---1---1---1---1---1---1---1---1---1---1---1---|
D-2---2---2---2---2---2---2---2---2---2---2---2---2---2---2---2---|
A-2---2---2---2---2---2---2---2---2---2---2---2---2---2---2---2---|
E-----------------------------------------------------------------|

==================================================================

Guitar 1
E-----------------------------------------------------------------|
B-----------------------------------------------------------------|
G-----------------------------------------------------------------|
D-0---0---0---0---0---0---0---0---0---0---0---0---0---0---0---0---|
A-0---0---0---0---0---0---0---0---0---0---0---0---0---0---0---0---|
D-0---0---0---0---0---0---0---0---0---0---0---0---0---0---0---0---|

Guitar 2
E-----------------------------------------------------------------|
B-12------10--12------9---10~~~~~~~~~~~~~~~~~~~~~-10~~~~~~~~~~~~~-|
G-----11----------11----------------------------------------------|
D-----------------------------------------------------------------|
A-----------------------------------------------------------------|
D-----------------------------------------------------------------|
pm    .           .

Guitar 3
E-2---2---2---2---2---2---2---2---2---2---2---2---2---2---2---2---|
B-3---3---3---3---3---3---3---3---3---3---3---3---3---3---3---3---|
G-2---2---2---2---2---2---2---2---2---2---2---2---2---2---2---2---|
D-0---0---0---0---0---0---0---0---0---0---0---0---0---0---0---0---|
A-----------------------------------------------------------------|
E-----------------------------------------------------------------|

==================================================================

Guitar 1
E-----------------------------------------------------------------|
B-----------------------------------------------------------------|
G-----------------------------------------------------------------|
D-2---2---2---2---2---2---2---2---2---2---2---2---2---2---2---2---|
A-2---2---2---2---2---2---2---2---2---2---2---2---2---2---2---2---|
D-2---2---2---2---2---2---2---2---2---2---2---2---2---2---2---2---|

Guitar 2
E-------------------------9~~~~~~~~~~~~~~~~~~~~~~-9~~~~~~~~~~~~~~-|
B-12------10--12------9-------------------------------------------|
G-----11----------11----------------------------------------------|
D-----------------------------------------------------------------|
A-----------------------------------------------------------------|
D-----------------------------------------------------------------|
pm    .           .

Guitar 3
E-0---0---0---0---0---0---0---0---0---0---0---0---0---0---0---0---|
B-0---0---0---0---0---0---0---0---0---0---0---0---0---0---0---0---|
G-1---1---1---1---1---1---1---1---1---1---1---1---1---1---1---1---|
D-2---2---2---2---2---2---2---2---2---2---2---2---2---2---2---2---|
A-2---2---2---2---2---2---2---2---2---2---2---2---2---2---2---2---|
E-----------------------------------------------------------------|

==================================================================

Guitar 1
E-----------------------------------------------------------------|
B-----------------------------------------------------------------|
G-----------------------------------------------------------------|
D-4---4---4---4---4---4---4---4---4---4---4---4---4---4---4---4---|
A-4---4---4---4---4---4---4---4---4---4---4---4---4---4---4---4---|
D-4---4---4---4---4---4---4---4---4---4---4---4---4---4---4---4---|

Guitar 2
E-----------------------------------------------------------------|
B-12------10--12------9---10~~~~~~~~~~~~~~~~~~~~~-10~~~~~~~~~~~~~-|
G-----11----------11----------------------------------------------|
D-----------------------------------------------------------------|
A-----------------------------------------------------------------|
D-----------------------------------------------------------------|
pm    .           .

Guitar 3
E-2---2---2---2---2---2---2---2---2---2---2---2---2---2---2---2---|
B-2---2---2---2---2---2---2---2---2---2---2---2---2---2---2---2---|
G-2---2---2---2---2---2---2---2---2---2---2---2---2---2---2---2---|
D-4---4---4---4---4---4---4---4---4---4---4---4---4---4---4---4---|
A-4---4---4---4---4---4---4---4---4---4---4---4---4---4---4---4---|
E-----------------------------------------------------------------|

==================================================================

Guitar 1
E-----------------------------------------------------------------|
B-----------------------------------------------------------------|
G-9---9---9---9---9---9---9---9---9---9---9---9---9---9---9---9---|
D-9---9---9---9---9---9---9---9---9---9---9---9---9---9---9---9---|
A-7---7---7---7---7---7---7---7---7---7---7---7---7---7---7---7---|
D-7---7---7---7---7---7---7---7---7---7---7---7---7---7---7---7---|

Guitar 2
E-----------------------------------------------------------------|
B-12------10--12------9---10~~~~~~~~~~~~~-9---10--9---7---9---7---|
G-----11----------11----------------------------------------------|
D-----------------------------------------------------------------|
A-----------------------------------------------------------------|
D-----------------------------------------------------------------|
pm    .           .

Guitar 3
E-5---5---5---5---5---5---5---5---5---5---5---5---5---5---5---5---|
B-5---5---5---5---5---5---5---5---5---5---5---5---5---5---5---5---|
G-6---6---6---6---6---6---6---6---6---6---6---6---6---6---6---6---|
D-7---7---7---7---7---7---7---7---7---7---7---7---7---7---7---7---|
A-7---7---7---7---7---7---7---7---7---7---7---7---7---7---7---7---|
E-----------------------------------------------------------------|

==================================================================
==================================================================


Outro

Guitar 1
E-----------------------------------------------------------------|
B-----------------------------------------------------------------|
G------2~~~~~~~~~~~~~~~~~~~~~~~~~~~~~~-2~~~~~~~~~~~~~~~~~~~~~~~~~-|
D-0~~~~~~~~~~~~~~~~~~~~~~~~~~~~~~-0~~~~~~~~~~~~~~~~~~~~~~~~~~~~~~-|
A-----------------------------------------------------------------|
D-----------------------------------------------------------------|

==================================================================

Guitar 1
E-----------------------------------------------------------------|
B-----------------------------------------------------------------|
G------2~~~~~~~~~-1~~~~~~~~~~~~~~------2~~~~~~~~~-1~~~~~~~~~~~~~~-|
D-------------------------2~~~~~~-------------------------2~~~~~~-|
A-----------------------------------------------------------------|
D-4~~~~~~~~~~~~~~~----------------4~~~~~~~~~~~~~~~----------------|

==================================================================

Guitar 1
E-----------------------------------------------------------------|
B-----------------------------------------------------------------|
G------2~~~~~~~~~~~~~~~~~~~~~~~~~~~~~~-2~~~~~~~~~~~~~~~~~~~~~~~~~-|
D-0~~~~~~~~~~~~~~~~~~~~~~~~~~~~~~-0~~~~~~~~~~~~~~~~~~~~~~~~~~~~~~-|
A-----------------------------------------------------------------|
D-----------------------------------------------------------------|

==================================================================

Guitar 1
E-----------------------------------------------------------------|
B-----------------------------------------------------------------|
G------2~~~~~~~~~-1~~~~~~~~~~~~~~------2~~~~~~~~~-1~~~~~~~~~~~~~~-|
D-------------------------2~~~~~~-------------------------2~~~~~~-|
A-----------------------------------------------------------------|
D-4~~~~~~~~~~~~~~~----------------4~~~~~~~~~~~~~~~----------------|

==================================================================
==================================================================
==================================================================


Tab Legend
h - hammer-on
p - pull-off
/ - slide up
\ - slide down
ps/- pickslide up
ps\- pickslide down
~ - let ring
pm.- palm mute
b - bend
r - return from bend
* - harmonic
x - dead note
^ - Whammy bar
^\ - Whammy bar (hold down)


That’s all of it! I hope it helped, and if you’ve got any problems, be sure to check out
my cover for visuals. Thanks, oh and one last thing... ROCK OUT!!!!
comments
print report bad tab
I want to post or [tab]
guest
You may want to rate the tab now too:
select rating
Please do not post tabs as comments. Select "correction" instead!