Oops, an error
Loading. Please wait.

Bounce Tab

ver2
ver2

Whole song

More versions @911Tabs.com
5,071 views 3 this week
8 commentsread comments
1 2 3 4 5
excellent!
x 12
add to favorites launch autoscroll
font size
0
reset
Autoscroll
+/-
esc
set tempo
stop
Contributor
Tuning
D A D G B E
WARNING: You are trying to view
                                    content from Ultimate-Guitar.com
                                    in an unauthorized application,
                                    which is prohibited.

                                    Please use an official Ultimate
                                    Guitar Tabs application for iPhone,
                                    iPad or Android to access legitimate
                                    chords, guitar, bass, and drum tabs
                                    from Ultimate-Guitar.com database.

                                    Type "ultimate guitar tabs" in Apple
                                    App Store's or Android Market's
                                    search to find the application.
Bounce
By Thousand Foot Krutch
Make sure you are in Drop D tuning!

D A D G B E

Key:
----
*=Mute

Intro
E----------------------------------------------------------------------------|
B----------------------------------------------------------------------------|
G----------------------------------------------------------------------------|
D--2--5-4--4/5-0--2--5-4--------4/5-4/5--2--5-4--4/5-0--2--5-4-------4/5-4/5-|
A--2--5-4--4/5-0--2--5-4--------4/5-4/5--2--5-4--4/5-0--2--5-4-------4/5-4/5-|
D--2--5-4--4/5-0--2--5-4--*4-*4-4/5-4/5--2--5-4--4/5-0--2--5-4-*4-*4-4/5-4/5-|

E--------------------------------------------|
B--------------------------------------------|
G--------------------------------------------|
D--2--5-4--4/5-0-7-7-7-7-7-7-7-7-7-9-9-9-9-5-|
A--2--5-4--4/5-0-7-7-7-7-7-7-7-7-7-9-9-9-9-5-|
D--2--5-4--4/5-0-7-7-7-7-7-7-7-7-7-9-9-9-9-5-|

Verse 1:

"We come rushing through your stereo system,
into your ear canal,
like the alignment of the solar system.
  Have you forgotten about the days,
when we just wanted to rock cause we like it
that way?"

Don't play untill 0:31

E------------0-0-0-0-0-0-0-0-0-0-0---------------------------------|
B--8-8-8-8-8-----------------------7-7-7-7-7-7-7-7-7-7-7-7-7-7-7-7-|
G--9-9-9-9-9-7-7-7-7-7-7-7-7-7-7-7-7-7-7-7-7-7-7-7-7-7-7-7-7-7-7-7-|
D------------------------------------------------------------------|
A------------------------------------------------------------------|
D------------------------------------------------------------------|

"and no more hate, no more lies, no more politics.
So sick of fakes who cry over copied riffs."


E-----------------------------------------------------------------|
B--7-8-8-8-8-8-8-8-8-8-10-10-10-10-10-10-10-8-8-8-8-8-8-8---------|
G--9-9-9-9-9-9-9-9-9-9-9--9--9--9--9--9--9--9-9-9-9-9-9-9---------|
D---------------------------------------------------------5-0-2-4-|
A---------------------------------------------------------5-0-2-4-|
D---------------------------------------------------------5-0-2-4-|

"This is the day that we rise and we conquer it.
 Raise your mics to the sky like apocalypse!  Everyone-"


Chorus:
E------------------------------------------------------------------------------|
B------------------------------------------------------------------------------|
G------------------------------------------------------------------------------|
D-2--5-4--4/5-0--2--5-4-------4/5-4/5--2-5-4-4/5-0-7-7-7-7-7-7-7-7-7-9-9-9-9-5-|
A-2--5-4--4/5-0--2--5-4-------4/5-4/5--2-5-4-4/5-0-7-7-7-7-7-7-7-7-7-9-9-9-9-5-|
D-2--5-4--4/5-0--2--5-4-*4-*4-4/5-4/5--2-5-4-4/5-0-7-7-7-7-7-7-7-7-7-9-9-9-9-5-|

"Bounce! show me what it's all about, don't stand just bounce.
Cause we're takin over now.
It's TFK, we rock the party,
and keep the party rockin in an old school way."

Verse 2:

"Situation restless, like someone tryin to sneak up on the guest list.
Let's play for a team that's called "not to mess with".
And check out the scenario, let the sound ya hear, control your stereo."

Don't play untill about 1:09

E------------0-0-0-0-0-0-0-0-0-0-0---------------------------------|
B--8-8-8-8-8-----------------------7-7-7-7-7-7-7-7-7-7-7-7-7-7-7-7-|
G--9-9-9-9-9-7-7-7-7-7-7-7-7-7-7-7-7-7-7-7-7-7-7-7-7-7-7-7-7-7-7-7-|
D------------------------------------------------------------------|
A------------------------------------------------------------------|
D------------------------------------------------------------------|

"Turn it up and let the people know, I'm never letting go, I'm never letting go."


E-----------------------------------------------------------------|
B--7-8-8-8-8-8-8-8-8-8-10-10-10-10-10-10-10-8-8-8-8-8-8-8---------|
G--9-9-9-9-9-9-9-9-9-9-9--9--9--9--9--9--9--9-9-9-9-9-9-9---------|
D---------------------------------------------------------5-0-2-4-|
A---------------------------------------------------------5-0-2-4-|
D---------------------------------------------------------5-0-2-4-|

"This is the day we rise and we conquer it, raise our mics to the sky like apocalypse.  Everyone--"


Chorus:
E------------------------------------------------------------------------------|
B------------------------------------------------------------------------------|
G------------------------------------------------------------------------------|
D-2--5-4--4/5-0--2--5-4-------4/5-4/5--2-5-4-4/5-0-7-7-7-7-7-7-7-7-7-9-9-9-9-5-|
A-2--5-4--4/5-0--2--5-4-------4/5-4/5--2-5-4-4/5-0-7-7-7-7-7-7-7-7-7-9-9-9-9-5-|
D-2--5-4--4/5-0--2--5-4-*4-*4-4/5-4/5--2-5-4-4/5-0-7-7-7-7-7-7-7-7-7-9-9-9-9-5-|

"Bounce! show me what it's all about, don't stand just bounce.
Cause we're takin over now. It's TFK, we rock the party,
and keep the party rockin in an old school way."


E------------------------------------------------------------------------------|
B------------------------------------------------------------------------------|
G------------------------------------------------------------------------------|
D-2--5-4--4/5-0--2--5-4-------4/5-4/5--2-5-4-4/5-0-7-7-7-7-7-7-7-7-7-9-9-9-9-5-|
A-2--5-4--4/5-0--2--5-4-------4/5-4/5--2-5-4-4/5-0-7-7-7-7-7-7-7-7-7-9-9-9-9-5-|
D-2--5-4--4/5-0--2--5-4-*4-*4-4/5-4/5--2-5-4-4/5-0-7-7-7-7-7-7-7-7-7-9-9-9-9-5-|

"Bounce! Show me what it's all about, don't just talk bounce.
Get up and let it all hang out, If you're feelin' hard to breathe,
ya better just leave, We 'bout to make it hotter than the third degree.

Bridge
E--7--7-7--7-7--7-7------------------------------------------------------------|
B--0--0-0--0-0--0-0--------------0--0-0-0--0-0-0-0-0-0-0-0-0-0-0---------------|
G--------------------------------5--5-5-5--4-4-4-2-2-2-2-2-2-2-2---------------|
D--2--2--2-2-2-2-2-*4--*4-4--*4-*4-*4-4--*4-4-4--5-5-5-5-5-5-5-5-7-7-7--7-7-10-|
A--2--2--2-2-2-2-2-*4--*4-4--*4-*4-*4-4--*4-4-4--5-5-5-5-5-5-5-5-7-7-7--7-7-10-|
D--2--2--2-2-2-2-2-*4--*4-4--*4-*4-*4-4--*4-4-4--5-5-5-5-5-5-5-5-7-7-7--7-7-10-|

"Lets break this mold, can't let this hold us, let's be soldiers,
no longer let them control us. Boys and girls,
together we'll shake the world, if you believe then put it to the sky with
me."


E--7--7-7--7-7--7-7------------------------------------------------------------|
B--0--0-0--0-0--0-0--------------0--0-0-0--0-0-0-0-0-0-0-0-0-0-0---------------|
G--------------------------------5--5-5-5--4-4-4-2-2-2-2-2-2-2-2---------------|
D--2--2--2-2-2-2-2-*4--*4-4--*4-*4-*4-4--*4-4-4--5-5-5-5-5-5-5-5-7-7-7--7-7-10-|
A--2--2--2-2-2-2-2-*4--*4-4--*4-*4-*4-4--*4-4-4--5-5-5-5-5-5-5-5-7-7-7--7-7-10-|
D--2--2--2-2-2-2-2-*4--*4-4--*4-*4-*4-4--*4-4-4--5-5-5-5-5-5-5-5-7-7-7--7-7-10-|

"If you agree there is more to this than what we see and what we know.
Then bounce til ya lose control. And grab a partner,
We about to make this hotter, turn up the heat while we get this started.


More Bridge---2:13----------------------------------------------------------|
E------0-0-------0-0------|-0-----------0--------0--------0-----0--0--0--0--|
B--0-0-----0/1-1----------|-5-----------4--------3--------1-----5--4--3--1--|
G--------------------2-2--|-------------------------------------------------|
D------2-2-------2-2------|-2--2-0-3-2--2-0-3-2--2-0-3-2--2-0-3-2--2--2--2--|
A--2-2-----2/3-3-----0-0--|-2--2-0-3-2--2-0-3-2--2-0-3-2--2-0-3-2--2--2--2--|
D-------------------------|-2--2-0-3-2--2-0-3-2--2-0-3-2--2-0-3-2--2--2--2--|

"The time has come now shake up the dust until it settles the sand.  OH__
Bounce, bounce! (wake up n')
Bounce! (stand up n'), let your spirit fly...

Chorus
E-----------------------------------------------------------------------------|
B-----------------------------------------------------------------------------|
G-----------------------------------------------------------------------------|
D--2--5-4--4/5-0--2--5-4-------4/5-4/5--2-5-4-4/5-0-7-7-7-7-7-7-7-7-7-9-9-9-9-|
A--2--5-4--4/5-0--2--5-4-------4/5-4/5--2-5-4-4/5-0-7-7-7-7-7-7-7-7-7-9-9-9-9-|
D--2--5-4--4/5-0--2--5-4-*4-*4-4/5-4/5--2-5-4-4/5-0-7-7-7-7-7-7-7-7-7-9-9-9-9-|

"Bounce! Show me what it's all about, don't stand just bounce.
Cause we're takin over now. It's TFK, we rock the party,
and keep the party rockin in an old school way.


E---------------------------------------------------------------------------|
B---------------------------------------------------------------------------|
G---------------------------------------------------------------------------|
D--5-5-5-2--5-4--4/5-0--2--5-4-------4/5-4/5--2-5-4-4/5-0-7-7-7-7-7-7-7-7-7-|
A--5-5-5-2--5-4--4/5-0--2--5-4-------4/5-4/5--2-5-4-4/5-0-7-7-7-7-7-7-7-7-7-|
D--5-5-5-2--5-4--4/5-0--2--5-4-*4-*4-4/5-4/5--2-5-4-4/5-0-7-7-7-7-7-7-7-7-7-|

"Bounce! Show me what it's all about, don't just talk bounce.
Get up and let it all hang out, If you're feeling hard to breathe,
ya better just leave...


E----------------|
B----------------|
G----------------|
D--9-9-9-9-5-----|
A--9-9-9-9-5-----|
D--9-9-9-9-5-----|

"We bout to make it hotter than the third degree!"
comments
print report bad tab
8 comments total. Showing first comments.
0 reply
the22fretfreak wrote on August 30 2008, 02:12 pm

Finally! "Bounce" with lyrics. That really helps me find where I am dude...thanks!

Great Job!

0 reply
classicrockboy wrote on August 30 2008, 04:09 pm

good job

0 reply
A3r0sm1th wrote on August 30 2008, 04:31 pm

thanks:)

I want to post or [tab]
guest
You may want to rate the tab now too:
select rating
Please do not post tabs as comments. Select "correction" instead!