Oops, an error
Loading. Please wait.

Hit The Floor Tab

ver2
ver2

Whole song

More versions @911Tabs.com
2,442 views 1 this week
no commentswrite comment
1 2 3 4 5
excellent!
x 1
add to favorites launch autoscroll
font size
0
reset
Autoscroll
+/-
esc
set tempo
stop
Difficulty
Tuning
intermediate
D A D G B E
WARNING: You are trying to view
                                    content from Ultimate-Guitar.com
                                    in an unauthorized application,
                                    which is prohibited.

                                    Please use an official Ultimate
                                    Guitar Tabs application for iPhone,
                                    iPad or Android to access legitimate
                                    chords, guitar, bass, and drum tabs
                                    from Ultimate-Guitar.com database.

                                    Type "ultimate guitar tabs" in Apple
                                    App Store's or Android Market's
                                    search to find the application.
Band: Thousand Foot Krutch
Song: Hit the Floor
Album: The Art Of Breaking
Tabed By: J Walk
Tuning: Drop D

Legend:
	| b - Bend
	| / - Slide up
	| \ - Slide down
	| h - Hammer-on
	| p - Pull-off
	| ~ - Vibrato
	| + - Harmonic
	| x - Muted Note
	| . - Palm Muted
	| x/ pick scrape up
	| x\ pick scrape down

INTRO: Slight Wah effect
e|-----------------------------------------------------------------|
b|-----------------------------------------------------------------|
g|-----------------------------------------------------------------|
d|--9-9-9--9-9-10*--9-9-9--9-9-10--9-9-9--9-9-10--9----------------|
a|-------------------------------------------------10-9--9-9-9-xx--|
D|-----------------------------------------------------------------|

VERSE:
e|-------------------------------------|---------------------------------|
b|-------------------------------------|---------------------------------|
g|-------------------------------------|---------------------------------|
d|-------10----10----10----10-------10-|-------9----9----9----9------9---|
a|--0------0-0---0-0---0-0------0-0----|--0-----0-0--0-0--0-0-----0-0----|
D|-------------------------------------|---------------------------------|
           . .   . .   . .      . .             . .  . .  . .     . .

e|-------------------------------------|-----------------------------------|
b|-------------------------------------|-----------------------------------|
g|-------------------------------------|-----------------------------------|
d|-------10----10----10----10-------10-|-------9-----9----12----10------9--|
a|--0------0-0---0-0---0-0------0-0----|--0-----0-0---0-0---0-0------0-0---|
D|-------------------------------------|-----------------------------------|
           . .   . .   . .      . .             . .   . .   . .      . .

e|--------------------------------|------------------------------------|
b|--------------------------------|------------------------------------|
g|-------9----9----9----9------9--|------10----10----10----10------10--|
d|--7-----------------------------|------------------------------------|
a|--------0-0--0-0--0-0-----0-0---|--0-----0-0---0-0---0-0------0-0----|
D|--------------------------------|------------------------------------|
          . .  . .  . .     . .            . .   . .   . .      . .

e|------------------------------------|-----------------------------------|
b|------------------------------------|-----------------------------------|
g|------12----12----12----12------12--|------11----11----11----11------9--|
d|------------------------------------|-----------------------------------|
a|--0-----0-0---0-0---0-0------0-0----|--0-----0-0---0-0---0-0------0-0---|
D|------------------------------------|-----------------------------------|
          . .   . .   . .      . .             . .   . .   . .      . .

PRE-CHORUS: WAH WAH/FLANGE EFFECT
   (Repeat x2)
e|--------|---------|---------|----------|  
b|--------|---------|---------|----------|  
g|o-------|---------|---------|---------o|  
d|o-------|---------|---------|---------o|  
a|--3-----|--5------|--7------|--10------|
D|--3-----|--5------|--7------|--10------|

e|-----------------|  
b|-----------------|  
g|--14-14---14-14--|
d|--14-14---14-14--|  
a|--12-12---12-12--|  
D|-----------------|

CHORUS:
   (Repeat x2)
e|-----------------------------|---------------------------------|
b|-----------------------------|---------------------------------|
g|o----------------------------|---------------------------------|
d|o-0h2--0h2--0h2--0h2--x--xx--|--5h7--5h7--5h7--7h5--10--10-10--|
a|--0h2--0h2--0h2--0h2--x--xx--|--5h7--5h7--5h7--7h5--10--10-10--|
D|--0h2--0h2--0h2--0h2--x--xx--|--5h7--5h7--5h7--7h5--10--10-10--|

e|-----------------------------|---------------------------------|
b|-----------------------------|---------------------------------|
g|-----------------------------|--------------------------------o|
d|--0h2--0h2--0h2--0h2--x--xx--|--5h7--5h7--5h7--55--10--10-10--o|
a|--0h2--0h2--0h2--0h2--x--xx--|--5h7--5h7--5h7--55--10--10-10---|
D|--0h2--0h2--0h2--0h2--x--xx--|--5h7--5h7--5h7--55--10--10-10---|

Post-Chorus:
e|------------------------------------|------------------------------------|
b|------------------------------------|------------------------------------|
g|------------------------------------|------------------------------------|
d|-7-7-7-7--7-7-7-7--7-7-7-7--7-7-7-7-|-3-3-3-3--3-3-3-3--3-3-3-3--3-3-3-3-| 
a|-7-7-7-7--7-7-7-7--7-7-7-7--7-7-7-7-|-3-3-3-3--3-3-3-3--3-3-3-3--3-3-3-3-|
D|-7-7-7-7--7-7-7-7--7-7-7-7--7-7-7-7-|-3-3-3-3--3-3-3-3--3-3-3-3--3-3-3-3-|
   . . . .    . . .  .   . .    . . .   . . . .    . . .  .   . .    . . .

e|------------------------------------|------------------------------------|
b|------------------------------------|------------------------------------|
g|------------------------------------|------------------------------------|
d|-5-5-5-5--5-5-5-5--5-5-5-5--5-5-5-5-|-0-0-0-0--0-0-0-0--0-0-0-0--0-0-0-0-| 
a|-5-5-5-5--5-5-5-5--5-5-5-5--5-5-5-5-|-0-0-0-0--0-0-0-0--0-0-0-0--0-0-0-0-|
D|-5-5-5-5--5-5-5-5--5-5-5-5--5-5-5-5-|-0-0-0-0--0-0-0-0--0-0-0-0--0-0-0-0-|
   . . . .    . . .  .   . .    . . .   . . . .  . . . .  

VERSE:
e|-------------------------------------|---------------------------------|
b|-------------------------------------|---------------------------------|
g|-------------------------------------|---------------------------------|
d|-------10----10----10----10-------10-|-------9----9----9----9------9---|
a|--0------0-0---0-0---0-0------0-0----|--0-----0-0--0-0--0-0-----0-0----|
D|-------------------------------------|---------------------------------|
           . .   . .   . .      . .             . .  . .  . .     . .

e|-------------------------------------|-----------------------------------|
b|-------------------------------------|-----------------------------------|
g|-------------------------------------|-----------------------------------|
d|-------10----10----10----10-------10-|-------9-----9----12----10------9--|
a|--0------0-0---0-0---0-0------0-0----|--0-----0-0---0-0---0-0------0-0---|
D|-------------------------------------|-----------------------------------|
           . .   . .   . .      . .             . .   . .   . .      . .

e|--------------------------------|------------------------------------|
b|--------------------------------|------------------------------------|
g|-------9----9----9----9------9--|------10----10----10----10------10--|
d|--7-----------------------------|------------------------------------|
a|--------0-0--0-0--0-0-----0-0---|--0-----0-0---0-0---0-0------0-0----|
D|--------------------------------|------------------------------------|
          . .  . .  . .     . .            . .   . .   . .      . .

e|------------------------------------|-----------------------------------|
b|------------------------------------|-----------------------------------|
g|------12----12----12----12------12--|------11----11----11----11------9--|
d|------------------------------------|-----------------------------------|
a|--0-----0-0---0-0---0-0------0-0----|--0-----0-0---0-0---0-0------0-0---|
D|------------------------------------|-----------------------------------|
          . .   . .   . .      . .             . .   . .   . .      . .

PRE-CHORUS: WAH WAH/FLANGE EFFECT
e|--------|---------|---------|----------|  
b|--------|---------|---------|----------|  
g|--------|---------|---------|----------|  
d|--------|---------|---------|----------|  
a|--3-----|--5------|--7------|--10------|
D|--3-----|--5------|--7------|--10------|

e|-----------------|  
b|-----------------|  
g|--14-14---14-14--|
d|--14-14---14-14--|  
a|--12-12---12-12--|  
D|-----------------|

CHORUS:
   (Repeat x2)
e|-----------------------------|---------------------------------|
b|-----------------------------|---------------------------------|
g|o----------------------------|---------------------------------|
d|o-0h2--0h2--0h2--0h2--x--xx--|--5h7--5h7--5h7--7h5--10--10-10--|
a|--0h2--0h2--0h2--0h2--x--xx--|--5h7--5h7--5h7--7h5--10--10-10--|
D|--0h2--0h2--0h2--0h2--x--xx--|--5h7--5h7--5h7--7h5--10--10-10--|

e|-----------------------------|---------------------------------|
b|-----------------------------|---------------------------------|
g|-----------------------------|--------------------------------o|
d|--0h2--0h2--0h2--0h2--x--xx--|--5h7--5h7--5h7--55--10--10-10--o|
a|--0h2--0h2--0h2--0h2--x--xx--|--5h7--5h7--5h7--55--10--10-10---|
D|--0h2--0h2--0h2--0h2--x--xx--|--5h7--5h7--5h7--55--10--10-10---|

BRIDGE:
   (Repeat x4)
e|------------|--------------|-------------|---------------|  
b|------------|--------------|-------------|---------------|
g|o-7---------|--------------|-------------|--------------o|
d|o-7---------|--8----7------|--5----------|--3----2------o|  
a|--5---------|--8----7------|--5----------|--3----2-------|  
D|------------|--8----7------|--5----------|--3----2-------|

e|-----------------------------|---------------------------------|
b|-----------------------------|---------------------------------|
g|-----------------------------|---------------------------------|
d|--0h2--0h2--0h2--0h2--x--xx--|--5h7--5h7--5h7--7h5--10--10-10--|
a|--0h2--0h2--0h2--0h2--x--xx--|--5h7--5h7--5h7--7h5--10--10-10--|
D|--0h2--0h2--0h2--0h2--x--xx--|--5h7--5h7--5h7--7h5--10--10-10--|

e|-----------------------------|---------------------------------|
b|-----------------------------|---------------------------------|
g|-----------------------------|---------------------------------|
d|--0h2--0h2--0h2--0h2--x--xx--|--5h7--5h7--5h7--55--10--10-10---|
a|--0h2--0h2--0h2--0h2--x--xx--|--5h7--5h7--5h7--55--10--10-10---|
D|--0h2--0h2--0h2--0h2--x--xx--|--5h7--5h7--5h7--55--10--10-10---|

OUTRO:
   (Repeat x4)
e|-----------------------------|---------------------------------|
b|-----------------------------|---------------------------------|
g|o----------------------------|---------------------------------|
d|o-0h2--0h2--0h2--0h2--x--xx--|--5h7--5h7--5h7--7h5--10--10-10--|
a|--0h2--0h2--0h2--0h2--x--xx--|--5h7--5h7--5h7--7h5--10--10-10--|
D|--0h2--0h2--0h2--0h2--x--xx--|--5h7--5h7--5h7--7h5--10--10-10--|

e|-----------------------------|---------------------------------|
b|-----------------------------|---------------------------------|
g|-----------------------------|--------------------------------o|
d|--0h2--0h2--0h2--0h2--x--xx--|--5h7--5h7--5h7--55--10--10-10--o|
a|--0h2--0h2--0h2--0h2--x--xx--|--5h7--5h7--5h7--55--10--10-10---|
D|--0h2--0h2--0h2--0h2--x--xx--|--5h7--5h7--5h7--55--10--10-10---|

e|----------------------||
b|----------------------||
g|----------------------||
d|--0h1--0h1--0h1--0h1--||
a|--0h1--0h1--0h1--0h1--||
D|--0h1--0h1--0h1--0h1--||

Second Guitar Part:
INTRO: Rest

VERSE: Rest

PRE-CHORUS: WAH WAH/FLANGE EFFECT
e|--------|---------|---------|----------|
b|--------|---------|---------|----------|
g|--------|---------|---------|----------|
d|--------|---------|---------|----------|
a|--------|---------|---------|----------|
D|--------|---------|---------|----------|

e|--------|---------|---------|----------|  
b|--6-----|--8------|--10-----|--(10)----|  
g|--------|---------|---------|----------|
d|--------|---------|---------|----------|  
a|--------|---------|---------|----------|  
D|--------|---------|---------|----------|

e|-----------------|  
b|-----------------|  
g|--10-10---10-10--|
d|-----------------|  
a|-----------------|  
D|-----------------|

CHORUS: (Play with Guitar 1)
   (Repeat x2)
e|-----------------------------|---------------------------------|
b|-----------------------------|---------------------------------|
g|o----------------------------|---------------------------------|
d|o-0h2--0h2--0h2--0h2--x--xx--|--5h7--5h7--5h7--7h5--10--10-10--|
a|--0h2--0h2--0h2--0h2--x--xx--|--5h7--5h7--5h7--7h5--10--10-10--|
D|--0h2--0h2--0h2--0h2--x--xx--|--5h7--5h7--5h7--7h5--10--10-10--|

e|-----------------------------|---------------------------------|
b|-----------------------------|---------------------------------|
g|-----------------------------|--------------------------------o|
d|--0h2--0h2--0h2--0h2--x--xx--|--5h7--5h7--5h7--55--10--10-10--o|
a|--0h2--0h2--0h2--0h2--x--xx--|--5h7--5h7--5h7--55--10--10-10---|
D|--0h2--0h2--0h2--0h2--x--xx--|--5h7--5h7--5h7--55--10--10-10---|

Post-Chorus:
e|------------------------------------|-------------------------------------|
b|------------------------------------|-------------------------------------|
g|--14b16~--14b16~--------------------|--14b16~--14b16~---------------------|
d|------------------------------------|-------------------------------------|
a|------------------------------------|-------------------------------------|
D|------------------------------------|-------------------------------------|

e|------------------------------------|-------------------------------------|
b|------------------------------------|-------------------------------------|
g|--14b16~--14b16~--------------------|--14b16---14b16--14b16--14b16-14b16r-|
d|------------------------------------|-------------------------------------|
a|------------------------------------|-------------------------------------|
D|------------------------------------|-------------------------------------|

VERSE: Rest

PRE-CHORUS: WAH WAH/FLANGE EFFECT
e|--------|---------|---------|----------|  
b|--6-----|--8------|--10-----|--(10)----|  
g|--------|---------|---------|----------|
d|--------|---------|---------|----------|  
a|--------|---------|---------|----------|  
D|--------|---------|---------|----------|

e|-----------------|  
b|-----------------|  
g|--10-10---10-10--|
d|-----------------|  
a|-----------------|  
D|-----------------|

CHORUS: (Play with Guitar 1)
   (Repeat x2)
e|-----------------------------|---------------------------------|
b|-----------------------------|---------------------------------|
g|o----------------------------|---------------------------------|
d|o-0h2--0h2--0h2--0h2--x--xx--|--5h7--5h7--5h7--7h5--10--10-10--|
a|--0h2--0h2--0h2--0h2--x--xx--|--5h7--5h7--5h7--7h5--10--10-10--|
D|--0h2--0h2--0h2--0h2--x--xx--|--5h7--5h7--5h7--7h5--10--10-10--|

e|-----------------------------|---------------------------------|
b|-----------------------------|---------------------------------|
g|-----------------------------|--------------------------------o|
d|--0h2--0h2--0h2--0h2--x--xx--|--5h7--5h7--5h7--55--10--10-10--o|
a|--0h2--0h2--0h2--0h2--x--xx--|--5h7--5h7--5h7--55--10--10-10---|
D|--0h2--0h2--0h2--0h2--x--xx--|--5h7--5h7--5h7--55--10--10-10---|

BRIDGE:
e|------------|--------------|-------------|---------------|
b|------------|--------------|-------------|---------------|
g|------------|--------------|-------------|---------------|
d|--11b12-----|--------------|-------------|---------------|
a|------------|--------------|-------------|---------------|
D|------------|--------------|-------------|---------------|

e|------------|--------------|-----------------------|---------------|
b|------------|--------------|-----------------------|---------------|
g|------------|--------------|-----------------------|---------------|
d|--11b12-----|--------------|--9b10-9b10-9b10-9b10--|-9b10r-(fade)--|
a|------------|--------------|-----------------------|---------------|
D|------------|--------------|-----------------------|---------------|

e|----------------|------------------|----------------|--------------|
b|----------------|------------------|----------------|--------------|
g|----------------|------------------|----------------|--------------|
d|--11b12--11b12--|--14b15--(15)r14~-|--15b17--15b17--|--15~15~--14--|
a|----------------|------------------|----------------|--------------|
D|----------------|------------------|----------------|--------------|

e|----------------|------------------|---------------------------|
b|----------------|--17b18--(18)r17~-|--18b20-18b20-18b20-18b20--|
g|--17b19--17b19--|------------------|---------------------------|
d|----------------|------------------|---------------------------|
a|----------------|------------------|---------------------------|
D|----------------|------------------|---------------------------|

e|------------------------------|
b|--20b22-20b22-20b22-20b22-22--|
g|------------------------------|
d|------------------------------|
a|------------------------------|
D|------------------------------|


e|-----------------------------|---------------------------------|
b|-----------------------------|---------------------------------|
g|-----------------------------|---------------------------------|
d|-----------------------------|---------------------------------|
a|-----------------------------|---------------------------------|
D|-----------------------------|---------------------------------|

e|-----------------------------|---------------------------------|
b|-----------------------------|---------------------------------|
g|-----------------------------|---------------------------------|
d|-----------------------------|---------------------------------|
a|-----------------------------|---------------------------------|
D|-----------------------------|---------------------------------|

OUTRO:
(listen to the cd for correct timing)
e|--------------------------------------------------------|
b|--------------------------------------------------------|
g|--14b16--14b16--------14b16--14b16--------14b16--14b16--|
d|--------------------------------------------------------|
a|--------------------------------------------------------|
D|--------------------------------------------------------|

e|----------------------------------------------------------|
b|---------------------------------------15--14b15--14b15~--|
g|--14b16--14b16--14b16--14b16--14b16r14--------------------|
d|----------------------------------------------------------|
a|----------------------------------------------------------|
D|----------------------------------------------------------|

e|--------------------------------------------------------------------------|
b|-15b17--15b17~-(17)r15--12h15------12-15-------12-15------12-15------12-15|
g|------------------------------14b16------14b16-------14b16-----14b16------|
d|--------------------------------------------------------------------------|
a|--------------------------------------------------------------------------|
D|--------------------------------------------------------------------------|

e|----------------------------------------------------|
b|-15p12-15p12----------------------------------------|
g|------------14p12-14p12--12-14b16r14-12-14b16r14~~--|
d|-----------------------14---------------------------|
a|----------------------------------------------------|
D|----------------------------------------------------|

e|--------------------------------------------------------------------------|
b|-------------------------------------------------15h17-15h17-15h17-15h17--|
g|-----------------------12h14-12h14-12h14-12h14b16-------------------------|
d|12h14-12h14-12h14-12h14---------------------------------------------------|
a|--------------------------------------------------------------------------|
D|--------------------------------------------------------------------------|

e|--------------------------------------------------------------------------|
b|-15-17-15----------------------------------------------15~--15~-15~-15~-15|
g|---------16-14h16p14-14/12--14b16--14b16--14b16-14b16-x-------------------|
d|--------------------------------------------------------------------------|
a|--------------------------------------------------------------------------|
D|--------------------------------------------------------------------------|

e|-----------------------------12-----------------12h14-14-12---------------|
b|1512--------------12h14h15-15--14-12---12h14h15-----------14p12-14b16r14--|
g|---14-12--12h14h15--------------------14----------------------------------|
d|--------14----------------------------------------------------------------|
a|--------------------------------------------------------------------------|
D|--------------------------------------------------------------------------|

e|-------------------------------------------------------|
b|-------------------------------------------------------|
g|-14~12-14~12-14~12-14~12-14~12-14~12-14~12-14~12--/2~~-|
d|-------------------------------------------------------|
a|-------------------------------------------------------|
D|-------------------------------------------------------|

e|----------------------||
b|----------------------||
g|--7h9--7h9--7h9--7h9--||
d|----------------------||
a|----------------------||
D|----------------------||
comments
We did not receive enough feedback on this tab! Please rate:
print report bad tab
1 2 3 4 5
I want to post or [tab]
guest
You may want to rate the tab now too:
select rating
Please do not post tabs as comments. Select "correction" instead!