Oops, an error
Loading. Please wait.

Welcome To The Masquerade Bass Tab

ver1
ver1

Album

Whole song

Interactive

More versions @911Tabs.com
5,917 views 12 this week
6 commentsread comments
1 2 3 4 5
excellent!
x 7
Autoscroll
+/-
esc
set tempo
stop
Contributor
WARNING: You are trying to view
                                    content from Ultimate-Guitar.com
                                    in an unauthorized application,
                                    which is prohibited.

                                    Please use an official Ultimate
                                    Guitar Tabs application for iPhone,
                                    iPad or Android to access legitimate
                                    chords, guitar, bass, and drum tabs
                                    from Ultimate-Guitar.com database.

                                    Type "ultimate guitar tabs" in Apple
                                    App Store's or Android Market's
                                    search to find the application.
WELCOME TO THE MASQUERADE (Album) - Thousand Foot Krutch
Tabbed by: SK8nBASS
With help from: mariewong for Fire It Up
            


Song Order:
1.The Invitation and Welcome to the Masquerade ~ BEAD
2.Fire It Up ~ Drop D
3.Bring Me to Life ~ BEAD
4.E for Extinction ~ BEAD
5.Watching Over Me ~ Standard
6.The Part That Hurts the Most (Is Me) ~ Drop D
7.Scream ~ Drop D
8.Look Away ~ No Bass
9.Forward Motion ~ Drop D
10.Outta Control ~ BEAD
11.Smack Down ~ Drop D
12.Already Home ~ Standard



---------------------------------------------
| /  slide up
| \  slide down
| h  hammer-on
| p  pull-off
| ~  let note ring
| +  harmonic                               
| x mute note                           
---------------------------------------------



===============================================================================
-------------------------------------------------------------------------------
	The Invitation and Welcome to the Masquerade - Thousand Foot Krutch
-------------------------------------------------------------------------------
===============================================================================


Tuning: BEAD

_The Invitation_

Main Riff at 0:23
D|--------------------|    |----------------------------|
A|--------------------| x3 |----------------------------| x2
E|--2~-----3~-----5~--|    |--222222223333333355555555--|
B|--------------------|    |----------------------------|

_Welcome to the Masquerade_

Intro
D|------------------------------------------|
A|------------------------------------------|
E|------------------------------------------|
B|--0-0-0-777-3-3-3-887-0-0-0-77-335322320--|

D|---------------------------------------|
A|---------------------------------------|
E|---------------------------------------|
B|--0-0-0-777-3-3-3-887-0-0-0-77-55-000--|

Verse
D|-------------------------------------------|
A|-------------------------------------------|
E|-------------------------------------------|
B|--0000000000000000-0-0-0-0000000000000000--|

Pre-Chorus
D|-------------------------------|
A|--2~------0~-------------------|
E|-------------------4~------2~--|
B|-------------------------------|

Chorus
D|--------------------------------|
A|--------------------------------| x4
E|--------------------------------|
B|--0~----8~----5~---22-33-55-22--|

D|---------------------------------------|
A|---------------------------------------|
E|---------------------------------------|
B|--0-0-0-777-3-3-3-887-0-0-0-77-55-000--|

Verse
D|-------------------------------------------|
A|-------------------------------------------|
E|-------------------------------------------|
B|--0000000000000000-0-0-0-0000000000000000--|

Bridge
D|---------------------------------------------------|
A|---------------------------------------------------| x2
E|--0-2---2-3---0-2---------0-2---2-3-2---------0-0--|
B|------0-----------0-4-3-------0---------3-3-3------|

Pre-Chorus
D|-------------------------------|
A|--2~------0~-------------------|
E|-------------------4~------2~--|
B|-------------------------------|

Chorus
D|--------------------------------|
A|--------------------------------| x4
E|--------------------------------|
B|--0~----8~----5~---22-33-55-22--|

Bridge 2
D|--------------------------------------------------|
A|--------------------------------------------------| x2
E|--------------3--3--3--3--5--5--5--5--2--2--2--2--|
B|--0--0--0--0--------------------------------------|

D|------------------------------------|
A|------------------------------------| x2
E|----------333333335555555522222222--|
B|--00000000--------------------------|

~Break~

Chorus
D|--------------------------------|
A|--------------------------------| x4
E|--------------------------------|
B|--0~----8~----5~---22-33-55-22--|

Outro
D|--------------------------------------|
A|--------------------------------------|
E|--------------------------------------|
B|--0-0-0-777-3-3-3-887-0-0-0-77-55-00--|

===============================================================================

-------------------------------------------------------------------------------
	Fire It Up - Thousand Foot Krutch
-------------------------------------------------------------------------------
===============================================================================
 

Tuning: Drop D

Chorus
G|-------------------------|
D|-------------------------| x4
A|-------------------------|  
D|-030~--5~--03~--05~-030--|

G|---------------------------------------------------|
D|---------------------------------------------------| x2
A|--3------------3------------3----------------------|
D|----5-3-5-3-0----5-3-5-3-0----5-3-5-3-00--333--55--|

Verse
G|-----------------------------------------|
D|-----------------------------------------| x2
A|-----------------------------------------| 
D|-3-0000-87--000-787---3-0000-87--000-57--|

Chorus
G|-------------------------|
D|-------------------------| x4
A|-------------------------|  
D|-030~--5~--03~--05~-030--|

G|---------------------------------------------------|
D|---------------------------------------------------| x2
A|--3------------3------------3----------------------|
D|----5-3-5-3-0----5-3-5-3-0----5-3-5-3-00--333--55--|

Bridge
G|---------------------------------------------------|
D|---------------------------------------------------| 
A|---------------------------------------------------|
D|--0-/12--5-7-3--0-/12-10-12\--0-/12--5-7-3--0-/12--|

Verse
G|-----------------------------------------|
D|-----------------------------------------| x2
A|-----------------------------------------| 
D|-3-0000-87--000-787---3-0000-87--000-57--|

Chorus
G|-------------------------|    |----------------|
D|-------------------------| x3 |----------------|
A|-------------------------|    |----------------|
D|-030~--5~--03~--05~-030--|    |--030~--5~--03--|

G|---------------------------------------------------|
D|---------------------------------------------------| x4
A|--3------------3------------3----------------------|
D|----5-3-5-3-0----5-3-5-3-0----5-3-5-3-00--333--55--|


===============================================================================
-------------------------------------------------------------------------------
	Bring Me to Life - Thousand Foot Krutch
-------------------------------------------------------------------------------
===============================================================================


Tuning: BEAD

~Piano Intro with Some Guitar and Maybe a Little Drum~

Intro
D|-----------| |-----------------------------------|
A|-----------| |-----------------------------------| x2
E|-----------| |-----------------------------------|
B|-3--3-1-3--| |--030-50-80-7078-0-30-50-100-8057--|
                                          /   
                  ~that’s a ten and a zero
 
Verse (at: “...wounds are healin’...”)
D|------||-----------------|    |---------------|
A|------||-----------------| x4 |---------------|
E|------||-----------------|    |---------------|
B|-0000-||-0-0-00--0-0-0-0-|    |-0-00--0000000-|            

Chorus
D|------------------------------------------------------------------|
A|------------------------------------------------------------------| 
E|------------------------------------------------------------------|
B|--3~---0~---5~---0-0-000--0---3~---0~--5-5-5-5-5-5-5-5-0-0-00--0--|

Post-Chorus
D|----------------------------------------------------|
A|----------------------------------------------------|
E|----------------------------------------------------|
B|--030-50-80-7078-0-30-50-100--8057--030-50-80-7078--|
                            /
        ~ten and zero again!

Verse 
D|----------------------------------||-----------------|    |-----------|
A|----------------------------------||-----------------| x6 |-----------|
E|----------------------------------||-----------------|    |-----------|
B|-0-00-----0-00-----0-30-53---131--||-0-0-00--0-0-0-0-|    |--0-0-000--|

Chorus
D|------------------------------------------------------------------|
A|------------------------------------------------------------------| 
E|------------------------------------------------------------------|
B|--3~---0~---5~---0-0-000--0---3~---0~--5-5-5-5-5-5-5-5-0-0-00--0--|

Bridge
D|---------------------------------------------------------------------|
A|---------------------------------------------------------------------| x2
E|---------------------------------------------------------------------|
B|--8-8-8-8-8-8-8-8-0-0-0-0-0-0-0-0-0-3-3-3-3-3-3-3-3-5-5-5-5-1-1-1-1--|

D|------------------------------------------------------------------------|
A|------------------------------------------------------------------------|
E|------------------------------------------------------------------------|
B|--888--888--888--888--000--000--000--000--333--333--333--333--5~----1~--|

~Break~

D|-----------| |-----------------------------------|
A|-----------| |-----------------------------------| x2
E|-----------| |-----------------------------------|
B|-3--3-1-3--| |--030-50-80-7078-0-30-50-100-8057--|
                                          /   
                  ~that’s a ten and a zero

Chorus
D|------------------------------------------------------------------|
A|------------------------------------------------------------------| 
E|------------------------------------------------------------------|
B|--3~---0~---5~---0-0-000--0---3~---0~--5-5-5-5-5-5-5-5-0-0-00--0--|

Outro
D|-------------------------|
A|-------------------------|
E|-------------------------|
B|--00--0--00--00--0--000--|


===============================================================================
-------------------------------------------------------------------------------
	E for Extinction - Thousand Foot Krutch
-------------------------------------------------------------------------------
===============================================================================


Tuning: BEAD

~Come in with muted distorted guitar~

Verse
D|---------------------------------------------------------------|
A|---------------------------------------------------------------|
E|---------------------------------------------------------------|
B|--0-0-0-0-0-0-0-0-3-3-3-3-3-3-3-3-0-0-0-0-0-0-0-0-0-0-0-0-0-0--|

Pre-Chorus
D|---------------------------------|
A|---------------------------------| x4
E|--2-2-0-2-3-2-0-2---2-0-2-3-2-0--|
B|---------------------------------| Last Time End on the Second -3-

Chorus
D|-----------------------------------|    |------------------------------|
A|-----------------------------------| x3 |------------------------------|
E|--2-2-2-2-----------------0-0-0-0--|    |--2-2-2-2---------------3--2--|
B|----------0-0-0-0-3-3-3-3----------|    |----------0-0-0-0-3-3---------|

~Come in with muted distorted guitar~

Verse
D|-------------------------------------------------------------------|
A|-------------------------------------------------------------------|
E|-------------------------------------------------------------------|
B|--0-0-0-0-0-0-0-0-3-3-3-3-3-3-3-3-0-0-0-0-0-0-0-0-0-0-0-0-0-0-0-0--|

D|---------------------------------------------------------------|
A|---------------------------------------------------------------|
E|---------------------------------------------------------------|
B|--0-0-0-0-0-0-0-0-3-3-3-3-3-3-3-3-0-0-0-0-0-0-0-0-0-0-0-0-0-0--|

Pre-Chorus
D|---------------------------------|
A|---------------------------------| x4
E|--2-2-0-2-3-2-0-2---2-0-2-3-2-0--|
B|---------------------------------| Last Time End on the Second -3-

Chorus
D|-----------------------------------|    |------------------------------|
A|-----------------------------------| x3 |------------------------------|
E|--2-2-2-2-----------------0-0-0-0--|    |--2-2-2-2---------------3--2--|
B|----------0-0-0-0-3-3-3-3----------|    |----------0-0-0-0-3-3---------|

Bridge
D|-------------------|    |--------------|
A|-------------------| x3 |--------------|
E|-------------------|    |--------------|
B|--0-3-2-0-5-3-2-3--|    |--0-3-2-0-5~--|

D|-------------------|    |--------------|
A|-------------------| x3 |--------------|
E|-------------------|    |--------------|
B|--0-3-2-0-5-3-2-3--|    |--0-3-2-0-5~--|
                      
D|-----------------------------------------------------------------|
A|-----------------------------------------------------------------|
E|-------0~--------2~--------0~------------------------------------|
B|--0~--------0~--------0~--------0-0-0-0-0-0-0-0-3-3-3-3-3-3-3-3--|

Chorus
D|-----------------------------------|    |------------------------------|
A|-----------------------------------| x3 |------------------------------|
E|--2-2-2-2-----------------0-0-0-0--|    |--2-2-2-2---------------3--2--|
B|----------0-0-0-0-3-3-3-3----------|    |----------0-0-0-0-3-3---------|

D|-----------------------------------|
A|-----------------------------------| x3
E|--2-2-2-2-----------------0-0-0-0--|
B|----------0-0-0-0-3-3-3-3----------|

Outro
D|-------------------|         
A|-------------------| x3 
E|-------------------|         
B|--0-3-2-0-5-3-2-3--|  On the third time end on the -5-       


===============================================================================
-------------------------------------------------------------------------------
	Watching Over Me - Thousand Foot Krutch
-------------------------------------------------------------------------------
===============================================================================


Tuning: Standard

Verse
G|----------------------------------------------|
D|----------------------------------------------| 
A|----------------------------------------------|
E|--1~-----1~--8~-----8~--1~-----1~--8~-----8~--|

G|--------------------------------------------------|
D|--------------------------------------------------|
A|--------------------------------------------------|
E|--1~-----1~--8~-----8~-68~--1~-----1~--8~-----8~--|

Pre-Chorus
G|---------------------------------------------------|
D|--3-3-3-3-3-3-3-3-5-5-5-5-5-5-5-5-3-3-3-3-3-3-3-3--| 
A|---------------------------------------------------|
E|---------------------------------------------------|

G|----35~---35~--5555-----|
D|--35----35---------35~--|
A|------------------------|
E|------------------------|

Chorus
G|------------------2-2-2-2-2-2-2-2-------------------------2-2-2-2--|
D|--0-0-0-0-0-0-0-0---------------------------------5-5-5-5----------| x2
A|----------------------------------2-2-2-2-2-2-2-2------------------|
E|-------------------------------------------------------------------|

G|------------------2-2-2-2-2-2-2-2---------------------|
D|--0-0-0-0-0-0-0-0---------------------------------5~--|
A|----------------------------------2-2-2-2-2-2-x-------|
E|------------------------------------------------------|

Verse
G|----------------------------------------------|
D|----------------------------------------------| 
A|----------------------------------------------|
E|--1~-----1~--8~-----8~--1~-----1~--8~-----8~--|

G|--------------------------------------------------|
D|--------------------------------------------------|
A|--------------------------------------------------|
E|--1~-----1~--8~-----8~-68~--1~-----1~--8~-----8~--|

Pre-Chorus
G|---------------------------------------------------|
D|--3-3-3-3-3-3-3-3-5-5-5-5-5-5-5-5-3-3-3-3-3-3-3-3--| 
A|---------------------------------------------------|
E|---------------------------------------------------|

G|----35~---35~--5555-----|
D|--35----35---------35~--|
A|------------------------|
E|------------------------|

Chorus
G|------------------2-2-2-2-2-2-2-2-------------------------2-2-2-2--|
D|--0-0-0-0-0-0-0-0---------------------------------5-5-5-5----------| x2
A|----------------------------------2-2-2-2-2-2-2-2------------------|
E|-------------------------------------------------------------------|

G|------------------2-2-2-2-2-2-2-2---------------------|
D|--0-0-0-0-0-0-0-0---------------------------------5~--|
A|----------------------------------2-2-2-2-2-2-x-------|
E|------------------------------------------------------|

~No Bass in Bridge~

G|------------------2-2-2-2-2-2-2-2-------------------------2-2-2-2---------|
D|--0-0-0-0-0-0-0-0---------------------------------5-5-5-5---------0 (x6) -| 
A|----------------------------------2-2-2-2-2-2-2-2-------------------------|
E|--------------------------------------------------------------------------|

~Break~

G|--------------------------2-2-2-2--|
D|------------------5-5-5-5----------|
A|--2-2-2-2-2-2-2-2------------------|
E|-----------------------------------|

Outro
G|------------------2-2-2-2-2-2-2-2---------------------|
D|--0-0-0-0-0-0-0-0---------------------------------5~--|
A|----------------------------------2-2-2-2-2-2-x-------|
E|------------------------------------------------------|


===============================================================================
-------------------------------------------------------------------------------
	The Part That Hurts The Most (Is Me) -Thousand Foot Krutch
-------------------------------------------------------------------------------
===============================================================================


=(haha can you say, Linkin’ Park?)=

Tuning: Drop D

~Intro after Cool Little Guitar Thingy~

Verse
G|--------------------------------------------------------------------|
D|--4444444444444444777777777777777722222222222222224444444444444444--| x3
A|--------------------------------------------------------------------|
D|--------------------------------------------------------------------|

~Then Break till Chorus~

Chorus
G|-------------------------------------------------------------------|
D|-------------------------------------------------------------------|
A|-------------------------------------------------------------------|
D|--4-4-4-4-4-4-4-4-7-7-7-7-7-7-7-7-2-2-2-2-2-2-2-2-4-4-4-4-4-4-4-4--|

G|---------------------------------------------------|
D|---------------------------------------------------|
A|---------------------------------------------------|
D|--4-4-4-4-4-4-4-4-7-7-7-7-7-7-7-7-2-2-2-2-2-2-2-2--|

~Break Until Guitar Does It’s Thing Twice~

Verse
G|--------------------------------------------------------------------|
D|--4444444444444444777777777777777722222222222222224444444444444444--| x3
A|--------------------------------------------------------------------|
D|--------------------------------------------------------------------|

~Then Break till Chorus~

Chorus
G|-------------------------------------------------------------------|
D|-------------------------------------------------------------------|
A|-------------------------------------------------------------------|
D|--4-4-4-4-4-4-4-4-7-7-7-7-7-7-7-7-2-2-2-2-2-2-2-2-4-4-4-4-4-4-4-4--|

G|---------------------------------------------------|
D|---------------------------------------------------|
A|---------------------------------------------------|
D|--4-4-4-4-4-4-4-4-7-7-7-7-7-7-7-7-2-2-2-2-2-2-2-2--|

~No Bass In Bridge Until Drums Come Back In~

Bridge
G|------------------------------||--------------------|
D|------------------------------||--------------------| x4
A|------------------------------||--------------------|
D|--4~------7~------2~------4~--||--1~--0------1~--0--|

Chorus x2
G|-------------------------------------------------------------------|
D|-------------------------------------------------------------------|
A|-------------------------------------------------------------------|
D|--4-4-4-4-4-4-4-4-7-7-7-7-7-7-7-7-2-2-2-2-2-2-2-2-4-4-4-4-4-4-4-4--|

G|---------------------------------------------------|
D|---------------------------------------------------|
A|---------------------------------------------------|
D|--4-4-4-4-4-4-4-4-7-7-7-7-7-7-7-7-2-2-2-2-2-2-2-2--|


===============================================================================
-------------------------------------------------------------------------------
	Scream - Thousand Foot Krutch
-------------------------------------------------------------------------------
===============================================================================


Tuning: Drop D

~Drum Intro~

Intro
G|-----------------------------------------|
D|-----------------------------------------| x2
A|-----------------------------------------|
D|--111--888--999--43\--1-11-88889999143\--|

Verse
G|----------------------|
D|----------------------| x8
A|----------------------|
D|-1-11--888--999--43\--|

~Pause~

Chorus
G|---------------------------------------|
D|---------------------------------------| x2
A|---------------------------------------|
D|--1~-----6~-----1~-----1-11-1-1-3-3-4--|

G|-----------------------------------------|
D|-----------------------------------------| 
A|-----------------------------------------|
D|--111--888--999--43\--1-11-88889999143\--|

Verse
G|----------------------|
D|----------------------| x8
A|----------------------|
D|-1-11--888--999--43\--|

Chorus
G|---------------------------------------|    |-----------------|
D|---------------------------------------| x2 |-----------------|
A|---------------------------------------|    |-----------------|
D|--1~-----6~-----1~-----1-11-1-1-3-3-4--|	    |--1-11-111-1-1--|

~Piano Solo~

Bridge
G|------------------------------|
D|------------------------------| x2
A|------------------2~------4~--|
D|--1~------4~------------------|

~Break Again~

Chorus
G|---------------------------------------|    |------------------|
D|---------------------------------------| x2 |------------------| x2
A|---------------------------------------|    |------------------|
D|--1~-----6~-----1~-----1-11-1-1-3-3-4--|    |--1-11-1-1-3-3-4--|

Outro
G|-----------------------------------------|
D|-----------------------------------------| x2
A|-----------------------------------------|
D|--111--888--999--43\--1-11-88889999143\--|


===============================================================================
-------------------------------------------------------------------------------
	Forward Motion - Thousand Foot Krutch
-------------------------------------------------------------------------------
===============================================================================


Tuning: Drop D

Intro
G|------------------------------------------------------------------------|
D|------------------------------------------------------------------------| 
A|------------------------------------------------------------------------|
D|--888888888888888888888888888888881111111111111111-1111-xxxx-3333-xxxx--|

Chorus
G|------------------------------------------------------------------------|
D|------------------------------------------------------------------------| 
A|------------------------------------------------------------------------|
D|--888888888888888888888888888888881111111111111111-1111-xxxx-3333-xxxx--|

Verse
G|----------------------------------------------------|
D|----------------------------------------------------| x2
A|----------------------------------------------------|
D|--8~------8~------1111111111111111-8-8-8-8-8-8-8-8--|

Pre-Chorus
G|--------------------------------|
D|--------------------------------|
A|--------------------------------|
D|--8888888888888888888888888888--|

Chorus
G|------------------------------------------------------------------------|
D|------------------------------------------------------------------------| x2
A|------------------------------------------------------------------------|
D|--888888888888888888888888888888881111111111111111-1111-xxxx-3333-xxxx--|

Verse
G|----------------------------------------------------|
D|----------------------------------------------------| x2
A|----------------------------------------------------|
D|--8~------8~------1111111111111111-8-8-8-8-8-8-8-8--|

Pre-Chorus
G|--------------------------------|
D|--------------------------------|
A|--------------------------------|
D|--8888888888888888888888888888--|

Chorus
G|------------------------------------------------------------------------|
D|------------------------------------------------------------------------| x2
A|------------------------------------------------------------------------|
D|--888888888888888888888888888888881111111111111111-1111-xxxx-3333-xxxx--|

Bridge 
G|-------------------------------------------------------------------|    
D|-------------------------------------------------------------------| x2 
A|-------------------------------------------------------------------|    
D|--111111111111111133333333333333338888-xxxx-8888-xxxx-1111---3333--|

Pre- Chorus
G|-----------------------------------|
D|-----------------------------------| x2
A|-----------------------------------|
D|--8-8-8-8-8-8-8-8-8-8-8-8-8-8-8-8--|

Chorus
G|------------------------------------------------------------------------|
D|------------------------------------------------------------------------| x2
A|------------------------------------------------------------------------|
D|--888888888888888888888888888888881111111111111111-1111-xxxx-3333-xxxx--|

Outro
G|--------------------|
D|--------------------|
A|--------------------|
D|--888----888----8~--|


===============================================================================
-------------------------------------------------------------------------------
	Outta Control - Thousand Foot Krutch
-------------------------------------------------------------------------------
===============================================================================


Tuning: BEAD

Intro ~After Guitar
D|-----------------------------------------------|
A|-----------------------------------------------| x2
E|-----------------------------------------------|
B|--00--77--88--33--53530--00--77--88--33-xx-53--|

Verse
D|--------------|    |---------| |------------------|
A|--------------| x4 |--3-5-0--| |------------------| x4
E|--------------|    |---------| |------------------|
B|--00--77--88--|    |---------| |--00--777-888-33--|

Chorus
D|----------------------------------------------------------|
A|----------------------------------------------------------| 
E|----------------------------------------------------------|
B|--0~---0-0~---3~---3-3~---5~---5-5~---xx10-10~--xx10-10~--|

D|------------------------------------------------|
A|------------------------------------------------|
E|------------------------------------------------|
B|--0~---0-0~---3~---3-3~---5~---5-5~---8~---12~--|

Post-Chorus
D|-----------------------------------------------|
A|-----------------------------------------------| 
E|-----------------------------------------------|
B|--00--77--88--33--53530--00--77--88--33-xx-53--|

Verse
D|--------------|    |------------------|
A|--------------| x4 |------------------| x4
E|--------------|    |------------------|
B|--00--77--88--|    |--00--777-888-33--|

Chorus
D|----------------------------------------------------------|
A|----------------------------------------------------------| 
E|----------------------------------------------------------|
B|--0~---0-0~---3~---3-3~---5~---5-5~---xx10-10~--xx10-10~--|

D|------------------------------------------------|
A|------------------------------------------------|
E|------------------------------------------------|
B|--0~---0-0~---3~---3-3~---5~---5-5~---8~---12~--|

Bridge
D|----------------|    |-----------------|    |----------|
A|----------------| x3 |-----------------| x6 |----------|
E|----------------|    |-----------------|    |----------|
B|--0000----0000--|    |--0~---0-6~--5~--|    |--0~---0--|

Chorus
D|----------------------------------------------------------|
A|----------------------------------------------------------| 
E|----------------------------------------------------------|
B|--0~---0-0~---3~---3-3~---5~---5-5~---xx10-10~--xx10-10~--|

D|------------------------------------------------|
A|------------------------------------------------|
E|------------------------------------------------|
B|--0~---0-0~---3~---3-3~---5~---5-5~---8~---12~--|

D|-------------------------------------------------|
A|-------------------------------------------------| 
E|-------------------------------------------------|
B|--0~---0-0~---3~---3-3~---5~---5-5~---10~---10~--|

Outro
D|-----------------------------------------------|
A|-----------------------------------------------| x2
E|-----------------------------------------------|
B|--00--77--88--33--53530--00--77--88--33-xx-53--|


===============================================================================
-------------------------------------------------------------------------------
	Smack Down - Thousand Foot Krutch
-------------------------------------------------------------------------------
===============================================================================


Tuning: Drop D 

Intro
G|--------------------------------|------------------------------------|
D|--------------------------------|------------------------------------| 
A|--------------------------------|------------------------------------|
D|-313---6666-8---1-11---8886-6-6-|-1313---6666-8---1-11---8866-10--6\-|

G|---------------------------------|------------------------------------|
D|---------------------------------|------------------------------------| 
A|---------------------------------|------------------------------------|
D|-1313---6666-8---1-11---8886-6-6-|-1313---6666-8---1-11---8866-10--6\-|

Verse
G|------------------------------------------|
D|------------------------------------------|
A|------------------------------------------|
D|-1h3-xxx--1h3-xx-6\---1h3-xxx--1h3-x-8-6\-|x2

Chorus
G|-------------------------------------------------------------------------|
D|-------------------------------------------------------------------------|
A|-------------------------------------------------------------------------|
D|-6-6-6-6-5-5-5-5-3-3-3-3-3-3-3h5--6-6-6-6-5-5-5-5-3--3-653-653-653-65653-|

G|-------------------------------------------------------------------|
D|-------------------------------------------------------------------|
A|-------------------------------------------------------------------|
D|-6-6-6-6-5-5-5-5-3-3-3-3-3-3-x-5--6-6-6-6-5-5-5-5-3--3-653-653-653-|

Post-Chorus 
G|---------------------------------|------------------------------------|
D|---------------------------------|------------------------------------| 
A|---------------------------------|------------------------------------|
D|-1313---6666-8---1-11---8886-6-6-|-1313---6666-8---1-11---8866-10--6\-|x2

Verse 
G|------------------------------------------|
D|------------------------------------------|
A|------------------------------------------|
D|-1h3-xxx--1h3-xx-6\---1h3-xxx--1h3-x-8-6\-|x2

Chorus 
G|-------------------------------------------------------------------------|
D|-------------------------------------------------------------------------|
A|-------------------------------------------------------------------------|
D|-6-6-6-6-5-5-5-5-3-3-3-3-3-3-3h5--6-6-6-6-5-5-5-5-3--3-653-653-653-65653-|

G|--------------------------------------------------|
D|--------------------------------------------------|
A|--------------------------------------------------|
D|-6-6-6-6-5-5-5-5-3-3-3-3-3-3-x-5--6-6-6-6-5-5-5-5-|

Verse 
G|------------------------------------------|
D|------------------------------------------|
A|------------------------------------------|
D|-1h3-xxx--1h3-xx-6\---1h3-xxx--1h3-x-8-6\-|

G|-----------------------------------|
D|-----------------------------------|
A|-----------------------------------|
D|-1h3-xxx--1h3-xx-6\---1h3-xxx--1-3-|

~Break with Guitar and Crackling Flames (Cause TFK is beast like that...)~

Outro 
G|--------------------------------------------|
D|--------------------------------------------| 
A|--------------------------------------------|
D|-8866-10-6--1313---6666-8---1-11---8886-6-6-|

G|---------------------------------|
D|---------------------------------| 
A|---------------------------------|
D|-313---6666-8---1-11---8866-10-6-|x2



===============================================================================
-------------------------------------------------------------------------------
	Already Home - Thousand Foot Krutch
-------------------------------------------------------------------------------
===============================================================================


Tuning: Standard

1:05 Intro
G|---------------------------------|
D|---------------------------------| x2
A|---------------------------------|
E|--6-6-----4-4------1-1------2-2--|

Chorus
G|---------------------------------------------------|
D|---------------------------------------------------| x2
A|---------------------------------------------------|
E|--6-6-6-6-6-6-4-4-4-4-4-4-1-1-1-1-1-1-2-2-2-2-2-2--|

Verse
G|---------------------------------|
D|---------------------------------| x4
A|---------------------------------|
E|--6-6-----4-4------1-1------2-2--|

Chorus
G|---------------------------------------------------|
D|---------------------------------------------------| x3
A|---------------------------------------------------|
E|--6-6-6-6-6-6-4-4-4-4-4-4-1-1-1-1-1-1-2-2-2-2-2-2--|

Bridge
G|-------------------------------------------------------------------------|
D|-------------------------------------------------------------------------| x2
A|-------------------------------------------------------------------------|
E|6-6-6-6-6-6-6-6-8-8-8-8-8-8-8-8-4-4-4-4-4-4-4-4-4-11-11-11-11-11-11-11-11|

G|-----------------------------------------|    |------------|
D|-----------------------------------------| x2 |------------|
A|-----------------------------------------|    |------------|
E|--13- (x8) -8- (x8) -10- (x8) -6- (x8) --|    |--13 (x8) --|


-------------------------------------------------------------------------------
THE END

Thanks for playing! Please rate and comment!!!

~SK8nBASS
comments
print report bad tab
6 comments total. Showing first comments.
+1 reply
thematthill5 wrote on January 14 2010, 10:40 pm

Wow.

I'm totally blown away by this. This is amazing work guys!

0 reply
kaulthelegend wrote on February 23 2010, 02:24 pm

Wow I Dont Even Play Bass I Play Guitar And With This I Figured So Many Riffs AMAZING WORK

0 reply
Jigglez? wrote on March 14 2011, 08:48 pm

dang this is awesome! who needs switchin from tab to tab, youve got it all right here! nice work!

I want to post or [tab]
guest
You may want to rate the tab now too:
select rating
Please do not post tabs as comments. Select "correction" instead!