Oops, an error
Loading. Please wait.

Haunting Tab

ver1
ver1

Whole song

Interactive

More versions @911Tabs.com
1,974 views 1 this week
3 commentsread comments
1 2 3 4 5
accurate
x 1
Autoscroll
+/-
esc
set tempo
stop
Contributor
Difficulty
intermediate
WARNING: You are trying to view
                                    content from Ultimate-Guitar.com
                                    in an unauthorized application,
                                    which is prohibited.

                                    Please use an official Ultimate
                                    Guitar Tabs application for iPhone,
                                    iPad or Android to access legitimate
                                    chords, guitar, bass, and drum tabs
                                    from Ultimate-Guitar.com database.

                                    Type "ultimate guitar tabs" in Apple
                                    App Store's or Android Market's
                                    search to find the application.
Threat Signal- Haunting
Tuning- CGCFAD

This is the exported Guitar Pro version from Threat Signal's site,
so sorry for the length everybody
This is for everyone who doesnt have it ;)


Guitar 1
     E.  E.  E  S S E.  E.     E.  E.  E  S S    E.  E.  E  S S E.  E.   
D||-------------------------|-----------------|-------------------------|
A||-------------------------|-----------------|-------------------------|
F||--7---7---7------7---7---|--7---7---7------|--7---7---7------7---7---|
C||--6---6---6------6---6---|--6---6---6------|--6---6---6------6---6---|
G||--5---5---5--0-0-5---5---|--5---5---5--0-0-|--5---5---5--0-0-5---5---|
C||--0---0---0--0-0-0---0---|--0---0---0--0-0-|--0---0---0--0-0-0---0---|

  E.  E.  E  S S    E.  E.  E  S S E.  E.     E.  E.  E  S S  
-----------------|-------------------------|-----------------|
-----------------|-------------------------|-----------------|
--7---7---7------|--7---7---7------7---7---|--7---7---7------|
--6---6---6------|--6---6---6------6---6---|--6---6---6------|
--5---5---5------|--5---5---5--0-0-5---5---|--5---5---5------|
--0---0---0--0-0-|--0---0---0--0-0-0---0---|--0---0---0--0-0-|

  E.  E.  E  S S E.  E.     E.  E.  E  S S    E  S  E  S  E   
-------------------------|-----------------|-----------------|
-------------------------|-----------------|-----------------|
--7---7---7------7---7---|--7---7---7------|-----------------|
--6---6---6------6---6---|--6---6---6------|-----------------|
--5---5---5--0-0-5---5---|--5---5---5--0-0-|--6-----6-----6--|
--0---0---0--0-0-0---0---|--0---0---0--0-0-|--6--0s-6--0s-6--|

  T T S S S S S S S S S S S S S S S    S S S S S S S S S S S S S  S E    
------------------------------------|-----------------------------------|
------------------------------------|-----------------------------------|
------------------------------------|-----------------------------------|
------------------------------------|------5---4------------------------|
--------5---3-------6---5-------5---|--3-----------5---6---3---3S-6-6\--|
--0-0-0---0---0-0-0---0---0-0-0---0-|----0---0---0---0---0---0-3S-6-6\--|

  T T S S S S S S S S S S S S S S S    S S S S S S S S S S S S S  S E    
------------------------------------|-----------------------------------|
------------------------------------|-----------------------------------|
------------------------------------|-----------------------------------|
------------------------------------|------5---4------------------------|
--------5---3-------6---5-------5---|--3-----------5---6---3---0S-1-1/--|
--0-0-0---0---0-0-0---0---0-0-0---0-|----0---0---0---0---0---0-0S-1-1/--|

  E  S  E  S  E     S S  E  S  E  S     E  S  E  S  E     S S S  E  S S S  
-----------------|-------------------|-----------------|------------------|
-----------------|-------------------|-----------------|------------------|
-----------------|-------------------|-----------------|------------------|
-----------------|-------------------|-----------------|------------------|
--6-----6-----6--|-------6-----6-----|--6-----6-----5--|---------6----5---|
--6--0s-6--0s-6--|--0-0s-6--0s-6--0s-|--6--0s-6--0s-5--|--0-0-0s-6--0-5-0-|

  E  S  E  S  E     S S  E  S  E  S     E  S  E  S  E     S S S S S S S S  
-----------------|-------------------|-----------------|------------------|
-----------------|-------------------|-----------------|------------------|
-----------------|-------------------|-----------------|------------------|
-----------------|-------------------|-----------------|------------------|
--6-----6-----6--|-------6-----6-----|--6-----6-----5--|--1-0---1-0---1-4-|
--6--0s-6--0s-6--|--0-0s-6--0s-6--0s-|--6--0s-6--0s-5--|--1-0-0-1-0-0-1-4-|

  T T S S S S S S S S S S S S S S S    S S S S S S S S S S S S S  S E    
------------------------------------|-----------------------------------|
------------------------------------|-----------------------------------|
------------------------------------|-----------------------------------|
------------------------------------|------5---4------------------------|
--------5---3-------6---5-------5---|--3-----------5---6---3---3S-6-6\--|
--0-0-0---0---0-0-0---0---0-0-0---0-|----0---0---0---0---0---0-3S-6-6\--|

  T T S S S S S S S S S S S S S S S    S S S S S S S S S S S S S  S E    
------------------------------------|-----------------------------------|
------------------------------------|-----------------------------------|
------------------------------------|-----------------------------------|
------------------------------------|------5---4------------------------|
--------5---3-------6---5-------5---|--3-----------5---6---3---0S-1-1/--|
--0-0-0---0---0-0-0---0---0-0-0---0-|----0---0---0---0---0---0-0S-1-1/--|

  E.  E.  E  S S E.  E.     E.  E.  E  S S    E.  E.  E  S S E.  E.   
-------------------------|-----------------|-------------------------|
-------------------------|-----------------|-------------------------|
--7---7---7------7---7---|--7---7---7------|--7---7---7------7---7---|
--6---6---6------6---6---|--6---6---6------|--6---6---6------6---6---|
--5---5---5--0-0-5---5---|--5---5---5--0-0-|--5---5---5--0-0-5---5---|
--0---0---0--0-0-0---0---|--0---0---0--0-0-|--0---0---0--0-0-0---0---|

  E.  E.  E  S S    E.  E.  E  S S E.  E.     E.  E.  E  S S  
-----------------|-------------------------|-----------------|
-----------------|-------------------------|-----------------|
--7---7---7------|--7---7---7------7---7---|--7---7---7------|
--6---6---6------|--6---6---6------6---6---|--6---6---6------|
--5---5---5------|--5---5---5--0-0-5---5---|--5---5---5------|
--0---0---0--0-0-|--0---0---0--0-0-0---0---|--0---0---0--0-0-|

  E.  E.  E  S S E.  E.     E.  E.  E  S S     E.  E.  E  S S S E.  E   
-------------------------|------------------|--------------------------|
-------------------------|------------------|--------------------------|
--7---7---7------7---7---|--7---7---7-------|--------------------------|
--6---6---6------6---6---|--6---6---6-------|--------------------------|
--5---5---5--0-0-5---5---|--5---5---5--0-0S-|--6---5------0-0-0-6---5--|
--0---0---0--0-0-0---0---|--0---0---0--0-0S-|----------6--0-0-0--------|

  S S E.  E.  E  S S E.  S    E  E  S S S E.  E  S S E     S E.  E  S S  
---------------------------|----------------------------|---------------|
---------------------------|----------------------------|---------------|
---------------------------|----------------------------|---------------|
---------------------------|----------------------------|---------------|
--0-0-6---5------0-0-6---5-|--L-----0-0-0-6---5--0-0-6--|--L-5------0-0-|
--0-0---------6--0-0-------|-----6--0-0-0--------0-0----|--------6--0-0-|

  E.  E.  E  S S S E.  E     S S E.  E.  E  S S E.  S  
--------------------------|---------------------------|
--------------------------|---------------------------|
--------------------------|---------------------------|
--5---4------------5---4--|------5---4----------5---4-|
--6---5---3--0-0-0-6---5--|--0-0-6---5---3--0-0-6---5-|
----------6--0-0-0--------|--0-0---------6--0-0-------|

  E  E  S S S E.  E  S S E     S E.  E  S S    E  S  E  S  E   
----------------------------|---------------|-----------------|
----------------------------|---------------|-----------------|
----------------------------|---------------|-----------------|
--L-----------5---4------5--|--L-4----------|-----------------|
--L--3--0-0-0-6---5--0-0-6--|--L-5---3--0-0-|--6-----6-----6--|
-----6--0-0-0--------0-0----|--------6--0-0-|--6--0s-6--0s-6--|

  T T S S S S S S S S S S S S S S S    S S S S S S S S S S S S S  S E    
------------------------------------|-----------------------------------|
------------------------------------|-----------------------------------|
------------------------------------|-----------------------------------|
------------------------------------|------5---4------------------------|
--------5---3-------6---5-------5---|--3-----------5---6---3---3S-6-6\--|
--0-0-0---0---0-0-0---0---0-0-0---0-|----0---0---0---0---0---0-3S-6-6\--|

  T T S S S S S S S S S S S S S S S    S S S S S S S S S S S S S  S E    
------------------------------------|-----------------------------------|
------------------------------------|-----------------------------------|
------------------------------------|-----------------------------------|
------------------------------------|------5---4------------------------|
--------5---3-------6---5-------5---|--3-----------5---6---3---0S-1-1/--|
--0-0-0---0---0-0-0---0---0-0-0---0-|----0---0---0---0---0---0-0S-1-1/--|

  E  S  E  S  E     S S  E  S  E  S     E  S  E  S  E     S S S  E  S S S  
-----------------|-------------------|-----------------|------------------|
-----------------|-------------------|-----------------|------------------|
-----------------|-------------------|-----------------|------------------|
-----------------|-------------------|-----------------|------------------|
--6-----6-----6--|-------6-----6-----|--6-----6-----5--|---------6----5---|
--6--0s-6--0s-6--|--0-0s-6--0s-6--0s-|--6--0s-6--0s-5--|--0-0-0s-6--0-5-0-|

  E  S  E  S  E     S S  E  S  E  S     E  S  E  S  E     S S S S S S S S  
-----------------|-------------------|-----------------|------------------|
-----------------|-------------------|-----------------|------------------|
-----------------|-------------------|-----------------|------------------|
-----------------|-------------------|-----------------|------------------|
--6-----6-----6--|-------6-----6-----|--6-----6-----5--|--1-0---1-0---1-4-|
--6--0s-6--0s-6--|--0-0s-6--0s-6--0s-|--6--0s-6--0s-5--|--1-0-0-1-0-0-1-4-|

  W                   W                   W                  W              
-------------------|-------------------|-------------------|---------------|
-------------------|-------------------|--3----------------|--L------------|
-------------------|-------------------|--2----------------|--L------------|
--0----------------|--L----------------|--0----------------|--L------------|
--0----------------|--L----------------|--0----------------|--L------------|
--0----------------|--L----------------|--0----------------|--L------------|
Guitar 2
|----------------------------------|
|----------------------------------|
|----------------------------------|
|----------------------------------|
|----6---6---6---6-5-----5-----5---|
|--0---0---0---0-----0-0---0-0---0-|


  S S S S S S S S S S S S S S S S    S S S S S S S S S S S S S S S S  
----------------------------------|----------------------------------|
----------------------------------|----------------------------------|
----------------------------------|----------------------------------|
----------------------------------|----------------------------------|
----8---8---8---8-4-----4-----7---|----6---6---6---6-5-----5-----5---|
--0---0---0---0-----0-0---0-0---0-|--0---0---0---0-----0-0---0-0---0-|


  S S S S S S S S S S S S S S S S                                  
----------------------------------|
----------------------------------|
----------------------------------|
----------------------------------|
----8---8---8---8-4-----4-----7---|
--0---0---0---0-----0-0---0-0---0-|
Guitar 1
  S S S S S S S S S S S S S S S S    S S S S S S S S S S S S S S S S  
----------------------------------|----------------------------------|
----------------------------------|----------------------------------|
----------------------------------|----------------------------------|
----------------------------------|----------------------------------|
----6---6---6---6-5-----5-----5---|----8---8---8---8-4-----4-----7---|
--0---0---0---0-----0-0---0-0---0-|--0---0---0---0-----0-0---0-0---0-|

  S S S S S S S S S S S S S S S S    S S S S S S S S S S S S S S S S  
----------------------------------|----------------------------------|
----------------------------------|----------------------------------|
----------------------------------|----------------------------------|
----------------------------------|----------------------------------|
----6---6---6---6-5-----5-----5---|----8---8---8---8-4-----4-----7---|
--0---0---0---0-----0-0---0-0---0-|--0---0---0---0-----0-0---0-0---0-|

  S S S S S S S S S S S S S S S S    S S S S S S S S S S S S S S S S  
----------------------------------|----------------------------------|
----------------------------------|----------------------------------|
----------------------------------|----------------------------------|
----------------------------------|----------------------------------|
----6---6---6---6-5-----5-----5---|----8---8---8---8-4-----4-----7---|
--0---0---0---0-----0-0---0-0---0-|--0---0---0---0-----0-0---0-0---0-|

  S S S S S S S S S S S S S S S S      S S S S S S S S S S S S S S S S  
----------------------------------||-----------------------------------|
----------------------------------||-----------------------------------|
----------------------------------||*----------------------------------|
----------------------------------||*----------------------------------|
----6---6---6---6-5-----5-----5---||-----8---8---8---8-5-----5-----8---|
--0---0---0---0-----0-0---0-0---0-||---0---0---0---0-----0-0---0-0---0-|

  W                   H        H           W                 
-------------------|--------------------|-------------------|
-------------------|--------------------|-------------------|
--3----------------|--2-----------------|--3----------------|
--3----------------|--3--------5--------|--3----------------|
--1----------------|--0--------3--------|--1----------------|
-------------------|--------------------|-------------------|
  H        Q    Q    10x  E.  E.  E  S S E.  E.     E.   E.   E  S S  E.   E.   
----------------------||-------------------------|-------------------------|
----------------------||-------------------------|-------------------------|
--2------------------*||--7---7---7------9---9---|--9---10---10------12-10-|
--3------------------*||-------------------------|-------------------------|
--0--------3----3-----||--5---5---5--0-0-7---7---|--7----8----8--0-0-10--8-|
-----------3----2-----||--0---0---0--0-0-0---0---|--0----0----0--0-0--0--0-|
Guitar 2: Solo part
   T  T  S  S  S  S  S  S  S  S  S  S  S  S  S  S  S  
|-----------------------------13----------------------|
|--13-15-13----13-15-17-13-15----15-13----------13-15-|
|*----------15-------------------------15-14-15-------|
|*----------------------------------------------------|
|-----------------------------------------------------|
|-----------------------------------------------------|

   S  S  S  S  S  S  S  S  S  S  S  S  S  S  S  S  
--13-15----13----13----13----13----13----13----13-|
--------17----15----------17----15----------15----|
--------------------17----------------17----------|
--------------------------------------------------|
--------------------------------------------------|
--------------------------------------------------|

   E     S  S  S  S  S  S  S  S  S  S  S  S  S  S  
--17br--------------------------------------------|
--18br--18----------------------------------------|
-----------17-15----------15-14-------17-15-14-15-|
-----------------19-15-12-------17-15-------------|
--------------------------------------------------|
--------------------------------------------------|

   T  T  S  S  S  T  T  S  S  S  T  T  S  S  S  T  T  S  S  S 10x
---------------------------------------------------------------||------|
--18-20-18-------17-18-17-------15-17-15-------13-15-13--------||--15--|
-----------21-19----------19-17----------17-15----------14----*||--14--|
-----------------------------------------------------------15-*||------|
---------------------------------------------------------------||------|
---------------------------------------------------------------||------|
Guitar 1
   E.  E.  E  S S E.  E.     E.   E.   E  S S  E.   E.  
|-------------------------|-----------------------------|
|-------------------------|-----------------------------|
|--7---7---7------9---9---|--9---10---10------12---10---|
|-------------------------|-----------------------------|
|--5---5---5--0-0-7---7---|--7----8----8--0-0-10----8---|
|--0---0---0--0-0-0---0---|--0----0----0--0-0--0----0---|


   E.   E.   E  S S  E.   E.      E.   E.   E  S S E.  E.   
------------------------------|----------------------------|
------------------------------|----------------------------|
--10---10---10------10---10---|--10---10---10--------------|
---8----8----8-------8----8---|---8---10---10--------------|
---8----8----8--8-8--8----8---|---8----8----8--0-0-3---3---|
---8----8----8--8-8--8----8---|---8----8----8--0-0-3---2---|

  E.  E.  E  S S E.  E.     E.   E.   E  S S  E.   E.   
-------------------------|-----------------------------|
-------------------------|-----------------------------|
--7---7---7------9---9---|--9---10---10------14---10---|
-------------------------|-----------------------------|
--5---5---5--0-0-7---7---|--7----8----8--0-0-12----8---|
--0---0---0--0-0-0---0---|--0----0----0--0-0--0----0---|

   E.   E.   E  S S  E.   E.      E.   E.   E  S S  E.   E.   
------------------------------|------------------------------|
------------------------------|------------------------------|
--10---10---10------10---10---|--10---10---10----------------|
---8----8----8-------8----8---|---8---10---10------14---14---|
---8----8----8--8-8--8----8---|---8----8----8--0-0-10---10---|
---8----8----8--8-8--8----8---|---8----8----8--0-0-10---10---|

  E.  E.  E  S S E.  E.     E.   E.   E  S S  E.   E.   
-------------------------|-----------------------------|
-------------------------|-----------------------------|
--7---7---7------9---9---|--9---10---10------12---10---|
-------------------------|-----------------------------|
--5---5---5--0-0-7---7---|--7----8----8--0-0-10----8---|
--0---0---0--0-0-0---0---|--0----0----0--0-0--0----0---|


   E.   E.   E  S S  E.   E.      E.   E.   E  S S E.  E.   
------------------------------|----------------------------|
------------------------------|----------------------------|
--10---10---10------10---10---|--10------------------------|
---8----8----8-------8----8---|---8---10---10--------------|
---8----8----8--8-8--8----8---|---8----8----8--0-0-3---3---|
---8----8----8--8-8--8----8---|---8----8----8--0-0-3---2---|

  E.  E.  E  S S E.  E.     E.   E.   E  S S  E.   E.   
-------------------------|-----------------------------|
-------------------------|-----------------------------|
--7---7---7------9---9---|--9---10---10------14---10---|
-------------------------|-----------------------------|
--5---5---5--0-0-7---7---|--7----8----8--0-0-12----8---|
--0---0---0--0-0-0---0---|--0----0----0--0-0--0----0---|


   E.   E.   E  S S  E.   E.      E.   E.   E  E.  E.  E    
------------------------------|---------------------------||
------------------------------|---------------------------||
--10---10---10------10---10---|--10---10---10-------------||
---8----8----8-------8----8---|---8---10---10-------------||
---8----8----8--8-8--8----8---|---8----8----8--0---3---3--||
---8----8----8--8-8--8----8---|---8----8----8--0---2---2--||

Duration Legend
---------------
W - whole
H - half
Q - quarter
E - 8th
S - 16th
T - 32nd
X - 64th
. - note dotted
|-n-|  - n-tuplets


Tablature Legend
----------------
L - tied note
x - dead note
g - grace note
(n) - ghost note
> - accentuded note
NH - natural harmonic
AH - artificial harmonic
TH - tapped harmonic
SH - semi harmonic
PH - pitch harmonic
h - hammer on
p - pull off
b - bend
br - bendRelease
pb - preBend
pbr - preBendRelease
brb - bendReleaseBend
\n/ - tremolo bar dip
\n - tremolo bar dive
-/n - tremolo bar Release up
/n\ - tremolo bar inverted dip
/n - tremolo bar return
-\n - tremolo bar Release down
S - shift slide
s - legato slide
/ -  slide into from below or out of upwards
\ -  slide into from above or out of downwards
~ - vibrato
W - wide vibrato
tr - trill
TP - tremolo picking
T - tapping
S - slap
P - pop
< - fade in
^ - brush up
v - brush down
comments
We did not receive enough feedback on this tab! Please rate:
print report bad tab
1 2 3 4 5
3 comments total.
0 reply
AOR wrote on April 24 2008, 05:02 pm

this is awsome.the only thing is, the solo isnt repeated 10x. And you missed the last clean section,but the rest is perfect.

0 reply
J-E-N-O-V-A wrote on September 21 2009, 10:37 am

I miss the last clean section!!! :O

0 reply
Leigh|esp wrote on June 11 2010, 04:18 am

ive tabbed the last clean section if you want it

I want to post or [tab]
guest
You may want to rate the tab now too:
select rating
Please do not post tabs as comments. Select "correction" instead!