Oops, an error
Loading. Please wait.

Rational Eyes Tab

ver1
ver1

Whole song

Interactive

More versions @911Tabs.com
3,996 views 3 this week
no commentswrite comment
1 2 3 4 5
poor
x 1
Autoscroll
+/-
esc
set tempo
stop
Contributor
Difficulty
Tuning
advanced
C G C F A D
WARNING: You are trying to view
                                    content from Ultimate-Guitar.com
                                    in an unauthorized application,
                                    which is prohibited.

                                    Please use an official Ultimate
                                    Guitar Tabs application for iPhone,
                                    iPad or Android to access legitimate
                                    chords, guitar, bass, and drum tabs
                                    from Ultimate-Guitar.com database.

                                    Type "ultimate guitar tabs" in Apple
                                    App Store's or Android Market's
                                    search to find the application.
Threat Signal - Rational Eyes                                                                           
Track 1
Good Luck!


             E   S S S S E  E  E   S S S S    E  E  E   S S S S E  E    E     E  Q.        S S S S E  E     S S S S S S E  E  E   S S S S  
D||-------|--------------------------------|-------------------------------|-----------------------------|--------------------------------|
A||-------|--------------------------------|-------------------------------|-----------------------------|--------------------------------|
F||-------|--------------------------------|-------------------------------|-----------------------------|--------------------------------|
C||-------|--------------------------------|-------------------------------|-----------------------------|--------------------------------|
G||-------|--------------2-----------------|--2-----------------2----------|-----------------------2-----|--------------2-----------------|
C||-------|--2b--2-2-2-2-2-----2b--2-2-2-2-|--2-----2b--2-2-2-2-2-----3g5--|--0--2pbr------2-2-2-2-2-----|--2-2-2-2-2-2-2-----2b--2-2-2-2-|


  E  E  E   S S S S E  E    E     E  Q.        S S S S E  E     S S S S S S E  E  E   S S S S    E  E  E   S S S S E  E    E     E  Q.        E.  E.  E.  E.   
-------------------------------|-----------------------------|--------------------------------|-------------------------------|-------------------------------|
-------------------------------|-----------------------------|--------------------------------|-------------------------------|-------------------------------|
-------------------------------|-----------------------------|--------------------------------|-------------------------------|-------------------------------|
-------------------------------|-----------------------------|--------------------------------|-------------------------------|-------------------------------|
--2-----------------2----------|-----------------------2-----|--------------2-----------------|--2-----------------2----------|---------------1-------1-------|
--2-----2b--2-2-2-2-2-----3g5--|--0--2pbr------2-2-2-2-2-----|--2-2-2-2-2-2-2-----2b--2-2-2-2-|--2-----2b--2-2-2-2-2-----3g5--|--0--2pbr------1-------1-------|


  S S S S S S E  E  E   S S S S E  E     E   S S S S E  E    E  E  Q       S S    S S S S E  E  S S S S S S E  E  E      S S S S E  E  E   S S S S E  E    E   
--------------------------------------|----------------------------------------|--------------------------------------|---------------------------------------|
--------------------------------------|----------------------------------------|--------------------------------------|---------------------------------------|
--------------------------------------|----------------------------------------|--------------------------------------|---------------------------------------|
--------------------------------------|----------------------------------------|--------------------------------------|---------------------------------------|
--------------2-----------------2-----|--------------2-------------------------|----------2-----------------2---------|----------2-----------------2----------|
--2-2-2-2-2-2-2-----2b--2-2-2-2-2-----|--2b--2-2-2-2-2-----3g5--0--2pbr----2-2-|--2-2-2-2-2-----2-2-2-2-2-2-2-----2b--|--2-2-2-2-2-----2b--2-2-2-2-2-----3g5--|


  E  Q.        S S S S E  E  S S S S    S S E  E  E   S S S S E  E  E   S S    S S E  E    E  E  Q       S S S S S S    E  E  S S S S S S E  E  E   S S S S  
-------------------------------------|--------------------------------------|----------------------------------------|--------------------------------------|
-------------------------------------|--------------------------------------|----------------------------------------|--------------------------------------|
-------------------------------------|--------------------------------------|----------------------------------------|--------------------------------------|
-------------------------------------|--------------------------------------|----------------------------------------|--------------------------------------|
-----------------------1-------------|------1-----------------1-------------|------1---------------------------------|--1-----------------1-----------------|
--0--2pbr------2-2-2-2-1-----1-1-1-1-|--1-1-1-----2b--2-2-2-2-1-----2b--2-2-|--2-2-1-----3g5--0--2pbr----2-2-2-2-2-2-|--1-----1-1-1-1-1-1-1-----2b--2-2-2-2-|


  E  E  E   S S S S E  E    E  E  E        E  S S S S S S E.  E.  E     E.  E.  E  E.  E.  E     E.  E.  E  H              E  E.  E.  E.  E.  E   
----------------------------------------|----------------------------|------------------------|-------------------------|------------------------|
----------------------------------------|----------------------------|------------------------|-------------------------|------------------------|
----------------------------------------|----------------------------|------------------------|-------------------------|------------------------|
----------------------------------------|----------------------------|------------------------|--2----------------------|------------------------|
--1-----------------1-------------------|-----------------1---2---3--|--2---1---2--3---2---1--|--0---2---1--------------|-----2---1---3---2---1--|
--1-----2b--2-2-2-2-1-----3g5--0--2pbr--|--L--2-2-2-2-2-2-1---2---3--|--2---1---2--3---2---1--|------2---1--1pbr--------|--L--2---1---3---2---1--|


  E.  E.  E  E.  E.  E     S S S S S S S S S S S S S S S S    S S S S S S S S S S S S Q          E  S S S S S S S S S S S S S S    S S S S S S S S E.  E.  E   
------------------------|----------------------------------|----------------------------------|---------------------------------|-----------------------------|
------------------------|----------------------------------|----------------------------------|---------------------------------|-----------------------------|
------------------------|----------------------------------|----------------------------------|---------------------------------|-----------------------------|
--2---------------------|----------------------------------|----------------------------------|---------------------------------|-----------------------------|
--0---2---1--2---3---1--|--2-2-2-2---2-2-2-2---2-2-2-2---2-|--2-2-2---2-2-2-2---2-2-2---------|-----2-2-2-2---2-2-2-2---2-2-2-2-|----2-2-2-2---2-2-2---3---1--|
------2---1--2---3---1--|--2-2-2-2---2-2-2-2---2-2-2-2---2-|--2-2-2---2-2-2-2---2-2-2-1pbr----|--L--2-2-2-2---2-2-2-2---2-2-2-2-|----2-2-2-2---2-2-2---3---1--|


  E.  E.  E  E.  E.  E     E.  E.  E  H              E  E.  E.  E.  E.  E     E.  E.  E  E.  E.  E     S S S S S S S S S S S S S S S S  
------------------------|-------------------------|------------------------|------------------------|----------------------------------|
------------------------|-------------------------|------------------------|------------------------|----------------------------------|
------------------------|-------------------------|------------------------|------------------------|----------------------------------|
------------------------|--2----------------------|------------------------|--2---------------------|----------------------------------|
--2---1---2--3---2---1--|--0---2---1--------------|-----2---1---3---2---1--|--0---2---1--2---3---1--|--2-2-2-2---2-2-2-2---2-2-2-2---2-|
--2---1---2--3---2---1--|------2---1--1pbr--------|--L--2---1---3---2---1--|------2---1--2---3---1--|--2-2-2-2---2-2-2-2---2-2-2-2---2-|


  S S S S S S S S S S S S Q          E  S S S S S S S S S S S S S S    S S S S S S S S E.  E.  E     E  E  E  E  E  E  E  E     E  E  E  E  E  E  E  E   
----------------------------------|---------------------------------|-----------------------------|--------------------------|--------------------------|
----------------------------------|---------------------------------|-----------------------------|--------------------------|--------------------------|
----------------------------------|---------------------------------|-----------------------------|--------------------------|--------------------------|
----------------------------------|---------------------------------|-----------------------------|--------------------------|-----0--------------------|
--2-2-2---2-2-2-2---2-2-2---------|-----2-2-2-2---2-2-2-2---2-2-2-2-|----2-2-2-2---2-2-2---3---5--|--3--------5--------8-----|-----0--------5--7--5--3--|
--2-2-2---2-2-2-2---2-2-2-1pbr----|--L--2-2-2-2---2-2-2-2---2-2-2-2-|----2-2-2-2---2-2-2---3---5--|--3--3--3--5--5--5--7--7--|--7--0--0--0--5--7--5--2--|


   E   E   E   E  E   E   E   E      E   E   E   E  E   E   E   E      E   E   E   E  E   E   E   E      E   E   E   E  E   E   E   E   
---------------------------------|---------------------------------|---------------------------------|---------------------------------|
---------------------------------|---------------------------------|---------------------------------|---------------------------------|
---------------------------------|---------------------------------|---------------------------------|---------------------------------|
--10--10--10--10--L--10--10--10--|--10--10--10--10--L--10--10--10--|--10--10--10--10--L--10--10--10--|--10--10--10--10--L--10--10--10--|
---8---8---8---8--L---8---8---8--|---8---8---8---8--L---8---8---8--|---8---8---8---8--L---8---8---8--|---8---8---8---8--L---8---8---8--|
---8---8---8---8--L---8---8---8--|---8---8---8---8--L---8---8---8--|---7---7---7---7--L---7---7---7--|---7---7---7---7--L---7---7---7--|


  E  E  E  E  E  E  E  E     E  E  E  E  E  E  E  E     E  E  E  E  E  E  E  E     E  E  E  E  E  E  E  E      E   E   E   E  E   E   E   E   
--------------------------|--------------------------|--------------------------|--------------------------|---------------------------------|
--------------------------|--------------------------|--------------------------|--------------------------|---------------------------------|
--------------------------|--------------------------|--------------------------|--------------------------|---------------------------------|
--7--7--7--7--L--7--7--7--|--7--7--7--7--L--7--7--7--|--2--------3--------5-----|-----3--------------------|--10--10--10--10--L--10--10--10--|
--8--8--8--8--L--8--8--8--|--8--8--8--8--L--8--8--8--|--3--3--3--3--3--3--5--5--|--5--3--3--3--5--7--5--3--|---8---8---8---8--L---8---8---8--|
--0--0--0--0--L--0--0--0--|--0--0--0--0--L--0--0--0--|--2--2--2--3--3--3--5--5--|--5--3--3--3--5--7--5--2--|---8---8---8---8--L---8---8---8--|


   E   E   E   E  E   E   E   E      E   E   E   E  E   E   E   E      E   E   E   E  E   E   E   E     E  E  E  E  E  E  E  E     E  E  E  E  E  E  E  E   
---------------------------------|---------------------------------|---------------------------------|--------------------------|--------------------------|
---------------------------------|---------------------------------|---------------------------------|--------------------------|--------------------------|
---------------------------------|---------------------------------|---------------------------------|--------------------------|--------------------------|
--10--10--10--10--L--10--10--10--|--10--10--10--10--L--10--10--10--|--10--10--10--10--L--10--10--10--|--7--7--7--7--L--7--7--7--|--7--7--7--7--L--7--7--7--|
---8---8---8---8--L---8---8---8--|---8---8---8---8--L---8---8---8--|---8---8---8---8--L---8---8---8--|--8--8--8--8--L--8--8--8--|--8--8--8--8--L--8--8--8--|
---8---8---8---8--L---8---8---8--|---7---7---7---7--L---7---7---7--|---7---7---7---7--L---7---7---7--|--0--0--0--0--L--0--0--0--|--0--0--0--0--L--0--0--0--|


  E  E  E  E  E  E  E  E     E  E  E  E  E  E  E  E     S S S S S S S S S S S S S S S S    S S S S S S S S S S S S S S S S    S S S S S S S S S S S S S S S S  
--------------------------|--------------------------|----------------------------------|----------------------------------|----------------------------------|
--------------------------|--------------------------|----------------------------------|----------------------------------|----------------------------------|
--------------------------|--------------------------|----------------------------------|----------------------------------|----------------------------------|
--2--------3--------5-----|-----3--------------------|----------------------------------|----------------------------------|----------------------------------|
--3--3--3--3--3--3--5--5--|--5--3--3--3--5--7--5--3--|--0-0-0-0---0-0-0-0---0-0-0-0---0-|--0-0-0---0-0-0-0---0-0-0-0-------|--0-0-0-0---0-0-0-0---0-0-0-0---0-|
--2--2--2--3--3--3--5--5--|--5--3--3--3--5--7--5--2--|--0-0-0-0---0-0-0-0---0-0-0-0---0-|--0-0-0---0-0-0-0---0-0-0-0-------|--0-0-0-0---0-0-0-0---0-0-0-0---0-|


  S S S S S S S S S S S S S S S S    S S S S S S S S S S S S S S S S    S S S S S S S S S S S S S S S S    S S S S S S S S S S S S S S S S  
----------------------------------|----------------------------------|----------------------------------|----------------------------------|
----------------------------------|----------------------------------|----------------------------------|----------------------------------|
----------------------------------|----------------------------------|----------------------------------|----------------------------------|
----------------------------------|----------------------------------|----------------------------------|----------------------------------|
--0-0-0---0-0-0-0---0-0-0-0-------|--0-0-0-0---0-0-0-0---0-0-0-0---0-|--0-0-0---0-0-0-0---0-0-0-0-------|--0-0-0-0---0-0-0-0---0-0-0-0---0-|
--0-0-0---0-0-0-0---0-0-0-0-------|--0-0-0-0---0-0-0-0---0-0-0-0---0-|--0-0-0---0-0-0-0---0-0-0-0-------|--0-0-0-0---0-0-0-0---0-0-0-0---0-|


  E.  E.     E  E.   E.  E     S S S S S S S S S S S S S S S S    S S S S S S S S S S S S S S S S    S S S S S S S S S S S S S S S S  
----------------------------|----------------------------------|----------------------------------|----------------------------------|
----------------------------|----------------------------------|----------------------------------|----------------------------------|
----------------------------|----------------------------------|----------------------------------|----------------------------------|
----------------------------|----------------------------------|----------------------------------|----------------------------------|
--1----------------------1--|--1-1-0-0---------1-1-0-0-0-------|------1-1-0-------0-0-0-0-----0-0-|--1-1-0-0---------1-1-0-0-0---1-1-|
------1pbr---0--6S---0---1--|--1-1-0-0---------1-1-0-0-0-------|------1-1-0-------0-0-0-0-----0-0-|--1-1-0-0---------1-1-0-0-0---1-1-|


  S S S S S S S S S S S S S S S S    S S S S S S S S S S S S S S S S    S S S S S S S S S S S S S S S S    S S S S S S S S S S S S S S S S  
----------------------------------|----------------------------------|----------------------------------|----------------------------------|
----------------------------------|----------------------------------|----------------------------------|----------------------------------|
----------------------------------|----------------------------------|----------------------------------|----------------------------------|
----------------------------------|----------------------------------|----------------------------------|----------------------------------|
--1---1-1-0-0-----0-0-0-0-----0-0-|--1-1-0-0---------1-1-0-0-0-------|------1-1-0-------0-0-0-0-----0-0-|--1-1-0-0---------1-1-0-0-0---0-0-|
--1---1-1-0-0-----0-0-0-0-----0-0-|--1-1-0-0---------1-1-0-0-0-------|------1-1-0-------0-0-0-0-----0-0-|--1-1-0-0---------1-1-0-0-0---0-0-|


  E.  E.     E  E.   E.  E     S S S S S S S S S S S S S S S S    S S S S S S S S S S S S S S S S    S S S S S S S S S S S S S S S S  
----------------------------|----------------------------------|----------------------------------|----------------------------------|
----------------------------|----------------------------------|----------------------------------|----------------------------------|
----------------------------|----------------------------------|----------------------------------|----------------------------------|
----------------------------|----------------------------------|----------------------------------|----------------------------------|
--1----------------------1--|--1-1-0-0---------1-1-0-0-0-------|------1-1-0-------0-0-0-0-----0-0-|--1-1-0-0---------1-1-0-0-0---1-1-|
------1pbr---0--6S---0---1--|--1-1-0-0---------1-1-0-0-0-------|------1-1-0-------0-0-0-0-----0-0-|--1-1-0-0---------1-1-0-0-0---1-1-|


  S S S S S S S S S S S S S S S S    S S S S S S S S S S S S S S S S    S S S S S S S S S S S S S S S S    S S S S S S S S S S S S S S S S  
----------------------------------|----------------------------------|----------------------------------|----------------------------------|
----------------------------------|----------------------------------|----------------------------------|----------------------------------|
----------------------------------|----------------------------------|----------------------------------|----------------------------------|
----------------------------------|----------------------------------|----------------------------------|----------------------------------|
--1---1-1-0-0-----0-0-0-0-----0-0-|--1-1-0-0---------1-1-0-0-0-------|------1-1-0-------0-0-0-0-----0-0-|--1-1-0-0---------1-1-0-0-0---0-0-|
--1---1-1-0-0-----0-0-0-0-----0-0-|--1-1-0-0---------1-1-0-0-0-------|------1-1-0-------0-0-0-0-----0-0-|--1-1-0-0---------1-1-0-0-0---0-0-|


  E.  E.     E  E.   E.  E       E  S S S S E  E  E  E  E     E     E  S S S S E   Q       E      E  S S S S E  E  E  E  E   
-----------------------------|-----------------------------|----------------------------------|-----------------------------|
-----------------------------|-----------------------------|----------------------------------|-----------------------------|
-----------------------------|-----------------------------|----------------------------------|-----------------------------|
-----------------------------|-----------------------------|----------------------------------|-----------------------------|
--1----------------------1---|--------------0--------------|-------------------0--------------|--------------0--------------|
------1pbr---0--6S---0---1S--|--12--0-0-0-0-0--------------|-----6g12--0-0-0-0-0--11pbr----L--|--12--0-0-0-0-0--------------|


  E     E  S S S S   E  S S  Q           E  S S S S E  E  E  E  E     E     E  S S S S E   Q       E      E  S S S S E  E  E  E  E   
-------------------------------------|-----------------------------|----------------------------------|-----------------------------|
-------------------------------------|-----------------------------|----------------------------------|-----------------------------|
-------------------------------------|-----------------------------|----------------------------------|-----------------------------|
-------------------------------------|-----------------------------|----------------------------------|-----------------------------|
-------------------------------------|--------------0--------------|-------------------0--------------|--------------0--------------|
-----6g12--0-0-0-0S-12--0-0-11pbr----|--12--0-0-0-0-0--------------|-----6g12--0-0-0-0-0--11pbr----L--|--12--0-0-0-0-0--------------|


  E     E  S S S S   E  S S E  E     E  E  E  E  E  E   E  E     E  E  E  E  E  E  E  E      E   E   E   E  E   E   E   E      E   E   E   E  E   E   E   E   
----------------------------------|---------------------------|--------------------------|---------------------------------|---------------------------------|
----------------------------------|---------------------------|--------------------------|---------------------------------|---------------------------------|
----------------------------------|---------------------------|--------------------------|---------------------------------|---------------------------------|
----------------------------8-----|--5--------7--------10-----|-----0--------------------|--10--10--10--10--L--10--10--10--|--10--10--10--10--L--10--10--10--|
----------------------------8--0--|--5--5--5--8--8--8---8--8--|--8--0--0--0--5--7--5--3--|---8---8---8---8--L---8---8---8--|---8---8---8---8--L---8---8---8--|
-----6g12--0-0-0-0S-12--0-0-8--0--|--5--5--5--7--7--7---8--8--|--8--0--0--0--5--7--5--2--|---8---8---8---8--L---8---8---8--|---8---8---8---8--L---8---8---8--|


   E   E   E   E  E   E   E   E      E   E   E   E  E   E   E   E     E  E  E  E  E  E  E  E     E  E  E  E  E  E  E  E     E  E  E  E  E  E  E  E   
---------------------------------|---------------------------------|--------------------------|--------------------------|--------------------------|
---------------------------------|---------------------------------|--------------------------|--------------------------|--------------------------|
---------------------------------|---------------------------------|--------------------------|--------------------------|--------------------------|
--10--10--10--10--L--10--10--10--|--10--10--10--10--L--10--10--10--|--7--7--7--7--L--7--7--7--|--7--7--7--7--L--7--7--7--|--2--------3--------5-----|
---8---8---8---8--L---8---8---8--|---8---8---8---8--L---8---8---8--|--8--8--8--8--L--8--8--8--|--8--8--8--8--L--8--8--8--|--3--3--3--3--3--3--5--5--|
---7---7---7---7--L---7---7---7--|---7---7---7---7--L---7---7---7--|--0--0--0--0--L--0--0--0--|--0--0--0--0--L--0--0--0--|--2--2--2--3--3--3--5--5--|


  E  E  E  E  E  E  E  E      E   E   E   E  E   E   E   E      E   E   E   E  E   E   E   E      E   E   E   E  E   E   E   E   
--------------------------|---------------------------------|---------------------------------|---------------------------------|
--------------------------|---------------------------------|---------------------------------|---------------------------------|
--------------------------|---------------------------------|---------------------------------|---------------------------------|
-----3--------------------|--10--10--10--10--L--10--10--10--|--10--10--10--10--L--10--10--10--|--10--10--10--10--L--10--10--10--|
--5--3--3--3--5--7--5--3--|---8---8---8---8--L---8---8---8--|---8---8---8---8--L---8---8---8--|---8---8---8---8--L---8---8---8--|
--5--3--3--3--5--7--5--2--|---8---8---8---8--L---8---8---8--|---8---8---8---8--L---8---8---8--|---7---7---7---7--L---7---7---7--|


   E   E   E   E  E   E   E   E     E  E  E  E  E  E  E  E     E  E  E  E  E  E  E  E     E  E  E  E  E  E  E  E     E  E  E  E  E  Q    E   
---------------------------------|--------------------------|--------------------------|--------------------------|-------------------------|
---------------------------------|--------------------------|--------------------------|--------------------------|-------------------------|
---------------------------------|--------------------------|--------------------------|--------------------------|-------------------------|
--10--10--10--10--L--10--10--10--|--7--7--7--7--L--7--7--7--|--7--7--7--7--L--7--7--7--|--2--------3--------5-----|-----3--------5--7----7--|
---8---8---8---8--L---8---8---8--|--8--8--8--8--L--8--8--8--|--8--8--8--8--L--8--8--8--|--3--3--3--3--3--3--5--5--|--5--3--3--3--5--8----8--|
---7---7---7---7--L---7---7---7--|--0--0--0--0--L--0--0--0--|--0--0--0--0--L--0--0--0--|--2--2--2--3--3--3--5--5--|--5--3--3--3--5--7----7--|


   H         Q     E   E     H         E   Q     E     H        Q    E   E      E   E   Q     E   Q     E      H         Q     E   E   
--------------------------|-------------------------|-----------------------|------------------------------|--------------------------|
--------------------------|-------------------------|-----------------------|------------------------------|--------------------------|
--------------------------|-------------------------|-----------------------|------------------------------|--------------------------|
--10--------10----10--10--|--L--------10--10----10--|--7--------0----0--10--|---L--10--10----12--14----14--|--10--------10----10--10--|
---8---------8-----8---8--|--L---------8---8-----8--|--0--------0----0--10--|---L--10--10----10--10----10--|---8---------8-----8---8--|
---8---------8-----8---7--|--L---------7---7-----7--|--0--------0----0--10--|---L--10--10----10--10----10--|---8---------8-----8---7--|


  H         E   Q     E     H        Q    E  E      E  E  E  E  E  S S S S S S     H         Q     E   E     H         E   Q     E     H        Q    E   E   
-------------------------|----------------------|------------------------------|--------------------------|-------------------------|-----------------------|
-------------------------|----------------------|------------------------------|--------------------------|-------------------------|-----------------------|
-------------------------|----------------------|------------------------------|--------------------------|-------------------------|-----------------------|
--L--------10--10----10--|--7--------0----0--2--|---L--------------------------|--10--------10----10--10--|--L--------10--10----10--|--7--------0----0--10--|
--L---------8---8-----8--|--0--------0----0--3--|---L--3--3--3--3--3-3-3-3-3-3-|---8---------8-----8---8--|--L---------8---8-----8--|--0--------0----0--10--|
--L---------7---7-----7--|--0--------0----0--2--|---L--2--2--2--2--3-3-3-3-3-3-|---8---------8-----8---7--|--L---------7---7-----7--|--0--------0----0--10--|


   E   E   Q     E   Q     E      H         Q     E   E     H         E   Q     E     H        Q    E  E      E  E  E  E  E  S S S S S S   
------------------------------|--------------------------|-------------------------|----------------------|-------------------------------|
------------------------------|--------------------------|-------------------------|----------------------|-------------------------------|
------------------------------|--------------------------|-------------------------|----------------------|-------------------------------|
---L--10--10----12--14----14--|--10--------10----10--10--|--L--------10--10----10--|--7--------0----0--2--|---L---------------------------|
---L--10--10----10--10----10--|---8---------8-----8---8--|--L---------8---8-----8--|--0--------0----0--3--|---L--3--3--3--3--3-3-3-3-3-3--|
---L--10--10----10--10----10--|---8---------8-----8---7--|--L---------7---7-----7--|--0--------0----0--2--|---L--2--2--2--2--3-3-3-3-3-3S-|


   E  S S S S  Q        E  S S S S     Q.         E  E  E   Q           E   E  S S S S  Q       S S S S    E.  E.  E  E.  E.  E   
-----------------------------------|--------------------------------|-----------------------------------|------------------------|
-----------------------------------|--------------------------------|-----------------------------------|------------------------|
-----------------------------------|--------------------------------|-----------------------------------|------------------------|
-----------------------------------|--------------------------------|-----------------------------------|--5---3---5--6---5---3--|
------0-0-0-0--------------0-0-0-0-|-----------------0--0-----------|----------0-0-0-0----------0-0-0-0-|--5---3---5--6---5---3--|
--12--0-0-0-0-11pbr----12--0-0-0-0-|--11pbr------12--0--0--12pbr----|---L--12--0-0-0-0-11pbr----0-0-0-0-|--5---3---5--6---5---3--|


   E  S S S S  Q        E  S S S S     Q.         E  E  E   Q           E   E  S S S S  Q       S S S S    E.  E.  E  E.  E.  E   
-----------------------------------|--------------------------------|-----------------------------------|------------------------|
-----------------------------------|--------------------------------|-----------------------------------|------------------------|
-----------------------------------|--------------------------------|-----------------------------------|------------------------|
-----------------------------------|--------------------------------|-----------------------------------|--5---3---5--6---1---3--|
------0-0-0-0--------------0-0-0-0-|-----------------0--0-----------|----------0-0-0-0----------0-0-0-0-|--5---3---5--6---1---3--|
--12--0-0-0-0-11pbr----12--0-0-0-0-|--11pbr------12--0--0--12pbr----|---L--12--0-0-0-0-11pbr----0-0-0-0-|--5---3---5--6---1---3--|


   E  S S S S  Q        E  S S S S     Q.         E  E  E   Q           E   E  S S S S  Q       S S S S    E.  E.  E  E.  E.  E   
-----------------------------------|--------------------------------|-----------------------------------|------------------------|
-----------------------------------|--------------------------------|-----------------------------------|------------------------|
-----------------------------------|--------------------------------|-----------------------------------|------------------------|
-----------------------------------|--------------------------------|-----------------------------------|--5---3---5--6---5---3--|
------0-0-0-0--------------0-0-0-0-|-----------------0--0-----------|----------0-0-0-0----------0-0-0-0-|--5---3---5--6---5---3--|
--12--0-0-0-0-11pbr----12--0-0-0-0-|--11pbr------12--0--0--12pbr----|---L--12--0-0-0-0-11pbr----0-0-0-0-|--5---3---5--6---5---3--|


                                                                                                           |--3--|  |--3--|  |--3--|         
   E  S S S S  Q        E  S S S S     Q.         E  E  E   Q           E   E  S S S S  Q       S S S S    E  E  E  E  E  E  E  E  E  Q      
-----------------------------------|--------------------------------|-----------------------------------|-----------------------------------|
-----------------------------------|--------------------------------|-----------------------------------|-----------------------------------|
-----------------------------------|--------------------------------|-----------------------------------|-----------------------------------|
-----------------------------------|--------------------------------|-----------------------------------|-----------------------------------|
------0-0-0-0--------------0-0-0-0-|-----------------0--0-----------|----------0-0-0-0----------0-0-0-0-|--5--5--5--6--6--6--7--7--7--8S----|
--12--0-0-0-0-11pbr----12--0-0-0-0-|--11pbr------12--0--0--12pbr----|---L--12--0-0-0-0-11pbr----0-0-0-0-|--5--5--5--6--6--6--7--7--7--8S----|


   E  S S S S  Q        E  S S S S     Q.         E  E  E   Q           E   E  S S S S  Q       S S S S    E.  E.  E  E.  E.  E   
-----------------------------------|--------------------------------|-----------------------------------|------------------------|
-----------------------------------|--------------------------------|-----------------------------------|------------------------|
-----------------------------------|--------------------------------|-----------------------------------|------------------------|
-----------------------------------|--------------------------------|-----------------------------------|--5---3---5--6---5---3--|
--12--0-0-0-0--------------0-0-0-0-|-----------------0--0-----------|----------0-0-0-0----------0-0-0-0-|--5---3---5--6---5---3--|
--12--0-0-0-0-11pbr----12--0-0-0-0-|--11pbr------12--0--0--12pbr----|---L--12--0-0-0-0-11pbr----0-0-0-0-|--5---3---5--6---5---3--|


   E  S S S S  Q        E  S S S S     Q.         E  E  E   Q           E   E  S S S S  Q       S S S S    E.  E.  E  E.  E.  E   
-----------------------------------|--------------------------------|-----------------------------------|------------------------|
-----------------------------------|--------------------------------|-----------------------------------|------------------------|
-----------------------------------|--------------------------------|-----------------------------------|------------------------|
-----------------------------------|--------------------------------|-----------------------------------|--5---3---5--6---1---3--|
------0-0-0-0--------------0-0-0-0-|-----------------0--0-----------|----------0-0-0-0----------0-0-0-0-|--5---3---5--6---1---3--|
--12--0-0-0-0-11pbr----12--0-0-0-0-|--11pbr------12--0--0--12pbr----|---L--12--0-0-0-0-11pbr----0-0-0-0-|--5---3---5--6---1---3--|


   E  S S S S  Q        E  S S S S     Q.         E  E  E   Q           E   E  S S S S  Q       S S S S    E.  E.  E  E.  E.  E   
-----------------------------------|--------------------------------|-----------------------------------|------------------------|
-----------------------------------|--------------------------------|-----------------------------------|------------------------|
-----------------------------------|--------------------------------|-----------------------------------|------------------------|
-----------------------------------|--------------------------------|-----------------------------------|--5---3---5--6---5---3--|
------0-0-0-0--------------0-0-0-0-|-----------------0--0-----------|----------0-0-0-0----------0-0-0-0-|--5---3---5--6---5---3--|
--12--0-0-0-0-11pbr----12--0-0-0-0-|--11pbr------12--0--0--12pbr----|---L--12--0-0-0-0-11pbr----0-0-0-0-|--5---3---5--6---5---3--|


                                                                                                           |--3--|  |--3--|  |--3--|                
   E  S S S S  Q        E  S S S S     Q.         E  E  E   Q           E   E  S S S S  Q       S S S S    E  E  E  E  E  E  E  E  E  Q             
-----------------------------------|--------------------------------|-----------------------------------|-----------------------------------|-----||
-----------------------------------|--------------------------------|-----------------------------------|-----------------------------------|-----||
-----------------------------------|--------------------------------|-----------------------------------|-----------------------------------|-----||
-----------------------------------|--------------------------------|-----------------------------------|-----------------------------------|-----||
------0-0-0-0--------------0-0-0-0-|-----------------0--0-----------|----------0-0-0-0----------0-0-0-0-|--5--5--5--6--6--6--7--7--7--8\----|-----||
--12--0-0-0-0-11pbr----12--0-0-0-0-|--11pbr------12--0--0--12pbr----|---L--12--0-0-0-0-11pbr----0-0-0-0-|--5--5--5--6--6--6--7--7--7--8\----|-----||




Duration Legend
---------------
W - whole
H - half
Q - quarter
E - 8th
S - 16th
T - 32nd
X - 64th
. - note dotted
|-n-|  - n-tuplets


Tablature Legend
----------------
L - tied note
x - dead note
g - grace note
(n) - ghost note
> - accentuded note
NH - natural harmonic
AH - artificial harmonic
TH - tapped harmonic
SH - semi harmonic
PH - pitch harmonic
h - hammer on
p - pull off
b - bend
br - bendRelease
pb - preBend
pbr - preBendRelease
brb - bendReleaseBend
\n/ - tremolo bar dip
\n - tremolo bar dive
-/n - tremolo bar Release up
/n\ - tremolo bar inverted dip
/n - tremolo bar return
-\n - tremolo bar Release down
S - shift slide
s - legato slide
/ -  slide into from below or out of upwards
\ -  slide into from above or out of downwards
~ - vibrato
W - wide vibrato
tr - trill
TP - tremolo picking
T - tapping
S - slap
P - pop
< - fade in
^ - brush up
v - brush down
comments
We did not receive enough feedback on this tab! Please rate:
print report bad tab
1 2 3 4 5
I want to post or [tab]
guest
You may want to rate the tab now too:
select rating
Please do not post tabs as comments. Select "correction" instead!