Oops, an error
Loading. Please wait.

Break Tab

ver2
ver2

Solo

More versions @911Tabs.com
238,065 views 303 this week
21 commentsread comments
1 2 3 4 5
excellent!
x 56
Autoscroll
+/-
esc
set tempo
stop
Contributor
WARNING: You are trying to view
                                    content from Ultimate-Guitar.com
                                    in an unauthorized application,
                                    which is prohibited.

                                    Please use an official Ultimate
                                    Guitar Tabs application for iPhone,
                                    iPad or Android to access legitimate
                                    chords, guitar, bass, and drum tabs
                                    from Ultimate-Guitar.com database.

                                    Type "ultimate guitar tabs" in Apple
                                    App Store's or Android Market's
                                    search to find the application.
Three Days Grace
Break
Tabbed by U B the band
Tuning D A D G B e

Legend
v-vibrato                    /-slide up                 x-muted strum
h-hammer on                  b-bend                     r-return (bend)

Intro: Guitar 1 (Distorted) BARRY
e|------------------------------------------------------------------------|
B|--15v-------------------------------------------------------------------|
G|--(7)Feedback-----------------------------------------------------------|
D|------------------------------------------------------------------------|
A|------------------------------------------------------------------------|
D|------------------------------------------------------------------------|

Intro: Guitar 2 (Distorted) ADAM
e|------------------------------------------------------------------------|
B|------------------------------------------------------------------------|
G|------------------------------------5--5---5--5--x--5---x--x---2--------|
D|--0-0--0-0-----3--5--/7--\5---3-----5--5---5--5--x--5---x--x---2--------|
A|--0-0--0-0--0--3--5--/7--\5---3-----3--3---3--3--x--3---x--x---0--------|
D|--0-0--0-0--0--3--5--/7--\5---3------------------x------x--x------------|

Intro: Guitar 1 (Distorted)
e|------------------------------------------------------------------------|
B|------------------------------------------------------------------------|
G|--10-------9-------5---2---------10-------9-------5-----7--(7)Feedback--|
D|------------------------------------------------------------------------|
A|------------------------------------------------------------------------|
D|------------------------------------------------------------------------|
                                                                          |
Intro: Guitar 2 (Distorted)                                               |
e|------------------------------------------------------------------------|
B|------------------------------------------------------------------------|
G|------------------------------------5--5---5--5--x--5---2---7-----------|
D|--0-0--0-0-----3--5--/7--\5---3-----5--5---5--5--x--5---2---7-----------|
A|--0-0--0-0--0--3--5--/7--\5---3-----3--3---3--3--x--3---0---5-----------|
D|--0-0--0-0--0--3--5--/7--\5---3------------------x----------------------|

Verse 1: Guitars 1 & 2 (Distorted)
e|------------------------------------------------------------------------|
B|------------------------------------------------------------------------|
G|--(7)Feedback-----------------------------------------------------------|
D|--------------------------------------------------8--7--5--3--5--7------|
A|--------------------------------------------------8--7--5--3--5--7------|
D|--------------------------------------------------8--7--5--3--5--7------|

Verse 1: Guitars 1 & 2 (Distorted)
e|------------------------------------------------------------------------|
B|------------------------------------------------------------------------|
G|------------------------------------------------------------------------|
D|--------------------------------------------------8--7--5--3--5--7------|
A|--------------------------------------------------8--7--5--3--5--7------|
D|--------------------------------------------------8--7--5--3--5--7------|

Pre-Chorus: Guitar 1 (Distorted)
e|------------------------------------------------------------------------|
B|------------------------------------------------------------------------|
G|--777-77-77-----77--77--7----/10---777-77-77-----77--77--7----/12-------|
D|--xxx-xx-xx-----xx--xx--x------x---xxx-xx-xx-----xx--xx--x------x-------|
A|--555-55-55-----55--55--5----/-8---555-55-55-----55--55--5----/10-------|
D|------------------------------------------------------------------------|
                                                                          |
Pre-Chorus: Guitar 2 (Distorted)                                          |
e|------------------------------------------------------------------------|
B|------------------------------------------------------------------------|
G|------------------------------------------------------------------------|
D|--8--------------------------------5------------------------------------|
A|--8--------------------------------5------------------------------------|
D|--8--------------------------------5------------------------------------|

Chorus: Guitar 2 (Distorted)
e|------------------------------------------------------------------------|
B|------------------------------------------------------------------------|
G|------------------------------------5--5---5--5--x--5---x--x---2--------|
D|--0-0--0-0-----3--5--/7--\5---3-----5--5---5--5--x--5---x--x---2--------|
A|--0-0--0-0--0--3--5--/7--\5---3-----3--3---3--3--x--3---x--x---0--------|
D|--0-0--0-0--0--3--5--/7--\5---3------------------x------x--x------------|

Chorus: Guitar 2 (Distorted)
e|------------------------------------------------------------------------|
B|------------------------------------------------------------------------|
G|------------------------------------5--5---5--5--x--5---2---7-----------|
D|--0-0--0-0-----3--5--/7--\5---3-----5--5---5--5--x--5---2---7-----------|
A|--0-0--0-0--0--3--5--/7--\5---3-----3--3---3--3--x--3---0---5-----------|
D|--0-0--0-0--0--3--5--/7--\5---3------------------x----------------------|

Chorus: Guitar 2 (Distorted)
e|------------------------------------------------------------------------|
B|------------------------------------------------------------------------|
G|---------------------------------5--5---5--5--x--5---x--x---2-----------|
D|--0-0--0-0------10---10----------5--5---5--5--x--5---x--x---2-----------|
A|--0-0--0-0--0----8----7----------3--3---3--3--x--3---x--x---0-----------|
D|--0-0--0-0--0---------------------------------x------x--x---------------|

Chorus: Guitar 2 (Distorted)
e|------------------------------------------------------------------------|
B|------------------------------------------------------------------------|
G|------------------------------------5--5---5--5--x--5---2---7-----------|
D|--0-0--0-0-----3--5--/7--\5---3-----5--5---5--5--x--5---2---7-----------|
A|--0-0--0-0--0--3--5--/7--\5---3-----3--3---3--3--x--3---0---5-----------|
D|--0-0--0-0--0--3--5--/7--\5---3------------------x----------------------|

Post Chorus: Guitar 1 (Clean with reverb)
e|------------------------------------------------------------------------|
B|---------------------5---b6--r5------------------------6----5-----------|
G|---------------------7---------------------------------7----------------|
D|------------------------------------------------------------------------|
A|------------------------------------------------------------------------|
D|------------------------------------------------------------------------|
                                                                          |
Post Chorus: Guitar 2 (Distorted)                                         |
e|------------------------------------------------------------------------|
B|------------------------------------------------------------------------|
G|------------------------------------------------------------------------|
D|------------------------------------------------------------------------|
A|--0--0--0--0--0--0------------------0--0--0--0--0--0--------------------|
D|--0--0--0--0--0--0------------------0--0--0--0--0--0--------------------|

Verse 2: Guitars 1 & 2 (Distorted)
e|------------------------------------------------------------------------|
B|------------------------------------------------------------------------|
G|------------------------------------------------------------------------|
D|--------------------------------------------------8--7--5--3--5--7------|
A|--------------------------------------------------8--7--5--3--5--7------|
D|--------------------------------------------------8--7--5--3--5--7------|

Verse 2: Guitars 1 & 2 (Distorted)
e|------------------------------------------------------------------------|
B|------------------------------------------------------------------------|
G|------------------------------------------------------------------------|
D|--------------------------------------------------8--7--5--3--5--7------|
A|--------------------------------------------------8--7--5--3--5--7------|
D|--------------------------------------------------8--7--5--3--5--7------|

Pre-Chorus: Guitar 1 (Distorted)
e|------------------------------------------------------------------------|
B|------------------------------------------------------------------------|
G|--777-77-77-----77--77--7----/10---777-77-77-----77--77--7----/12-------|
D|--xxx-xx-xx-----xx--xx--x------x---xxx-xx-xx-----xx--xx--x------x-------|
A|--555-55-55-----55--55--5----/-8---555-55-55-----55--55--5----/10-------|
D|------------------------------------------------------------------------|
                                                                          |
Pre-Chorus: Guitar 2 (Distorted)                                          |
e|------------------------------------------------------------------------|
B|------------------------------------------------------------------------|
G|------------------------------------------------------------------------|
D|--8--------------------------------5------------------------------------|
A|--8--------------------------------5------------------------------------|
D|--8--------------------------------5------------------------------------|

Chorus: Guitar 2 (Distorted)
e|------------------------------------------------------------------------|
B|------------------------------------------------------------------------|
G|------------------------------------5--5---5--5--x--5---x--x---2--------|
D|--0-0--0-0-----3--5--/7--\5---3-----5--5---5--5--x--5---x--x---2--------|
A|--0-0--0-0--0--3--5--/7--\5---3-----3--3---3--3--x--3---x--x---0--------|
D|--0-0--0-0--0--3--5--/7--\5---3------------------x------x--x------------|

Chorus: Guitar 2 (Distorted)
e|------------------------------------------------------------------------|
B|------------------------------------------------------------------------|
G|------------------------------------5--5---5--5--x--5---2---7-----------|
D|--0-0--0-0-----3--5--/7--\5---3-----5--5---5--5--x--5---2---7-----------|
A|--0-0--0-0--0--3--5--/7--\5---3-----3--3---3--3--x--3---0---5-----------|
D|--0-0--0-0--0--3--5--/7--\5---3------------------x----------------------|

Chorus: Guitar 2 (Distorted)
e|------------------------------------------------------------------------|
B|------------------------------------------------------------------------|
G|---------------------------------5--5---5--5--x--5---x--x---2-----------|
D|--0-0--0-0------10---10----------5--5---5--5--x--5---x--x---2-----------|
A|--0-0--0-0--0----8----7----------3--3---3--3--x--3---x--x---0-----------|
D|--0-0--0-0--0---------------------------------x------x--x---------------|

Chorus: Guitar 2 (Distorted)
e|------------------------------------------------------------------------|
B|------------------------------------------------------------------------|
G|------------------------------------5--5---5--5--x--5---2---7-----------|
D|--0-0--0-0-----3--5--/7--\5---3-----5--5---5--5--x--5---2---7-----------|
A|--0-0--0-0--0--3--5--/7--\5---3-----3--3---3--3--x--3---0---5-----------|
D|--0-0--0-0--0--3--5--/7--\5---3------------------x----------------------|

Bridge: Guitar 1 (Distorted)
e|----------------------------------------------------------/-------------|
B|----------------------------------------------------------/-------------|
G|--9-------------------------------------------------------/-------------|
D|------------------------------------------------------------------------|
A|------------------------------------------------------------------------|
D|------------------------------------------------------------------------|
                                                                          |
Bridge: Guitar 2 (Distorted)                                              |
e|------------------------------------------------------------------------|
B|------------------------------------------------------------------------|
G|------------------------------------------------------------------------|
D|--0-----------------------------------------------8--7--5--3--5--7------|
A|--0-----------------------------------------------8--7--5--3--5--7------|
D|--0-----------------------------------------------8--7--5--3--5--7------|

Bridge: Guitar 1 (Distorted)
e|------------------17/18-17-15-17v----------17/18-17-15-17v--15----------|
B|--15---15v------15-----------------------15---------------------18-17-18|
G|-----------14-17--------------------14-17-------------------------------|
D|------------------------------------------------------------------------|
A|------------------------------------------------------------------------|
D|------------------------------------------------------------------------|
                                                                          |
Bridge: Guitar 2 (Distorted)                                              |
e|------------------------------------------------------------------------|
B|------------------------------------------------------------------------|
G|------------------------------------------------------------------------|
D|--0---7--7----------8--7--0--7--7-------------0--10--7--------8--7--5---|
A|--0---5--7----------8--7--0--5--7-------------0--10--7--------8--7--5---|
D|--0------7----------8--7--0-----7-------------0--10--7--------8--7--5---|

Bridge: Guitar 1 (Distorted)
e|-----------------------17/18-17-15-17v--------17/18-17-15-17-15----15---|
B|------17b---15v------15---------------------15------------------18----18|
G|----------------14-17------------------14-17----------------------------|
D|------------------------------------------------------------------------|
A|------------------------------------------------------------------------|
D|------------------------------------------------------------------------|
                                                                          |
Bridge: Guitar 2 (Distorted)                                              |
e|------------------------------------------------------------------------|
B|------------------------------------------------------------------------|
G|------------------------------------------------------------------------|
D|-3-5-7---0--7--7--------8--7--0--7--7-----------0--10--7------8--7--5---|
A|-3-5-7---0--5--7--------8--7--0--5--7-----------0--10--7------8--7--5---|
D|-3-5-7---0-----7--------8--7--0-----7-----------0--10--7------8--7--5---|

Bridge: Guitar 1 (Distorted)
e|------------------------------------------------------------------------|
B|--17-18-----------------------------------------13------13--15----------|
G|------------15--14--12------12--14--15--14--15------15------------------|
D|------------------------15----------------------------------------------|
A|------------------------------------------------------------------------|
D|------------------------------------------------------------------------|
                                                                          |
Bridge: Guitar 1 (Distorted)                                              |
e|------------------------------------------------------------------------|
B|------------------------------------------------------------------------|
G|------------------------------------------------------------------------|
D|--3--5--7----8---7---5---3---5---7---8---7---5---3---5---7---0----------|
A|--3--5--7----8---7---5---3---5---7---8---7---5---3---5---7---0----------|
D|--3--5--7----8---7---5---3---5---7---8---7---5---3---5---7---0----------|

Chorus: Guitar 2 (Distorted)
e|------------------------------------------------------------------------|
B|------------------------------------------------------------------------|
G|------------------------------------5--5---5--5--x--5---x--x---2--------|
D|--0-0--0-0-----3--5--/7--\5---3-----5--5---5--5--x--5---x--x---2--------|
A|--0-0--0-0--0--3--5--/7--\5---3-----3--3---3--3--x--3---x--x---0--------|
D|--0-0--0-0--0--3--5--/7--\5---3------------------x------x--x------------|

Chorus: Guitar 2 (Distorted)
e|------------------------------------------------------------------------|
B|------------------------------------------------------------------------|
G|------------------------------------5--5---5--5--x--5---2---7-----------|
D|--0-0--0-0-----3--5--/7--\5---3-----5--5---5--5--x--5---2---7-----------|
A|--0-0--0-0--0--3--5--/7--\5---3-----3--3---3--3--x--3---0---5-----------|
D|--0-0--0-0--0--3--5--/7--\5---3------------------x----------------------|

Chorus: Guitar 2 (Distorted)
e|------------------------------------------------------------------------|
B|------------------------------------------------------------------------|
G|---------------------------------5--5---5--5--x--5---x--x---2-----------|
D|--0-0--0-0------10---10----------5--5---5--5--x--5---x--x---2-----------|
A|--0-0--0-0--0----8----7----------3--3---3--3--x--3---x--x---0-----------|
D|--0-0--0-0--0---------------------------------x------x--x---------------|

Chorus: Guitar 2 (Distorted)
e|------------------------------------------------------------------------|
B|------------------------------------------------------------------------|
G|------------------------------------5--5---5--5--x--5---2---7-----------|
D|--0-0--0-0-----3--5--/7--\5---3-----5--5---5--5--x--5---2---7-----------|
A|--0-0--0-0--0--3--5--/7--\5---3-----3--3---3--3--x--3---0---5-----------|
D|--0-0--0-0--0--3--5--/7--\5---3------------------x----------------------|

Chorus: Guitar 1 (Distorted)
e|---------17/18-17-15-17-------------------------------------------------|
B|-------15----------------------------17------18-------------------------|
G|--14-17----------------------------------------------17-----14----------|
D|------------------------------------------------------------------------|
A|------------------------------------------------------------------------|
D|------------------------------------------------------------------------|
                                                                          |
Chorus: Guitar 2 (Distorted)                                              |
e|------------------------------------------------------------------------|
B|------------------------------------------------------------------------|
G|------------------------------------5--5---5--5--x--5---x--x---2--------|
D|--0-0--0-0-----3--5--/7--\5---3-----5--5---5--5--x--5---x--x---2--------|
A|--0-0--0-0--0--3--5--/7--\5---3-----3--3---3--3--x--3---x--x---0--------|
D|--0-0--0-0--0--3--5--/7--\5---3------------------x------x--x------------|

Chorus: Guitar 1 (Distorted)
e|---------17/18-17-15-17-------------------------------15----------------|
B|-------15--------------------------17-------18---------------18---------|
G|--14-17-----------------------------------------------------------------|
D|------------------------------------------------------------------------|
A|------------------------------------------------------------------------|
D|------------------------------------------------------------------------|
                                                                          |
Chorus: Guitar 2 (Distorted)                                              |
e|------------------------------------------------------------------------|
B|------------------------------------------------------------------------|
G|------------------------------------5--5---5--5--x--5---2---7-----------|
D|--0-0--0-0-----3--5--/7--\5---3-----5--5---5--5--x--5---2---7-----------|
A|--0-0--0-0--0--3--5--/7--\5---3-----3--3---3--3--x--3---0---5-----------|
D|--0-0--0-0--0--3--5--/7--\5---3------------------x----------------------|

Chorus: Guitar 1 (Distorted)
e|---17/18-17-15-17-------------------------------------------------------|
B|---------------------------------17------18-----------------------------|
G|--------------------------------------------------17-----14-------------|
D|------------------------------------------------------------------------|
A|------------------------------------------------------------------------|
D|------------------------------------------------------------------------|
                                                                          |
Chorus: Guitar 2 (Distorted)                                              |
e|------------------------------------------------------------------------|
B|------------------------------------------------------------------------|
G|---------------------------------5--5---5--5--x--5---x--x---2-----------|
D|--0-0--0-0------10---10----------5--5---5--5--x--5---x--x---2-----------|
A|--0-0--0-0--0----8----7----------3--3---3--3--x--3---x--x---0-----------|
D|--0-0--0-0--0---------------------------------x------x--x---------------|

Chorus: Guitar 1 (Distorted)
e|----------17/18-17-15-17-------------------------------15---------------|
B|--------15-------------------------17------18---------------18----------|
G|---14-17----------------------------------------------------------------|
D|------------------------------------------------------------------------|
A|------------------------------------------------------------------------|
D|------------------------------------------------------------------------|
                                                                          |
Chorus: Guitar 2 (Distorted)                                              |
e|------------------------------------------------------------------------|
B|------------------------------------------------------------------------|
G|------------------------------------5--5---5--5--x--5---2---7-----------|
D|--0-0--0-0-----3--5--/7--\5---3-----5--5---5--5--x--5---2---7-----------|
A|--0-0--0-0--0--3--5--/7--\5---3-----3--3---3--3--x--3---0---5-----------|
D|--0-0--0-0--0--3--5--/7--\5---3------------------x----------------------|

Outro: Guitar 1 (Distorted)
e|------------------------------------------------------------------------|
B|--15--------------------------------------------------------------------|
G|------------------------------------------------------------------------|
D|------------------------------------------------------------------------|
A|------------------------------------------------------------------------|
D|------------------------------------------------------------------------|
                                                                          |
Outro: Guitar 2 (Distorted)                                               |
e|------------------------------------------------------------------------|
B|------------------------------------------------------------------------|
G|------------------------------------------------------------------------|
D|--0---------------------------------------------------------------------|
A|--0---------------------------------------------------------------------|
D|--0---------------------------------------------------------------------|

Finished

21 comments total. Showing first comments.
+2 reply
Crimson J. wrote on September 2 2009, 04:15 pm

Dude this is great!
Ive played the whole song and it sounds almost flawless and the solo was perfect 5 Stars!;)

+2 reply
th_brck_rcks wrote on September 2 2009, 06:54 pm

Awesome!!!!!!!!!!!
their new single is great and this is a great tab :)

0 reply
M3tal-Dem0n wrote on September 13 2009, 12:23 pm

Perfect tab! 5 stars

I want to post or [tab]
guest
You may want to rate the tab now too:
select rating
Please do not post tabs as comments. Select "correction" instead!