Oops, an error
Loading. Please wait.

Break Tab

ver6
ver6

Solo

Interactive

More versions @911Tabs.com
1,447 views 1 this week
1 commentread comment
1 2 3 4 5
please rate
Autoscroll
+/-
esc
set tempo
stop
Contributor
Difficulty
Tuning
intermediate
D A D G B E
WARNING: You are trying to view
                                    content from Ultimate-Guitar.com
                                    in an unauthorized application,
                                    which is prohibited.

                                    Please use an official Ultimate
                                    Guitar Tabs application for iPhone,
                                    iPad or Android to access legitimate
                                    chords, guitar, bass, and drum tabs
                                    from Ultimate-Guitar.com database.

                                    Type "ultimate guitar tabs" in Apple
                                    App Store's or Android Market's
                                    search to find the application.
Title: Break
Album: Life Starts Now
Tuning: DADGBe
Tabbed by: guitar- freak
(The key is located at the bottom)
The solo should be pretty good, but I didn't get the playing behind the solo yet. 
Otherwise, enjoy!
Gtr. 1
e|------------------------------------------------------------|
B|-------------------17~--------------------------------------|
G|------------------------------------------------------------|
D|------------------------------------------------------------|
A|------------------------------------------------------------|
D|------------------------------------------------------------|
Gtr.2
e|------------------------------------------------------------|
B|------------------------------------------------------------|
G|-----7-7-7-7------------------------------------------------|
D|-----7-7-7-7---3--5/7-5-3---10-10-10-10-x-10--7-------------|
A|-----5-5-5-5---3--5/7-5-3---10-10-10-10-x-10--7-------------|
D|---------------3--5/7-5-3---10-10-10-10-x-10--7-------------|
Gtr.1
e|------------------------------------------------------------|
B|------------------------------------------------------------|
G|---10-9------10-9-------------------------------------------|
D|-------10/7------10/12~-------------------------------------|
A|------------------------------------------------------------|
D|------------------------------------------------------------|
Gtr.2
e|------------------------------------------------------------|
B|------------------------------------------------------------|
G|--7-7-7-7-----------------------------------7---------------|
D|--7-7-7-7---3--5/7-5-3---10-10-10-10-x-10-7-7---------------|
A|--5-5-5-5---3--5/7-5-3---10-10-10-10-x-10-7-5---------------|
D|------------3--5/7-5-3---10-10-10-10-x-10-7-----------------|
Gtr. 1+2(Play this twice. You will know when if you have heard the song)
e|------------------------------------------------------------|
B|------------------------------------------------------------|
G|------------------------------------------------------------|
D|--------8-7-5-3-5-7-----------------------------------------|
A|--------8-7-5-3-5-7-----------------------------------------|
D|--------8-7-5-3-5-7-----------------------------------------|
 Gtr. 1+2
e|------------------------------------------------------------|
B|------------------------------------------------------------|
G|--7--7-7-7-7--7-7-7-7--7--10--7--7-7-7-7--7-7-7-7--7--12----|
D|--x--x-x-x-x--x-x-x-x--x--x---x--x-x-x-x--x-x-x-x--x--x-----|
A|--5--5-5-5-5--5-5-5-5--5--8---5--5-5-5-5--5-5-5-5--5--10----|
D|------------------------------------------------------------|

e|------------------------------------------------------------|
B|------------------------------------------------------------|
G|---7-7-7-7--------------------------------------------------|
D|---7-7-7-7--3--5/7-5-3---10-10-10-10-x-10--7----------------|
A|---5-5-5-5--3--5/7-5-3---10-10-10-10-x-10--7----------------|
D|------------3--5/7-5-3---10-10-10-10-x-10--7----------------|


e|------------------------------------------------------------|
B|------------------------------------------------------------|
G|---7-7-7-7----------------------------------7---------------|
D|---7-7-7-7--3--5/7-5-3---10-10-10-10-x-10-7-7---------------|
A|---5-5-5-5--3--5/7-5-3---10-10-10-10-x-10-7-5---------------|
D|------------3--5/7-5-3---10-10-10-10-x-10-7-----------------|

e|------------------------------------------------------------|
B|------------------------------------------------------------|
G|---7-7-7-7-x------------------------------------------------|
D|---7-7-7-7-x-10-10---10-10-10-10-x-10--7--------------------|
A|---5-5-5-5-x-8--7----10-10-10-10-x-10--7--------------------|
D|---------------------10-10-10-10-x-10--7--------------------|

e|------------------------------------------------------------|
B|------------------------------------------------------------|
G|----7-7-7-7---------------------------------7---------------|
D|----7-7-7-7-3--5/7-5-3---10-10-10-10-x-10-7-7---------------|
A|----5-5-5-5-3--5/7-5-3---10-10-10-10-x-10-7-5---------------|
D|------------3--5/7-5-3---10-10-10-10-x-10-7-----------------|

Gtr.1+2   Dm               Dm
e|------------------------------------------------------------|
B|--------4----------------4----------------------------------|
G|--------7----------------7----------------------------------|
D|--------7----------------7----------------------------------|
A|--------5----------------5----------------------------------|
D|------------------------------------------------------------|
(I don't really know if this part is right.)^

Gtr.1+2 
e|------------------------------------------------------------|
B|------------------------------------------------------------|
G|------------------------------------------------------------|
D|----------8-7-5-3-5-7----------8-7-5-3-5-7------------------|
A|----------8-7-5-3-5-7----------8-7-5-3-5-7------------------|
D|----------8-7-5-3-5-7----------8-7-5-3-5-7------------------|

e|------------------------------------------------------------|
B|------------------------------------------------------------|
G|-7--7-7-7-7--7-7-7-7--7--10-7--7-7-7-7--7-7-7-7--7--12------|
D|-x--x-x-x-x--x-x-x-x--x--x--x--x-x-x-x--x-x-x-x--x--x-------|
A|-5--5-5-5-5--5-5-5-5--5--8--5--5-5-5-5--5-5-5-5--5--10------|
D|------------------------------------------------------------|

e|------------------------------------------------------------|
B|------------------------------------------------------------|
G|---7-7-7-7--------------------------------------------------|
D|---7-7-7-7--3--5/7-5-3---10-10-10-10-x-10--7----------------|
A|---5-5-5-5--3--5/7-5-3---10-10-10-10-x-10--7----------------|
D|------------3--5/7-5-3---10-10-10-10-x-10--7----------------|


e|------------------------------------------------------------|
B|------------------------------------------------------------|
G|---7-7-7-7----------------------------------7---------------|
D|---7-7-7-7--3--5/7-5-3---10-10-10-10-x-10-7-7---------------|
A|---5-5-5-5--3--5/7-5-3---10-10-10-10-x-10-7-5---------------|
D|------------3--5/7-5-3---10-10-10-10-x-10-7-----------------|

e|------------------------------------------------------------|
B|------------------------------------------------------------|
G|---7-7-7-7-x------------------------------------------------|
D|---7-7-7-7-x-10-10---10-10-10-10-x-10--7--------------------|
A|---5-5-5-5-x-8--7----10-10-10-10-x-10--7--------------------|
D|---------------------10-10-10-10-x-10--7--------------------|

e|------------------------------------------------------------|
B|------------------------------------------------------------|
G|----7-7-7-7---------------------------------7---------------|
D|----7-7-7-7-3--5/7-5-3---10-10-10-10-x-10-7-7---------------|
A|----5-5-5-5-3--5/7-5-3---10-10-10-10-x-10-7-5---------------|
D|------------3--5/7-5-3---10-10-10-10-x-10-7-----------------|


Gtr.1+2
e|----------------------|
B|----------------------|
G|----------------------|
D|-----0----------------|
A|-----0----------------|
D|-----0----------------|

e|------------------------------------------------------------|
B|------------------------------------------------------------|
G|------------------------------------------------------------|
D|-------------8-7-5-3-5-7------------------------------------|
A|-------------8-7-5-3-5-7------------------------------------|
D|-------------8-7-5-3-5-7------------------------------------|

Gtr.1
e|-----------------------18-17-15-17~-------18-17-15-17~------|
B|----15^--15~---------15-----------------15------------------|
G|-----------------14-17--------------14-17-------------------|
D|------------------------------------------------------------|
A|------------------------------------------------------------|
D|------------------------------------------------------------|

e|-15-13-12-13~------------------18-17-15-17------18-17-15-17-|
B|---------------17^--15~------15---------------15------------|
G|-------------------------14-17------------14-17-------------|
D|------------------------------------------------------------|
A|------------------------------------------------------------|
D|------------------------------------------------------------|

e|-15-13-15-13-12-13-|
B|-------------------|
G|-------------------|
D|-------------------|
A|-------------------|
D|-------------------|

e|------------------------------------------------------------|
B|--------------------------------13---13--15~----------------|
G|-----/15-14-12---12-14-15-14-15----15-----------------------|
D|---------------15-------------------------------------------|
A|------------------------------------------------------------|
D|------------------------------------------------------------|

Gtr.1+2
e|------------------------------------------------------------|
B|------------------------------------------------------------|
G|-----7-7-7-7------------------------------------------------|
D|-----7-7-7-7-3-5/7-5-3---10-10-10-10-x-10--7----------------|
A|-----5-5-5-5-3-5/7-5-3---10-10-10-10-x-10--7----------------|
D|-------------3-5/7-5-3---10-10-10-10-x-10--7----------------|

e|------------------------------------------------------------|
B|------------------------------------------------------------|
G|----7-7-7-7--------------------------------7----------------|
D|----7-7-7-7-3-5/7-5-3---10-10-10-10-x-10-7-7----------------|
A|----5-5-5-5-3-5/7-5-3---10-10-10-10-x-10-7-5----------------|
D|------------3-5/7-5-3---10-10-10-10-x-10-7------------------|

e|------------------------------------------------------------|
B|------------------------------------------------------------|
G|----7-7-7-7-x-----------------------------------------------|
D|----7-7-7-7-x-10-10---10-10-10-10-x-10--7-------------------|
A|----5-5-5-5-x-8--7----10-10-10-10-x-10--7-------------------|
D|----------------------10-10-10-10-x-10--7-------------------|

e|------------------------------------------------------------|
B|------------------------------------------------------------|
G|---7-7-7-7--------------------------------7-----------------|
D|---7-7-7-7-3-5/7-5-3---10-10-10-10-x-10-7-7-----------------|
A|---5-5-5-5-3-5/7-5-3---10-10-10-10-x-10-7-5-----------------|
D|-----------3-5/7-5-3---10-10-10-10-x-10-7-------------------|

Gtr.1
e|----------18-17-15-17---------------------------------------|
B|--------15------------17-18---------------------------------|
G|----14-17-------------------17-14---------------------------|
D|------------------------------------------------------------|
A|------------------------------------------------------------|
D|------------------------------------------------------------|

Gtr.2
e|------------------------------------------------------------|
B|------------------------------------------------------------|
G|---7-7-7-7--------------------------------------------------|
D|---7-7-7-7-3-5/7-5-3---10-10-10-10-x-10--7------------------|
A|---5-5-5-5-3-5/7-5-3---10-10-10-10-x-10--7------------------|
D|-----------3-5/7-5-3---10-10-10-10-x-10--7------------------|

Gtr.1
e|---------18-17-15-17~------15-------------------------------|
B|-------15-------------17-18---18----------------------------|
G|---14-17----------------------------------------------------|
D|------------------------------------------------------------|
A|------------------------------------------------------------|
D|------------------------------------------------------------|

Gtr.2
e|------------------------------------------------------------|
B|------------------------------------------------------------|
G|----7-7-7-7--------------------------------7----------------|
D|----7-7-7-7-3-5/7-5-3---10-10-10-10-x-10-7-7----------------|
A|----5-5-5-5-3-5/7-5-3---10-10-10-10-x-10-7-5----------------|
D|------------3-5/7-5-3---10-10-10-10-x-10-7------------------|

Gtr.1
e|-----18-17-15-17--------------------------------------------|
B|-----------------17-18--------------------------------------|
G|----------------------17-14---------------------------------|
D|------------------------------------------------------------|
A|------------------------------------------------------------|
D|------------------------------------------------------------|

Gtr.2
e|------------------------------------------------------------|
B|------------------------------------------------------------|
G|---7-7-7-7-x------------------------------------------------|
D|---7-7-7-7-x-10-10--10-10-10-10-x-10--7---------------------|
A|---5-5-5-5-x-8--7---10-10-10-10-x-10--7---------------------|
D|--------------------10-10-10-10-x-10--7---------------------|

Gtr.1
e|-----------18-17-15-17~-------15----------------------------|
B|---------15-------------17-18----18-17-15~------------------|
G|-----14-17--------------------------------------------------|
D|------------------------------------------------------------|
A|------------------------------------------------------------|
D|------------------------------------------------------------|

Gtr.2
e|------------------------------------------------------------|
B|------------------------------------------------------------|
G|---7-7-7-7-------------------------------7------------------|
D|---7-7-7-7-3-5/7-5-3--10-10-10-10-x-10-7-7---0--------------|
A|---5-5-5-5-3-5/7-5-3--10-10-10-10-x-10-7-5---0--------------|
D|-----------3-5/7-5-3--10-10-10-10-x-10-7-----0--------------|

Key: ~= vibrato  /=slide
comments
We did not receive enough feedback on this tab! Please rate:
print report bad tab
1 2 3 4 5
1 comment total.
0 reply
Zach101 wrote on June 21 2010, 03:35 pm

You basically just copied someone else's tab... 1*

I want to post or [tab]
guest
You may want to rate the tab now too:
select rating
Please do not post tabs as comments. Select "correction" instead!