Oops, an error
Loading. Please wait.

Life Starts Now Bass Tab

ver1
ver1

Album

Whole song

Interactive

More versions @911Tabs.com
8,356 views 3 this week
no commentswrite comment
1 2 3 4 5
excellent!
x 6
Autoscroll
+/-
esc
set tempo
stop
Contributor
Hey! There's an official Ultimate Guitar app which is ideal
for learning songs when you're away from computer. Get the app
WARNING: You are trying to view
                                    content from Ultimate-Guitar.com
                                    in an unauthorized application,
                                    which is prohibited.

                                    Please use an official Ultimate
                                    Guitar Tabs application for iPhone,
                                    iPad or Android to access legitimate
                                    chords, guitar, bass, and drum tabs
                                    from Ultimate-Guitar.com database.

                                    Type "ultimate guitar tabs" in Apple
                                    App Store's or Android Market's
                                    search to find the application.
BAND: THREE DAYS GRACE
ALBUM: LIFE STARTS NOW

Tabbed by: mariewong



-------------------------------------------------------------------------------
			     BITTER TASTE 
-------------------------------------------------------------------------------

Tuning: Drop D



Intro:

G|-------------------------|
D|-------------------------|
A|---------------------11--|  [x2]  
D|-5553565--55535653-11----|



Verse:
Just let me say one thing
I've had enough
You're selfish and sorry
You'll never learn how to love
As your world disassembles
Better keep your head up

G|-------------------------|
D|-------------------------|
A|---------------------11--|  [x3]  
D|-5553565--55535653-11----|


Your name, your face
Is all you have left now
Betrayed, disgraced
You've been erased

G|--------------------|
D|--------------------|
A|--------------------|  
D|-5~--8~--6~--5~-8~--|



Chorus:
So long, so long
I have erased you
So long, so long
I've wanted to waste you
So long, so long
I have erased you
I have escaped
The bitter taste of you

G|--------------------------------------------|
D|--------------------------------------------|
A|--------------------------------------------|  
D|-101010-888-666-55555555-6-66666-8-8888888--|

G|--------------------------------------------|
D|--------------------------------------------|
A|--------------------------------------------|  
D|-101010-888-666-55555555-6-66666-8-8888888--|

G|----------------------------|
D|----------------------------|
A|-4(x16)--------4(x16)----3--|  
D|--------3(x16)--------333---|

G|-------------------------|
D|-------------------------|
A|---------------------11--| 
D|-5553565--55535653-11----|



Verse:
Just let me clear my head
I think I've had too much
You're so disappointing
But you make good use of it
As your world disassembles
Better keep your head up

G|-------------------------|
D|-------------------------|
A|---------------------11--|  [x3]  
D|-5553565--55535653-11----|


Your name, your face
Is all you have left now
Betrayed, disgraced
You've been erased

G|--------------------|
D|--------------------|
A|--------------------|  
D|-5~--8~--6~--5~-8~--|



Chorus:
So long, so long
I have erased you
So long, so long
I've wanted to waste you
So long, so long
I've wanted to waste you
So long, so long
I have erased you
I have escaped
The bitter taste of you

G|--------------------------------------------|
D|--------------------------------------------|
A|--------------------------------------------|  
D|-101010-888-666-55555555-6-66666-8-8888888--|

G|--------------------------------------------|
D|--------------------------------------------|
A|--------------------------------------------|  
D|-101010-888-666-55555555-6-66666-8-8888888--|

G|----------------------------|
D|----------------------------|
A|-4(x16)--------4(x16)----3--|  
D|--------3(x16)--------333---|



Solo:

G|-------------------------|
D|-------------------------|
A|---------------------11--|  [x3]  
D|-5553565--55535653-11----|


G|-------------------------------------------------------|
D|-------------------------------------------------------|
A|-4444444~-----33---4444444~----33---4444444~-----33----|  
D|----------3333--3~---------3333--3~----------3333--3~--|


Your name, your face
Is all you have left now
Disgraced, betrayed
You've been erased

G|--------------------------------|
D|--------------------------------|
A|-3(x16)-1(x16)------------------|  
D|---------------6(x16)-5(x6)-8~--|



Chorus:
So long, so long
I have erased you
So long, so long
I've wanted to waste you
So long, so long
I've wanted to waste you
So long, so long
I have erased you
I have escaped
The bitter taste of you
I have escaped
The bitter taste of you

G|--------------------------------------------|
D|--------------------------------------------|
A|--------------------------------------------|  
D|-101010-888-666-55555555-6-66666-8-8888888--|

G|--------------------------------------------|
D|--------------------------------------------|
A|--------------------------------------------|  
D|-101010-888-666-55555555-6-66666-8-8888888--|

G|--------------------------------------|
D|--------------------------------------|
A|-4(x16)--------4(x16)----3-4(x16)-3~--|  
D|--------3(x16)--------333-------------|



Outro:

G|------------------------|        |-----|
D|------------------------|        |-----|
A|-3331343-33313431---66--|  [x3]  |-3~--|  
D|------------------66----|        |-----|





-------------------------------------------------------------------------------
			     BREAK
-------------------------------------------------------------------------------

Tuning: Drop D



Intro:

G|---------------------------|--------------------------|
D|---------------------------|--------------------------|
A|-5555---------3333-33-30~--|-5555---------3333-3305~--|
D|------6-35653--------------|------6-35653-------------|



Verse:
Tonight, my head is spinning
I need something to pick me up
I've tried but nothing is working
I won't stop, I won't say I've had enough

G|---------------------|------------------------|
D|---------------------|------------------------|
A|--------5--5555---3--|--------5--1-0-------0--|  [x2]
D|-00-300---------0----|-00-300--------5-3-5----|



Pre-chorus:
Tonight, I start the fire
Tonight, I break away

G|---------------------------------------------------|
D|---------------------------------------------------|
A|-11-11-11~--11-11-11-3~----------------------------|
D|-------------------------55-55-55~--55-55-555-7-3--|



Chorus:
Break. Away from everybody
Break. Away from everything
If you can't stand the way this place is
Take, yourself, to higher places

G|---------------------------|--------------------------|
D|---------------------------|--------------------------|
A|-5555---------3333-33-30~--|-5555---------3333-3305~--|
D|------6-35653--------------|------6-35653-------------|


G|------------------------|--------------------------|
D|------------------------|--------------------------|
A|-------------3333-33-0--|-5555---------3333-3305~--|
D|-0000-0-3-2-------------|------6-35653-------------|



Pre-verse:

G|---------------------|
D|---------------------|
A|-------5~--------5~--|
D|-0[x8]-----0[x8]-----|



Verse:
At night, I feel like a vampire
It's not right but I just can't give it up
I'll try to get myself higher
Let's go. We're gonna light it up

G|---------------------|------------------------|
D|---------------------|------------------------|
A|--------5--5------3--|--------5--1-0-------0--|  [x2]
D|-00-300-----353-0----|-00-300--------5-3-5----|



Pre-chorus:
Tonight, I start the fire
Tonight, I break away

G|---------------------------------------------------|
D|---------------------------------------------------|
A|-11-11-11~--11-11-11-3~----------------------------|
D|-------------------------55-55-55~--55-55-555-7-3--|



Chorus:
Break. Away from everybody
Break. Away from everything
If you can't stand the way this place is
Take, yourself, to higher places

G|---------------------------|--------------------------|
D|---------------------------|--------------------------|
A|-5555---------3333-33-30~--|-5555---------3333-3305~--|
D|------6-35653--------------|------6-35653-------------|


G|------------------------|--------------------------|
D|------------------------|--------------------------|
A|-------------3333-33-0--|-5555---------3333-3305~--|
D|-0000-0-3-2-------------|------6-35653-------------|



Bridge:

G|---------------------|----------------------|
D|---------------------|----------------------|
A|-55-3-5--3-55-3-5-3--|-55-3-5--1-0-------0--|
D|---------------------|-------------5-3-5----|



Solo:

G|----------------------|---------------------|
D|----------------------|---------------------|
A|-5-5-55-0--3-1---5-0--|-553-0--1-0-------0--|  [x2]
D|---------------0------|------------5-3-5----|

|--------------|------------------|
|--------------|------------------|
|-1-0-------0--|-1-0-------0--5~--|
|-----5-3-5----|-----5-3-5--------|

If you can't stand the way this place is
Take, yourself, to higher places



Chorus:
Break. Away from everybody
Break. Away from everything
If you can't stand the way this place is
Take, yourself, to higher places
Higher places
To higher places
Higher places
Take yourself to higher places

G|---------------------------|--------------------------|
D|---------------------------|--------------------------|
A|-5555---------3333-33-30~--|-5555---------3333-3305~--|
D|------6-35653--------------|------6-35653-------------|


G|------------------------|--------------------------|
D|------------------------|--------------------------|
A|-------------3333-33-0--|-5555---------3333-3305~--|
D|-0000-0-3-2-------------|------6-35653-------------|

G|---------------------------|--------------------------|
D|---------------------------|--------------------------|
A|-5555---------3333-33-30~--|-5555---------3333-3305~--|
D|------6-35653--------------|------6-35653-------------|

G|---------------------------|------------------------------|
D|---------------------------|------------------------------|
A|-5555---------3333-33-30~--|-5555---------3333-3305~------|
D|------6-35653--------------|------6-35653-------------0~--|





-------------------------------------------------------------------------------
			     WORLD SO COLD
-------------------------------------------------------------------------------

Tuning: Drop C



Intro:

F|-------------------------------------------------------|
C|-------------------------------------------------------|
G|----------------------------------------------1--------|
C|-3-0~-0-00-00-030--3-0~-0-00-00~-03-0~-0-00-00-0-0-1~--|

F|-------------------------------------------------|
C|-------------------------------------------------|
G|--------------------333----------------1--0------|
C|-30-70308070-30-7030-----030-70308070-1--1--13~--|



Verse:
I never thought I'd feel this
Guilty and I'm broken down inside
Livin' with myself
Nothing but lies
I always thought I'd make it
But never knew I'd let it get so bad
Livin' with myself is all I have

F|-------------------------------------------------------|
C|-------------------------------------------------------|
G|----------------------------------------------1--------|  [x2]
C|-3-0~-0-00-00-030--3-0~-0-00-00~-03-0~-0-00-00-0-0-1~--|



Pre-chorus:
I feel numb
I can't come to life
I feel like I'm frozen in time

F|-------------------------------------------------------------------|
C|-------------------------------------------------------------------|
G|-1-1-11-1-1-13101--------------------------------------------------|
C|-------------------0-0-00-0-0-02320--5-5-55-5-5-57535--3-3-3333-3--|



Chorus:
Livin' in a world so cold
Wasting away
Livin' in a shell with no soul
Since you've gone away
Livin' in a world so cold
Counting the days
Since you've gone away
You've gone away

F|-----------------------------------------------------------|
C|-----------------------------------------------------------|
G|-------3-33-3-3-3-3-351-11--013-5-5-5-3-33-3-3-3-3-351-11--|
C|-0-0-0---------------------5-------------------------------|

F|---------------------------------------------------------------|
C|---------------------------------------------------------------|
G|--013-5-5-5-0-00-0-00-3-3-3-3----------1111-3333-1111-3333-----|
C|-5---------------------------0-00-0000---------------------0~--|



Verse:
Do you ever feel me
Do you ever look deep down inside
Staring at yourself
Paralyzed

F|-----------------------------------------------|
C|-----------------------------------------------|
G|--------------------3~----------------1--0-----|
C|-30-70308070-30-7030----030-70308070-1--1--13--|



Pre-chorus:
I feel numb
I can't come to life
I feel like I'm frozen in time
F|-------------------------------------------------------------------|
C|-------------------------------------------------------------------|
G|-1-1-11-1-1-13101--------------------------------------------------|
C|-------------------0-0-00-0-0-02320--5-5-55-5-5-57535--3-3-3333-3--|



Chorus:
Livin' in a world so cold
Wasting away
Livin' in a shell with no soul
Since you've gone away
Livin' in a world so cold
Counting the days
Since you've gone away
You've gone away from me

F|-----------------------------------------------------------|
C|-----------------------------------------------------------|
G|-------3-33-3-3-3-3-351-11--013-5-5-5-3-33-3-3-3-3-351-11--|
C|-0-0-0---------------------5-------------------------------|

F|---------------------------------------------------------------|
C|---------------------------------------------------------------|
G|--013-5-5-5-0-00-0-00-3-3-3-3----------1111-3333-1111-3~--013--|
C|-5---------------------------0-00-0000-------------------5-----|



Bridge:
I'm too young to lose my soul
I'm too young to feel this old
For song long I'm left behind
I feel like I'm losing my mind

F|--------------------------------------------|
C|--------------------------------------------|
G|-555555-10-----------013-555555-10------3~--|
C|----------53-000000-5-------------53-000----|

F|----------------------------------------|
C|----------------------------------------|
G|--013-555555-10----------10---------3~--|
C|-5-------------53-000000---53-330~00----|



Break:
Do you ever feel me
Do you ever look deep down inside
Staring at yourself
Paralyzed



Chorus:
Livin' in a world so cold
Wasting away
Livin' in a shell with no soul
Since you've gone away
Livin' in a world so cold
Counting the days
Since you've gone away
You've gone away from me

F|-----------------------------------------------------------|
C|-----------------------------------------------------------|
G|-------3-33-3-3-3-3-351-11--013-5-5-5-3-33-3-3-3-3-351-11--|
C|-0-0-0---------------------5-------------------------------|

F|------------------------------------------------------------|
C|------------------------------------------------------------|
G|--013-5-5-5-0-00-0-00-3-3-3-3----------1111-3333-1111-3333--|
C|-5---------------------------0-00-0000----------------------|



Outro:
I'm too young
I'm too young

F|--------------------------------------------------|
C|--------------------------------------------------|
G|--------------------333---------------------3335--|
C|-30-70308070-30-7030----030-70308070-30-7030------|





-------------------------------------------------------------------------------
			     LOST IN YOU
-------------------------------------------------------------------------------

Tuning: Drop D



Intro:

G|----------------------|
D|---0------------------|
A|-0---0-4-4-4-44-4444--|
D|----------------------|



Verse:

G|-------------------------------------------|
D|---0--------------------0------------------|
A|-0---0-4-4-4-44-4444--0--------------------|  [x2]
D|--------------------------4-4-4-4-44-4444--|



Prechorus:

G|--------------------------------------------------------------------|
D|--------------------------------------------------------------------|
A|--------------------------------------------------------------------|
D|-2-2-2-2-2-2-2-4-0-0-0-0--2-2-2-2-2-2-2-4-0-0-0-0---2~-2-2-2-2-2-2--|



Chorus:

G|--------------2-2-------------------------------------|
D|-----4~-4-4-4-----0~-0-0-0-----4~-4-4-4-0-0-2~-2-2-2--|
A|-5-5-----------------------5-5------------------------|
D|------------------------------------------------------|

G|--------------2-2----------------2~--------|
D|-----4~-4-4-4-----0~-0-0-0----0~----4~-2~--|
A|-5-5---------------------------------------|
D|-------------------------------------------|



Pre-verse:

G|----------------------|
D|---0------------------|
A|-0---0-4-4-4-44-4444--|
D|----------------------|



Verse:

G|-------------------------------------------|
D|---0--------------------0------------------|
A|-0---0-4-4-4-44-4444--0--------------------|  [x2]
D|--------------------------4-4-4-4-44-4444--|



Prechorus:

G|--------------------------------------------------------------------|
D|--------------------------------------------------------------------|
A|--------------------------------------------------------------------|
D|-2-2-2-2-2-2-2-4-0-0-0-0--2-2-2-2-2-2-2-4-0-0-0-0---2~-2-2-2-2-2-2--|



Chorus:

G|--------------2-2-------------------------------------|
D|-----4~-4-4-4-----0~-0-0-0-----4~-4-4-4-0-0-2~-2-2-2--|
A|-5-5-----------------------5-5------------------------|
D|------------------------------------------------------|

G|--------------2-2-------------------2~-2-2-2-----------------------------|
D|-----4~-4-4-4-----0~-0-0-0----0-0-0----------4-4-4-2~-2-2-2--------------|
A|-5-5--------------------------------------------------------0(x8)-2(x8)--|
D|-------------------------------------------------------------------------|



Bridge:

G|----------------------------------------------------------------|
D|-4(x8)-2(x8)-4(x8)-0(x8)--4(x8)-2(x8)-4(x8)-0(x8)--2~-----------|
A|---------------------------------------------------------2(x8)--|
D|----------------------------------------------------------------|



Chorus:

G|--------------2-2-------------------------------------|
D|-----4~-4-4-4-----0~-0-0-0-----4~-4-4-4-0-0-2~-2-2-2--|
A|-5-5-----------------------5-5------------------------|
D|------------------------------------------------------|

G|--------------2-2-------------------2~-2-2-2------------------|
D|-----4~-4-4-4-----0~-0-0-0----0-0-0----------4-4-4-2~-2-2-2---|
A|-5-5----------------------------------------------------------|
D|--------------------------------------------------------------|


G|-------2~-2-2-2-----------------------2~-2-2-2---------------|
D|-0-0-0----------4-4-4-2~--2-2-2-0-0-0----------4-4-4-2~--0~--|
A|-------------------------------------------------------------|
D|-------------------------------------------------------------|





-------------------------------------------------------------------------------
			     THE GOOD LIFE
-------------------------------------------------------------------------------

Tuning: Drop D



Intro:

G|--------------------------------------------------------------------|
D|--------------------------------------------------------------------|
A|--------------------------------------------------------------------|  [x2]
D|-0-0-78-0-67-0-1~-0-0-78-0-67-0-1~-0-0-78-0-67-0-1~-0-0-650-650-3~--|



Verse:
The good life is what I need
Too many people stepping over me
The only thing that's been on my mind
The one thing I need before I die

G|--------------------------------------------------------------------|
D|--------------------------------------------------------------------|
A|--------------------------------------------------------------------|
D|-0-0-78-0-67-0-1~-0-0-78-0-67-0-1~-0-0-78-0-67-0-1~-0-0-650-650-3~--|

G|-------------------------------------------|
D|-------------------------------------------|
A|-----------------------------------1111-0--|
D|-0-0-78-0-67-0-1~-0-0-78-0-67-0-1~---------|



Chorus:
All I want is a little of the good life
All I need is to have a good time
Oh, the good life
All I want is a little of the good life
All I need is to have a good time
Oh, the good life

G|-----------------------------------------------|
D|-----------------------------------------------|
A|-----------------------------------------------|
D|-000-330555888--777-330555101010--888-8857777--|

G|------------------------------------------|
D|------------------------------------------|
A|------------------------------------------|
D|-000-330555888--777-330555101010--8888-7--|

G|--------------------------------------------------------------------|
D|--------------------------------------------------------------------|
A|--------------------------------------------------------------------|
D|-0-0-78-0-67-0-1~-0-0-78-0-67-0-1~-0-0-78-0-67-0-1~-0-0-650-650-3~--|



Verse:
I don't really know who I am
It's time for me to take a stand
I need a change and I need it fast
I know that any day could be the last

G|--------------------------------------------------------------------|
D|--------------------------------------------------------------------|
A|--------------------------------------------------------------------|
D|-0-0-78-0-67-0-1~-0-0-78-0-67-0-1~-0-0-78-0-67-0-1~-0-0-650-650-3~--|

G|-------------------------------------------|
D|-------------------------------------------|
A|-----------------------------------1111-0--|
D|-0-0-78-0-67-0-1~-0-0-78-0-67-0-1~---------|



Chorus:
All I want is a little of the good life
All I need is to have a good time
Oh, the good life
All I want is a little of the good life
All I need is to have a good time
Oh, the good life

G|-----------------------------------------------|
D|-----------------------------------------------|
A|-----------------------------------------------|
D|-000-330555888--777-330555101010--888-8857777--|

G|---------------------------------------------|
D|---------------------------------------------|
A|---------------------------------------------|
D|-000-330555888--777-330555101010--8888-7777--|



Bridge:
Hold up, hold up
I always wanted it this way
(You never wanted it this way)
Hold up, hold up
I always wanted it this way
(You didn't ask for it this way)
I always wanted it this way

G|--------------------------------------------------------------|
D|--------------------------------------------------------------|
A|--0-------0------3333-11--------0-------0------33335-11-------|
D|-0-3-23--0-32023--------32023--0-3-23--0-32023---------32023--|


G|--------------------------------------------|
D|--------------------------------------------|
A|--0-----1111111-00000~--------1111-0000000--|
D|-0-3-23-------------------------------------|



Chorus:
All I want is a little of the good life
All I need is to have a good time
Oh, the good life
All I want is a little of the good life
All I need is to have a good time
Oh, the good life

G|-----------------------------------------------|
D|-----------------------------------------------|
A|-----------------------------------------------|
D|-000-330555888--777-330555101010--888-8857777--|

G|---------------------------------------------|
D|---------------------------------------------|
A|---------------------------------------------|
D|-000-330555888--777-330555101010--8888-7777--|



Outro:

G|-----------------------------------------------------------------------|
D|-----------------------------------------------------------------------|
A|-----------------------------------------------------------------------|  
D|-0-0-78-0-67-0-1~-0-0-78-0-67-0-1~-0-0-78-0-67-0-1~-0-0-650-650-3~-00--|





-------------------------------------------------------------------------------
			     NO MORE
-------------------------------------------------------------------------------

Tuning: Drop D



Intro:

G|------------------------------------------|
D|----4---------4---------------------------|
A|-22---22-0-22---22-0----0---------0----0--|
D|---------------------00---00---00---00----|



Verse:
Give me a reason to stay here
Cause I don't wanna live in fear

G|------------------------------------------------------|
D|------------------------------------------------------|
A|-2-2-2-2-2~-22-2-22-2-22-2----------------------------|  [x2]
D|---------------------------0-0-0-0-0~-00-0-00-0-00-0--|



Pre-chorus:
I can stop the rain
But I can't stop the tears
Oh I can fight the fire
But I can't fight the fear

G|------------------------------|
D|------------------------------|
A|------------------------------|
D|-4(x16)-2(x16)-0(x16)-2(x16)--|



Chorus:
No more
I just can't live here
No more
I can't take it, can't take it
No more
What do we stand for 
When we all live in fear

G|-------------------------|        |---------------------------------|
D|-------------------------|        |---------------------------------|
A|-------------------------|  [x2]  |---------------------------------|
D|-0-0-00-0-0--4-4-44-4-4--|        |-2-2-22-2-2--2-2-22-2-2---0~-0~--|



Pre-verse:

G|------------------------------------------------------------------|
D|------------------------------------------------------------------|
A|------------------------------------------------------------------|
D|-4-4-44-4-44-44--4-4-44-4-44-44---0-0-00-0-00-00--0-0-00-0-00-00--|



Verse:
Give me a reason to believe
Cause you don't wanna see me leave

G|------------------------------------------------------|
D|------------------------------------------------------|
A|-2-2-2-2-2~-22-2-22-2-22-2----------------------------|  [x2]
D|---------------------------0-0-0-0-0~-00-0-00-0-00-0--|



Pre-chorus:
I can stop the rain
But I can't stop the tears
Oh I can fight the fire
But I can't fight the fear

G|------------------------------|
D|------------------------------|
A|------------------------------|
D|-4(x16)-2(x16)-0(x16)-2(x16)--|



Chorus:
No more
I just can't live here
No more
I can't take it, can't take it
No more
What do we stand for 
When we all live in fear

G|-------------------------|        |---------------------------------|
D|-------------------------|        |---------------------------------|
A|-------------------------|  [x2]  |---------------------------------|
D|-0-0-00-0-0--4-4-44-4-4--|        |-2-2-22-2-2--2-2-22-2-2---0~-0~--|



Bridge:

G|-----------------------------------------------------------------|
D|-----------------------------------------------------------------|
A|-----------------------------00------------------------------00--|
D|-4-4-44-4-44-44--4-4-44-4-44-----2-2-22-2-22-22--2-2-22-2-22-----|

G|-------------------------------------------------------------------|
D|-------------------------------------------------------------------|
A|-----------------------------00------------------------------0000--|
D|-4-4-44-4-44-44--4-4-44-4-44-----2-2-22-2-22-22--2-2-22-2-22-------|



Chorus:
No more
I just can't live here
No more
I can't take it, can't take it
No more
What do we stand for 
When we all live in fear

G|-----------------------------------------|
D|-----------------------------------------|
A|-----------------------------------------|
D|-0~--4-4-44-4-4--0-0-00-0-0--4-4-44-4-4--|

G|---------------------------------|
D|---------------------------------|
A|---------------------------------|
D|-2-2-22-2-2--2-2-22-2-2---0~-0~--|





-------------------------------------------------------------------------------
			     LAST TO KNOW
-------------------------------------------------------------------------------

Tuning: Standard




1:59
G|------------------------------|
D|-3(x16)--------3(x12)-2-3-2~--|
A|--------0(x16)----------------|
E|------------------------------|



Chorus:

I'll be the first to say
That now I'm okay
And for the first time
I've opened up my eyes

G|---------------------------------------------------------|
D|-------2(x10)--0(x6)-2(x10)--2(x6)-2(x10)--0(x6)-2(x10)--|
A|-2(x6)---------------------------------------------------|
E|---------------------------------------------------------|


This was my worst love
You'll be the first to go
And when she leaves you for dead
You'll be the last to know


G|-------4(x10)----------------------4(x10)----------------|
D|-2(x6)---------0(x6)-2(x10)--2(x6)---------0(x6)-2(x10)--|
A|---------------------------------------------------------|
E|---------------------------------------------------------|


I'll be the first to say
That now I'm okay
And for the first time
I've opened up my eyes


G|---------------------------------------------------------|
D|-------2(x10)--0(x6)-2(x10)--2(x6)-2(x10)--0(x6)-2(x10)--|
A|-2(x6)---------------------------------------------------|
E|---------------------------------------------------------|


This was my worst love
You'll be the first to go

G|-------4(x10)----------------|
D|-2(x6)---------0(x6)-2(x10)--|
A|-----------------------------|
E|-----------------------------|



And when she leaves you for dead
You'll be the last to know





-------------------------------------------------------------------------------
			     SOMEONE WHO CARES
-------------------------------------------------------------------------------

Tuning: Drop C



Intro:

F|---------------|        |----------|
C|---55----------|        |---55-----|
G|-------88---6--|  [x2]  |-------6--|
C|-35--35--355---|        |-35---3---|



Verse:
Every street in this city
Is the same to me
Everyone's got a place to be
But there's no room for me

F|-----------------|
C|-----------------|
G|-----------------|
C|-5~-0~-8~-7~-0~--|


Am I to blame
When the guilt and the shame hang over me
Like a dark cloud
That chases you down in the pouring rain

F|------------------------------------------------------------------------|
C|------------------------------------------------------------------------|
G|----------------------------------------------------------------3(x16)--|
C|-55-5--5-5-5-55-5-7-8-00-0--0-0-0-00-0000-3333-0000-8(x8)-7(x8)---------|



Chorus:
It's so hard to find someone who cares about you
But it's easy enough to find someone who looks down on you

F|----------------------------------------|
C|----------------------------------------|
G|-------3(x8)-5(x16)-------3(x8)-5(x13)--|
C|-2(x8)--------------2(x8)---------------|


Why is it so hard to find someone who cares about you
When it's easy enough to find someone who looks down on you

F|---------------------------------------------|
C|---------------------------------------------|
G|-------3(x8)-5(x12)---32-------3(x8)-5(x16)--|
C|-2(x8)--------------54---2(x8)---------------|



Verse:
It's not what it seems
When you're not on the scene
There's a chill in the air
But there's people like me
That nobody sees, so nobody cares

F|-----------------------------------------------------------------------|
C|-----------------------------------------------------------------------|
G|----------------------------------------------------------------3(x8)--|
C|-55-5--5-5-5-55-5-7-8-00-0--0-0-0-00-0000-3333-0000-8(x8)-7(x8)--------|



Chorus:
Why is it so hard to find someone who cares about you
When it's easy enough to find someone who looks down on you
Why is it so hard to find someone who can keep it together
When you've come undone
Why is it so hard to find someone who cares about you

F|--------------------------------------------------|
C|--------------------------------------------------|
G|-------3(x8)-5(x12)---32-------3(x8)-5(x12)---32--|
C|-2(x8)--------------54---2(x8)--------------54----|

F|-------------------------------------------------------|
C|-------------------------------------------------------|
G|-------3(x8)-5(x12)---32-------3(x8)-5(x12)---32-------|
C|-2(x8)--------------54---2(x8)--------------54----5\2--|



Bridge:

F|-------------------------------------------------------------------|
C|-------------------------------------------------------------------|
G|-------------------------------------------------------------------|
C|-02022-02022022--02022-02022022--02020-02020-020--02020-02020-020--|

F|---------------------------------------------------------------------|
C|---------------------------------------------------------------------|
G|-----3-----3---3-------5-----5---5-----------------------------------|
C|-0202--0202--02----0202--0202--02----02022-0202202~--02022-0202202~--|


I swear this time it won't turn out
The same cause now I've got myself to blame
And you'll know where we'll end up
On the streets 
That is easy enough
To find someone who looks down on you

F|-------------------------------------------------------------------|
C|-------------------------------------------------------------------|
G|-------------------------------------------------------------------|
C|-02022-02022022--02022-02022022--02020-02020-020--02020-02020-020--|

F|---------------------------------------------|
C|---------------------------------------------|
G|-----3-----3---3-------5-----5---5---0(x13)--|
C|-0202--0202--02----0202--0202--02------------|



Chorus:
Why is it so hard to find someone who cares about you
When it's easy enough to find someone who looks down on you
Why is it so hard to find someone who can keep it together
When you've come undone
Why is it so hard to find someone who cares about you

F|----------------------------------------------------|
C|----------------------------------------------------|
G|-------6(x8)-8(x12)---65---------6(x8)-8(x12)---65--|
C|-5(x8)--------------87-----5(x8)--------------87----|


F|----------------------------------------------|
C|----------------------------------------------|
G|-------6(x8)-8(x12)---65---------6(x8)-8(x9)--|
C|-5(x8)--------------87-----5(x8)--------------|



Outro:

F|-------------------------|
C|---55-------------55-----|
G|-------88---6---------6--|
C|-35--35--355----35---3---|





-------------------------------------------------------------------------------
			     BULLY
-------------------------------------------------------------------------------

Tuning: Drop C



Intro:

F|------------------------------------------------------------------------|
C|------------------------------------------------------------------------|
G|------------------------------------------------------------------------|
C|-4-3-3-0-0-0-0-0-0-4-3-3-0-0-0-0-4\-4-3-3-0-0-0-0-0-0-4-3-3-0-0-0-0-4\--|



Verse:
He wakes up haunted
With voices in his head
Nobody knows it but today he won't go unnoticed
He can't forget, can't forgive for what they said
He's never been so hurt
But today the screaming is over

F|-----------------------------------------------------------------------|
C|-----------------------------------------------------------------------|
G|-------------------------------------------------------3-3-33----------|
C|-4-3-3-0-0-0-0-000-4-3-3-0-0-0-0-4\-4-3-3-0-0-0-0-000---------5-5-5-5--|

F|-----------------------------------------------------------------------|
C|-----------------------------------------------------------------------|
G|-------------------------------------------------------3-3-33----------|
C|-4-3-3-0-0-0-0-000-4-3-3-0-0-0-0-4\-4-3-3-0-0-0-0-000---------5-5-5-5--|



Chorus:
Blame the family
Blame the bully
Blame it all on me
Maybe he needed to be wanted
Blame the family
Blame the bully
Maybe he needed to be wanted

F|--------------------------------------------------------------------------|
C|--------------------------------------------------------------------------|
G|--------------------------------------------------------------------------|
C|-3-5-6-5-3-1-3-1-0-0-0-0-3-5-6-5-3-1-3-1-0-0-0-0-3-5-6-5-3-1-3-1-0-0-0-0--|

F|----------------------------------------------------------------------------|
C|----------------------------------------------------------------------------|
G|-3-3-33------------------------------------------------------3-3-33---------|
C|--------5555-3-5-6-5-3-1-3-1-0-0-0-0-3-5-6-5-3-1-3-1-0-0-0-0--------5-5-5-5-|



Pre-verse:

F|-------------------------------------|
C|-------------------------------------|
G|-------------------------------------|
C|-4-3-3-0-0-0-0-0-0-4-3-3-0-0-0-0-4\--|



Verse:
She takes the long way home
Fighting her emotions
She's a loner but today she won't go unnoticed
If she can remember
When she loses her temper
Nobody knows her but today the silence is over

F|-----------------------------------------------------------------------|
C|-----------------------------------------------------------------------|
G|-------------------------------------------------------3-3-33----------|
C|-4-3-3-0-0-0-0-000-4-3-3-0-0-0-0-4\-4-3-3-0-0-0-0-000---------5-5-5-5--|

F|-----------------------------------------------------------------------|
C|-----------------------------------------------------------------------|
G|-------------------------------------------------------3-3-33----------|
C|-4-3-3-0-0-0-0-000-4-3-3-0-0-0-0-4\-4-3-3-0-0-0-0-000---------5-5-5-5--|



Chorus:
Blame the family
Blame the bully
Blame it all on me
Maybe she needed to be wanted
Blame the family
Blame the bully
Blame it all on me
Maybe she needed to be wanted

F|--------------------------------------------------------------------------|
C|--------------------------------------------------------------------------|
G|--------------------------------------------------------------------------|
C|-3-5-6-5-3-1-3-1-0-0-0-0-3-5-6-5-3-1-3-1-0-0-0-0-3-5-6-5-3-1-3-1-0-0-0-0--|

F|--------------|
C|--------------|
G|-3-3-33-------|
C|--------5555--|

F|--------------------------------------------------------------------------|
C|--------------------------------------------------------------------------|
G|--------------------------------------------------------------------------|
C|-3-5-6-5-3-1-3-1-0-0-0-0-3-5-6-5-3-1-3-1-0-0-0-0-3-5-6-5-3-1-3-1-0-0-0-0--|

F|--------------|
C|--------------|
G|-3-3-33-------|
C|--------5555--|



Bridge:
Blame the family
Blame the bully
Blame it all on me
Maybe they needed

F|------------------------------|
C|------------------------------|
G|------------------------------|
C|-0~--0~--0~--0-0-0-0-0-0-0-0--|

F|--------------------------|        |----------|
C|--------------------------|        |----------|
G|--------------------------|  [x9]  |-3-3-3-3--|
C|-0-0-5-3-0-1-0-0-3-1-0-1--|        |----------|



Chorus:
Blame the family
Blame the bully
Blame it all on me
Maybe they needed to be wanted
Blame the family
Blame the bully
Blame it all on me
Maybe they needed to be wanted

F|--------------------------------------------------------------------------|
C|--------------------------------------------------------------------------|
G|--------------------------------------------------------------------------|
C|-3-5-6-5-3-1-3-1-0-0-0-0-3-5-6-5-3-1-3-1-0-0-0-0-3-5-6-5-3-1-3-1-0-0-0-0--|

F|--------------|
C|--------------|
G|-3-3-33-------|
C|--------5555--|

F|--------------------------------------------------------------------------|
C|--------------------------------------------------------------------------|
G|--------------------------------------------------------------------------|
C|-3-5-6-5-3-1-3-1-0-0-0-0-3-5-6-5-3-1-3-1-0-0-0-0-3-5-6-5-3-1-3-1-0-0-0-0--|

F|--------------|
C|--------------|
G|-3-3-33-------|
C|--------5555--|



Outro:
Wanted

F|-------------------------------------|
C|-------------------------------------|
G|-------------------------------------|
C|-4-3-3-0-0-0-0-0-0-4-3-3-0-0-0-0-4\--|





-------------------------------------------------------------------------------
			     WITHOUT YOU
-------------------------------------------------------------------------------

Tuning: Drop D



Intro:

G|-----------------------------|
D|-----------------------------|
A|-222222-555555---------------|  [x2]
D|---------------555555555555--|



Verse:
What if I walked without you
What if I ran without you
What if I stand without you
I could not go on
What if I lived without you
What if I loved without you
What if I died without you
I could not go on

G|--------------------------------------------------------|
D|--------------------------------------------------------|
A|-222222-555555--------------222222-555555---------------|
D|---------------555555555555---------------555555555555--|

G|--------------------------------------------------------|
D|--------------------------------------------------------|
A|-000000-222222--------------000000-222222---------------|
D|---------------555555555555---------------555555555555--|

G|--------------------------------------------------------|
D|--------------------------------------------------------|
A|-222222-555555--------------222222-555555---------------|
D|---------------555555555555---------------555555555555--|

G|----------------------------------------------------|
D|----------------------------------------------------|
A|-000000-222222--------------000000-22222222---------|
D|---------------555555555555-----------------5(x16)--|



Chorus:
You left my side tonight
And I, I just don't feel right
But I, I can't let you out of sight
Without you I'm no one, I'm nothing at all

G|------------------------------------------------------|
D|------------------------------------------------------|
A|-3(x16)--------------------3(x16)---------------------|
D|--------0000-7777-5555-454--------0000-7777-5555-454--|

G|--------------------------------------------------|
D|--------------------------------------------------|
A|-3(x12)-2222--------------------------------------|
D|-------------0000-7777-5555-454---4(x8)-2-2-2-2~--|



Pre-verse:

G|-----------------------------|
D|-----------------------------|
A|-222222-555555---------------|  [x2]
D|---------------555555555555--|



Verse:
What if I lie without you
What if I rise without you
And what if I dream without you
I could not go on

G|--------------------------------------------------------|
D|--------------------------------------------------------|
A|-222222-555555--------------222222-555555---------------|
D|---------------555555555555---------------555555555555--|

G|----------------------------------------------------|
D|----------------------------------------------------|
A|-000000-222222--------------000000-22222222---------|
D|---------------555555555555-----------------5(x16)--|



Chorus:
You left my side tonight
And I, I just don't feel right
But I, I can't let you out of sight
Without you I'm no one, I'm nothing at all

G|------------------------------------------------------|
D|------------------------------------------------------|
A|-3(x16)--------------------3(x16)---------------------|
D|--------0000-7777-5555-454--------0000-7777-5555-454--|

G|--------------------------------------------------|
D|--------------------------------------------------|
A|-3(x12)-2222----------------------2(x8)-0-0-0-0~--|
D|-------------0000-7777-5555-454-------------------|



Bridge:

G|-----------------------------------------------------|
D|-----------------------------------------------------|
A|-5-5-55-3-2-3~-3-3-33---------5~---------------------|
D|----------------------3-3--55----55-7-8--8-7--7-7-7--|

G|-----------------------------------------------|
D|-----------------------------------------------|
A|-5-5-55-3-2-3~-3-3-33---------5~---------------|
D|----------------------3-3--55----55-7-8--8-7~--|



Break:
You left my side tonight
And I, I just don't feel right
But I, I can't let you out of sight



Chorus:
Without you I'm no one, I'm nothing at all
You left my side tonight
And I, I just don't feel right
But I, I can't let you out of sight
Without you I'm no one, I'm nothing at all, nothing at all

G|-------------------------------------------------------------------|
D|-------------------------------------------------------------------|
A|--------------3(x16)--------------------3(x16)---------------------|
D|-4(x8)-2(x8)---------0000-7777-5555-454--------0000-7777-5555-454--|


G|------------------------------------------------------------------------|
D|------------------------------------------------------------------------|
A|-3(x12)-2222----------------------2(x8)-0-0-0-0~-0-0-0--2(x8)-0-0-0-0~--|
D|-------------0000-7777-5555-454-----------------------------------------|





-------------------------------------------------------------------------------
			     GOIN' DOWN
-------------------------------------------------------------------------------

Tuning: Drop D



Intro:

G|------------------------------------|
D|------------------------------------|
A|---------------3--------------------|
D|-77777775777757-5-777777757777771~--|



Verse:
Took me down to the river
So I could drown, drown, drown
Looking up through the water
I kept sinking down, down, down
I feel like I'm dying
I got one foot in the ground
Never knew where the love was
Until you came round

G|-----------------------------------------------------|
D|-----------------------------------------------------|
A|-0(x20)-3(x4)-0(x7)----0(x16)-3(x4)-2(x4)-0000--03---|
D|--------------------5--------------------------5--5--|

G|---------------------------------------------|
D|---------------------------------------------|
A|-0(x20)-3(x4)-0(x7)----0(x14)----------------|
D|--------------------5---------5-3-3(x8)-3-3--|



Chorus:
You're goin' down
You're goin' down, down
You walk all over me
You never thought I'd be
The one who's laughing now
Now that you're goin' down
G|---------------------------------------------|
D|---------------------------------------------|
A|-5---------------------5---------------------|
D|--0-0-30-0-67-60-30-0---0-0-30-0-67-60-30-0--|

G|---------------------------------|
D|---------------------------------|
A|-5-------------------------3333--|
D|--0-0-30-0-67-60-30-0-3333-------|



Pre-verse:

G|------------------------------------|
D|------------------------------------|
A|---------------3--------------------|
D|-77777775777757-5-777777757777771~--|



Verse:
Take you down to the basement
You look around, round, round
We sit there in silence
I watch you going down, down, down
I feel like I'm flying
I got my head in the clouds
Never thought I was crazy
Until you came around

G|-----------------------------------------------------|
D|-----------------------------------------------------|
A|-0(x20)-3(x4)-0(x7)----0(x16)-3(x4)-2(x4)-0000--03---|
D|--------------------5--------------------------5--5--|

G|---------------------------------------------|
D|---------------------------------------------|
A|-0(x20)-3(x4)-0(x7)----0(x14)----------------|
D|--------------------5---------5-3-3(x8)-3-3--|



Chorus:
You're goin' down
You're goin' down, down
You walk all over me
You never thought I'd be
The one who's laughing now
Now that you're goin' down
You're goin' down, down
You walk all over me
You never thought I'd be
The one who's laughing now
Now that you're goin' down

G|---------------------------------------------|
D|---------------------------------------------|
A|-5---------------------5---------------------|
D|--0-0-30-0-67-60-30-0---0-0-30-0-67-60-30-0--|

G|---------------------------------|
D|---------------------------------|
A|-5-------------------------3333--|
D|--0-0-30-0-67-60-30-0-3333-------|

G|---------------------------------------------|
D|---------------------------------------------|
A|-5---------------------5---------------------|
D|--0-0-30-0-67-60-30-0---0-0-30-0-67-60-30-0--|

G|-----------------------------------------|
D|-----------------------------------------|
A|-5-----------------------------33333333--|
D|--0-0-30-0-67-60-30-0-33333333-----------|


G|-------------------------------------------|
D|-------------------------------------------|
A|---5---0---3------------5---0---3---3-365--|
D|-0---0---0---0-5-555--0---0---0---0--------|

G|------------------------------------------|
D|------------------------------------------|
A|---5---0---3------------5---0---33333333--|
D|-0---0---0---0-5-555--0---0---0-----------|



Break:
Took me down to the river
So I could drown, drown, drown



Chorus:
You're goin' down
You're goin' down, down
You walk all over me
You never thought I'd be
The one who's laughing now
Now that you're goin' down
You're goin' down, down
You walk all over me
You never thought I'd be
The one who's laughing now
Now that you're goin' down

G|---------------------------------------------------|
D|---------------------------------------------------|
A|-5555--5---------------------5---------------------|
D|--------0-0-30-0-67-60-30-0---0-0-30-0-67-60-30-0--|

G|-----------------------------------------|
D|-----------------------------------------|
A|-5-----------------------------33333333--|
D|--0-0-30-0-67-60-30-0-33333333-----------|

G|---------------------------------------------|
D|---------------------------------------------|
A|-5---------------------5---------------------|
D|--0-0-30-0-67-60-30-0---0-0-30-0-67-60-30-0--|

G|-------------------------------------|
D|-------------------------------------|
A|-5-------------------------33333333--|
D|--0-0-30-0-67-60-30-0-3333-----------|





-------------------------------------------------------------------------------
			     LIFE STARTS NOW
-------------------------------------------------------------------------------

Tuning: Drop D



Verse:
You say you feel so down
Every time I turn around
You say you should've been gone by now
And you think everything's wrong
You ask me how to carry on
We'll make it through another day, just hold on

G|--------------------------------------------|
D|--------------------------------------------|
A|-0-0-00-0-0--3-3-33-3-3-5-5-55-5-5-8-88-7~--|
D|--------------------------------------------|

G|---------------------------------------------|
D|---------------------------------------------|
A|-0-0-00-0-0--3-3-33-3-3-5-5-55-5-5-8-108-7~--|
D|---------------------------------------------|

G|--------------------------------------------|
D|--------------------------------------------|
A|-0-0-00-0-0--3-3-33-3-3-5-5-55-5-5-8-88-7~--|
D|--------------------------------------------|

G|--------------------------------------------|
D|--------------------------------------------|
A|-0-0-00-0-0--3-3-33-3-3-5-5-55-5-5-8-88-7~--|
D|--------------------------------------------|



Chorus:
Cause life starts now
You've done all the things that you could kill you somehow
And you're so far down
But you will survive it somehow
Because life starts now

G|-------------------------------------------------------------------|
D|-------------------------------------------------------------------|
A|-0-00-2-22-3-33-3-3-3--0-00-3-33-5-55-8-8-88-0-00------------------|
D|--------------------------------------------------5-55-3-33-3-3-3--|

G|-------------------|
D|-------------------|
A|-0-00-1-11-3~--0~--|
D|-------------------|



Verse:
I hate to see you fall down
I'll pick you up off the ground
I've watched the weight of your world come down
And now it's your chance to move on 
Change the way you've lived for so long
You find the strength you've had inside all along

G|--------------------------------------------|
D|--------------------------------------------|
A|-0-0-00-0-0--3-3-33-3-3-5-5-55-5-5-8-88-7~--|
D|--------------------------------------------|

G|---------------------------------------------|
D|---------------------------------------------|
A|-0-0-00-0-0--3-3-33-3-3-5-5-55-5-5-8-108-7~--|
D|---------------------------------------------|

G|--------------------------------------------|
D|--------------------------------------------|
A|-0-0-00-0-0--3-3-33-3-3-5-5-55-5-5-8-88-7~--|
D|--------------------------------------------|

G|--------------------------------------------|
D|--------------------------------------------|
A|-0-0-00-0-0--3-3-33-3-3-5-5-55-5-5-8-88-7~--|
D|--------------------------------------------|



Chorus:
Cause life starts now
You've done all the things that you could kill you somehow
And you're so far down
But you will survive it somehow
Because life starts now

G|-------------------------------------------------------------------|
D|-------------------------------------------------------------------|
A|-0-00-2-22-3-33-3-3-3--0-00-3-33-5-55-8-8-88-0-00------------------|
D|--------------------------------------------------5-55-3-33-3-3-3--|

G|-----------------------|
D|-----------------------|
A|-0-00-1-11-3-33-3-3-3--|
D|-----------------------|



Bridge:
All this pain
Take this life and make it yours
All this hate
Take your heart and let it love again
You will survive it somehow

G|------------------------------------------|
D|-------------------------------5-55-5-55--|
A|-5-55-5-55-8-88-8-88-3-33-3-33------------|
D|------------------------------------------|

G|------------------------------------------|
D|-------------------------------5-55-5-55--|
A|-5-55-5-55-8-88-8-88-3-33-3-33------------|
D|------------------------------------------|

G|--------------------------------|
D|--------------------------------|
A|-5-55-5-55-8-88-8-88-3-33-3-33--|
D|--------------------------------|



Break: 
Life starts now



Chorus:
You've done all the things that you could kill you somehow
And you're so far down
Life starts now
You've done all the things that you could kill you somehow
And you're so far down
Life starts now

G|-------------------------------------------------------------------------|
D|-------------------------------------------------------------------------|
A|------------2-22-2-2-2-5-55-5-5-5-0-00-0-0-0-------------2~--------------|
D|-5-55-5-5-5----------------------------------5-55-5-5-5----4~-5-55-5-5-5-|

G|---------------------------------------------------------|
D|---------------------------------------------------------|
A|-2-22-2-2-2-5-55-5-5-5-0-00-0-0-0--------------2~-0~-----|
D|-----------------------------------5-55-5-5-5--------5~--|





===============================================================================
comments
print report bad tab
I want to post or [tab]
guest
You may want to rate the tab now too:
select rating
Please do not post tabs as comments. Select "correction" instead!