Oops, an error
Loading. Please wait.

Life Starts Now Tab

ver1
ver1

Album

Whole song

Interactive

More versions @911Tabs.com
28,699 views 30 this week
1 commentread comment
1 2 3 4 5
excellent!
x 10
Autoscroll
+/-
esc
set tempo
stop
Contributor
Hey! There's an official Ultimate Guitar app which is ideal
for learning songs when you're away from computer. Get the app
WARNING: You are trying to view
                                    content from Ultimate-Guitar.com
                                    in an unauthorized application,
                                    which is prohibited.

                                    Please use an official Ultimate
                                    Guitar Tabs application for iPhone,
                                    iPad or Android to access legitimate
                                    chords, guitar, bass, and drum tabs
                                    from Ultimate-Guitar.com database.

                                    Type "ultimate guitar tabs" in Apple
                                    App Store's or Android Market's
                                    search to find the application.
I Don't take credit for these songs, just for putting them into an album tab.

Three Days Grace
Life Starts Now (album)

Tab Credits

01. Bitter Taste: shredforever
02. Break: U B the band
03. World So Cold: U B the band
04. Lost In You: Unregistered
05. The Good Life: U B the band
06. No More: Estelrock
07. Last To Know: mariewong
08. Someone Who Cares: Joshua Garcia
09. Bully: corbz
10. Without You: TheThirdDay
11. Goin' Down: U B the band
12. Life Starts Now: U B the band





_____________________________________________________________________________
01. Bitter Taste_____________________________________________________________


Artist: Three Days Grace
Song: Bitter Taste

awesome new song from Life Starts Now album
This song is in drop D

Im excited to say this is my first tab, but don't worry its still good. Couldn't figure 
the solo but i got the rest of the song so enjoy.

woot!! first to post the guitar tab for this song

Intro: x2
E|----------------------------------------------|
B|----------------------------------------------|
G|----------------------------------------------|
D|-5-5-5-3-5-6-5-----5-5-5-3-5-6-5-3--1----8----|
A|-5-5-5-3-5-6-5-----5-5-5-3-5-6-5-3--1----8----|
D|-5-5-5-3-5-6-5-----5-5-5-3-5-6-5-3--1----8----|

Verse: x3
E|----------------------------------------------|
B|----------------------------------------------|
G|----------------------------------------------|
D|------------------------------------1----8----|
A|------------------------------------1----8----|
D|-5-5-5-3-5-6-5-----5-5-5-3-5-6-5-3--1----8----|

Pre-chorus: x2
E|----------------------------|    |----------------------------------|
B|-8--6--4--3-1-3-4---6-3-----|    |----------------------------------|
G|----------------------------| or |----------------------------------|
D|----------------------------|    |-17--15--13--12-10-12-13---15-12--|
A|----------------------------|    |----------------------------------|
D|----------------------------|    |----------------------------------|

Chorus: x2
E|---------------------------|
B|---------------------------|
G|---------------------------|
D|-10--8--6--5----6---8------|
A|-10--8--6--5----6---8------|
D|-10--8--6--5----6---8------|

Chorus part 2:
E|---------------------------------------|
B|---------------------------------------|
G|-13--12--------------------------------|
D|-11--11--15------3---3-3-3--3-3--3-3-3-|
A|-11--11--11------3---3-3-3--3-3--3-3-3-|
D|-11--11--11------3---3-3-3--3-3--3-3-3-|
   ^eleven

E|---------------------------------------|
B|---------------------------------------|
G|---------------------------------------|
D|-11--11--15------3---3-3-3--3-3--3-3-3-|
A|-11--11--11------3---3-3-3--3-3--3-3-3-|
D|-11--11--11------3---3-3-3--3-3--3-3-3-|

Intro: x1
E|----------------------------------------------|
B|----------------------------------------------|
G|----------------------------------------------|
D|-5-5-5-3-5-6-5-----5-5-5-3-5-6-5-3--1----8----|
A|-5-5-5-3-5-6-5-----5-5-5-3-5-6-5-3--1----8----|
D|-5-5-5-3-5-6-5-----5-5-5-3-5-6-5-3--1----8----|

Verse: x3
E|----------------------------------------------|
B|----------------------------------------------|
G|----------------------------------------------|
D|------------------------------------1----8----|
A|------------------------------------1----8----|
D|-5-5-5-3-5-6-5-----5-5-5-3-5-6-5-3--1----8----|





Pre-chorus: x2
E|----------------------------|    |----------------------------------|
B|-8--6--4--3-1-3-4---6-3-----|    |----------------------------------|
G|----------------------------| or |----------------------------------|
D|----------------------------|    |-17--15--13--12-10-12-13---15-12--|
A|----------------------------|    |----------------------------------|
D|----------------------------|    |----------------------------------|

Chorus part 2:
E|---------------------------------------|
B|---------------------------------------|
G|-13--12--------------------------------|
D|-11--11--15------3---3-3-3--3-3--3-3-3-|
A|-11--11--11------3---3-3-3--3-3--3-3-3-|
D|-11--11--11------3---3-3-3--3-3--3-3-3-|
   ^eleven

E|---------------------------------------|
B|---------------------------------------|
G|---------------------------------------|
D|-11--11--15------3---3-3-3--3-3--3-3-3-|
A|-11--11--11------3---3-3-3--3-3--3-3-3-|
D|-11--11--11------3---3-3-3--3-3--3-3-3-|


Outro:
E|-----------------------------------------------------|
B|-----------------------------------------------------|
G|-----------------------------------------------------|
D|-5-5-5-3-5-6-5-----10-10-10-8-10-11-10-8--6----13----|
A|-5-5-5-3-5-6-5-----10-10-10-8-10-11-10-8--6----13----|
D|-5-5-5-3-5-6-5-----10-10-10-8-10-11-10-8--6----13----|

E|-----------------------------------------------------------|
B|-----------------------------------------------------------|
G|-----------------------------------------------------------|
D|-10-10-10-8-10-11-10-----10-10-10-8-10-11-10-8--6----13----|
A|-10-10-10-8-10-11-10-----10-10-10-8-10-11-10-8--6----13----|
D|-10-10-10-8-10-11-10-----10-10-10-8-10-11-10-8--6----13----|


And thats pretty much it other than the solo but i hope to have it up soon so hope you 
my tab.


_____________________________________________________________________________
02. Break____________________________________________________________________



Artist: Three Days Grace
Song: Break

Three Days Grace                UPDATED 11/26/2009
Break
Tabbed by U B the band
Tuning D A D G B e

Legend
v-vibrato                    /-slide up                 x-muted strum
h-hammer on                  b-bend                     r-return (bend)

Intro: Guitar 1 (Distorted) BARRY
e|------------------------------------------------------------------------|
B|--15v-------------------------------------------------------------------|
G|------------------------------------------------------------------------|
D|------------------------------------------------------------------------|
A|------------------------------------------------------------------------|
D|------------------------------------------------------------------------|

Intro: Guitar 2 (Distorted) ADAM
e|------------------------------------------------------------------------|
B|------------------------------------------------------------------------|
G|------------------------------------------------------------------------|
D|--0-0--0-0--3--5--/7--\5---3-----10---10---x-x---10---x-x---7-----------|
A|--0-0--0-0--3--5--/7--\5---3-----10---10---x-x---10---x-x---7-----------|
D|--0-0--0-0--3--5--/7--\5---3-----10---10---x-x---10---x-x---7-----------|

Intro: Guitar 1 (Distorted)
e|------------------------------------------------------------------------|
B|------------------------------------------------------------------------|
G|--10-------9---------------------10-------9-----------------------------|
D|------------------10--\7-------------------------10---/12---------------|
A|------------------------------------------------------------------------|
D|------------------------------------------------------------------------|
                                                                          |
Intro: Guitar 2 (Distorted)                                               |
e|------------------------------------------------------------------------|
B|------------------------------------------------------------------------|
G|------------------------------------------------------------7-----------|
D|--0-0--0-0--3--5--/7--\5---3-----10---10---x-x---10----7----7-----------|
A|--0-0--0-0--3--5--/7--\5---3-----10---10---x-x---10----7----5-----------|
D|--0-0--0-0--3--5--/7--\5---3-----10---10---x-x---10----7----------------|

Verse 1: Guitars 1 & 2 (Distorted)
e|------------------------------------------------------------------------|
B|------------------------------------------------------------------------|
G|------------------------------------------------------------------------|
D|--------------------------------------------------8--7--5--3--5--7------|
A|--------------------------------------------------8--7--5--3--5--7------|
D|--------------------------------------------------8--7--5--3--5--7------|

Verse 1: Guitars 1 & 2 (Distorted)
e|------------------------------------------------------------------------|
B|------------------------------------------------------------------------|
G|------------------------------------------------------------------------|
D|--------------------------------------------------8--7--5--3--5--7------|
A|--------------------------------------------------8--7--5--3--5--7------|
D|--------------------------------------------------8--7--5--3--5--7------|

Pre-Chorus: Guitar 1 (Distorted)
e|------------------------------------------------------------------------|
B|------------------------------------------------------------------------|
G|--7-----------7-7-7-7---7----/10---7---------7-7-7-7---7----/12---------|
D|--x-----------x-x-x-x---x------x---x---------x-x-x-x---x------x---------|
A|--5-----------5-5-5-5---5----/-8---5---------5-5-5-5---5----/10---------|
D|------------------------------------------------------------------------|
                                                                          |
Pre-Chorus: Guitar 2 (Distorted)                                          |
e|------------------------------------------------------------------------|
B|------------------------------------------------------------------------|
G|------------------------------------------------------------------------|
D|--8--------------------------------5------------------------------------|
A|--8--------------------------------5------------------------------------|
D|--8--------------------------------5------------------------------------|

Chorus: Guitar 2 (Distorted)


e|------------------------------------------------------------------------|
B|------------------------------------------------------------------------|
G|------------------------------------------------------------------------|
D|--0-0--0-0--3--5--/7--\5---3-----10---10---x-x---10---x-x---7-----------|
A|--0-0--0-0--3--5--/7--\5---3-----10---10---x-x---10---x-x---7-----------|
D|--0-0--0-0--3--5--/7--\5---3-----10---10---x-x---10---x-x---7-----------|

Chorus: Guitar 2 (Distorted)
e|------------------------------------------------------------------------|
B|------------------------------------------------------------------------|
G|------------------------------------------------------------7-----------|
D|--0-0--0-0--3--5--/7--\5---3-----10---10---x-x---10----7----7-----------|
A|--0-0--0-0--3--5--/7--\5---3-----10---10---x-x---10----7----5-----------|
D|--0-0--0-0--3--5--/7--\5---3-----10---10---x-x---10----7----------------|

Chorus: Guitar 2 (Distorted)
e|------------------------------------------------------------------------|
B|------------------------------------------------------------------------|
G|------------------------------------------------------------------------|
D|--0-0--0-0------10---10----------10---10---x-x---10---x-x---7-----------|
A|--0-0--0-0--0----8----7----------10---10---x-x---10---x-x---7-----------|
D|--0-0--0-0--0--------------------10---10---x-x---10---x-x---7-----------|

Chorus: Guitar 2 (Distorted)
e|------------------------------------------------------------------------|
B|------------------------------------------------------------------------|
G|------------------------------------------------------------7-----------|
D|--0-0--0-0--3--5--/7--\5---3-----10---10---x-x---10----7----7-----------|
A|--0-0--0-0--3--5--/7--\5---3-----10---10---x-x---10----7----5-----------|
D|--0-0--0-0--3--5--/7--\5---3-----10---10---x-x---10----7----------------|

Post Chorus: Guitar 1 (Clean with reverb)
e|------------------------------------------------------------------------|
B|---------------------5---b6--r5------------------------6----5-----------|
G|---------------------7---------------------------------7----------------|
D|------------------------------------------------------------------------|
A|------------------------------------------------------------------------|
D|------------------------------------------------------------------------|
                                                                          |
Post Chorus: Guitar 2 (Distorted)                                         |
e|------------------------------------------------------------------------|
B|------------------------------------------------------------------------|
G|------------------------------------------------------------------------|
D|------------------------------------------------------------------------|
A|--0--0--0--0--0--0------------------0--0--0--0--0--0--------------------|
D|--0--0--0--0--0--0------------------0--0--0--0--0--0--------------------|

Verse 2: Guitars 1 & 2 (Distorted)
e|------------------------------------------------------------------------|
B|------------------------------------------------------------------------|
G|------------------------------------------------------------------------|
D|--------------------------------------------------8--7--5--3--5--7------|
A|--------------------------------------------------8--7--5--3--5--7------|
D|--------------------------------------------------8--7--5--3--5--7------|

Verse 2: Guitars 1 & 2 (Distorted)
e|------------------------------------------------------------------------|
B|------------------------------------------------------------------------|
G|------------------------------------------------------------------------|
D|--------------------------------------------------8--7--5--3--5--7------|
A|--------------------------------------------------8--7--5--3--5--7------|
D|--------------------------------------------------8--7--5--3--5--7------|

Pre-Chorus: Guitar 1 (Distorted)
e|------------------------------------------------------------------------|
B|------------------------------------------------------------------------|
G|--7-----------7-7-7-7---7----/10---7---------7-7-7-7---7----/12---------|
D|--x-----------x-x-x-x---x------x---x---------x-x-x-x---x------x---------|
A|--5-----------5-5-5-5---5----/-8---5---------5-5-5-5---5----/10---------|
D|------------------------------------------------------------------------|
                                                                          |





Pre-Chorus: Guitar 2 (Distorted)                                          |
e|------------------------------------------------------------------------|
B|------------------------------------------------------------------------|
G|------------------------------------------------------------------------|
D|--8--------------------------------5------------------------------------|
A|--8--------------------------------5------------------------------------|
D|--8--------------------------------5------------------------------------|

Chorus: Guitar 2 (Distorted)
e|------------------------------------------------------------------------|
B|------------------------------------------------------------------------|
G|------------------------------------------------------------------------|
D|--0-0--0-0--3--5--/7--\5---3-----10---10---x-x---10---x-x---7-----------|
A|--0-0--0-0--3--5--/7--\5---3-----10---10---x-x---10---x-x---7-----------|
D|--0-0--0-0--3--5--/7--\5---3-----10---10---x-x---10---x-x---7-----------|

Chorus: Guitar 2 (Distorted)
e|------------------------------------------------------------------------|
B|------------------------------------------------------------------------|
G|------------------------------------------------------------7-----------|
D|--0-0--0-0--3--5--/7--\5---3-----10---10---x-x---10----7----7-----------|
A|--0-0--0-0--3--5--/7--\5---3-----10---10---x-x---10----7----5-----------|
D|--0-0--0-0--3--5--/7--\5---3-----10---10---x-x---10----7----------------|

Chorus: Guitar 2 (Distorted)
e|------------------------------------------------------------------------|
B|------------------------------------------------------------------------|
G|------------------------------------------------------------------------|
D|--0-0--0-0------10---10----------10---10---x-x---10---x-x---7-----------|
A|--0-0--0-0--0----8----7----------10---10---x-x---10---x-x---7-----------|
D|--0-0--0-0--0--------------------10---10---x-x---10---x-x---7-----------|

Chorus: Guitar 2 (Distorted)
e|------------------------------------------------------------------------|
B|------------------------------------------------------------------------|
G|------------------------------------------------------------7-----------|
D|--0-0--0-0--3--5--/7--\5---3-----10---10---x-x---10----7----7-----------|
A|--0-0--0-0--3--5--/7--\5---3-----10---10---x-x---10----7----5-----------|
D|--0-0--0-0--3--5--/7--\5---3-----10---10---x-x---10----7----------------|

Bridge: Guitar 1 (Distorted)
e|------------------------------------------------------------------------|
B|------------------------------------------------------------------------|
G|--9---------------------------------------------------------------------|
D|------------------------------------------------------------------------|
A|------------------------------------------------------------------------|
D|------------------------------------------------------------------------|
                                                                          |
Bridge: Guitar 2 (Distorted)                                              |
e|------------------------------------------------------------------------|
B|------------------------------------------------------------------------|
G|------------------------------------------------------------------------|
D|--0-----------------------------------------------8--7--5--3--5--7------|
A|--0-----------------------------------------------8--7--5--3--5--7------|
D|--0-----------------------------------------------8--7--5--3--5--7------|

Bridge: Guitar 1 (Distorted)
e|------------------17/18-17-15-17v----------17/18-17-15-17v--15----------|
B|--15---15v------15-----------------------15---------------------18-17-18|
G|-----------14-17--------------------14-17-------------------------------|
D|------------------------------------------------------------------------|
A|------------------------------------------------------------------------|
D|------------------------------------------------------------------------|
                                                                          |
Bridge: Guitar 2 (Distorted)                                              |
e|------------------------------------------------------------------------|
B|------------------------------------------------------------------------|
G|------------------------------------------------------------------------|
D|--0---7--7----------8--7--0--7--7-------------0--10--7--------8--7--5---|
A|--0---5--7----------8--7--0--5--7-------------0--10--7--------8--7--5---|
D|--0------7----------8--7--0-----7-------------0--10--7--------8--7--5---|

Bridge: Guitar 1 (Distorted)



e|-----------------------17/18-17-15-17v--------17/18-17-15-17-15----15---|
B|------17b---15v------15---------------------15------------------18----18|
G|----------------14-17------------------14-17----------------------------|
D|------------------------------------------------------------------------|
A|------------------------------------------------------------------------|
D|------------------------------------------------------------------------|
                                                                          |
Bridge: Guitar 2 (Distorted)                                              |
e|------------------------------------------------------------------------|
B|------------------------------------------------------------------------|
G|------------------------------------------------------------------------|
D|-3-5-7---0--7--7--------8--7--0--7--7-----------0--10--7------8--7--5---|
A|-3-5-7---0--5--7--------8--7--0--5--7-----------0--10--7------8--7--5---|
D|-3-5-7---0-----7--------8--7--0-----7-----------0--10--7------8--7--5---|

Bridge: Guitar 1 (Distorted)
e|------------------------------------------------------------------------|
B|--17-18-----------------------------------------13------13--15----------|
G|------------15--14--12------12--14--15--14--15------15------------------|
D|------------------------15----------------------------------------------|
A|------------------------------------------------------------------------|
D|------------------------------------------------------------------------|
                                                                          |
Bridge: Guitar 1 (Distorted)                                              |
e|------------------------------------------------------------------------|
B|------------------------------------------------------------------------|
G|------------------------------------------------------------------------|
D|--3--5--7----8---7---5---3---5---7---8---7---5---3---5---7---0----------|
A|--3--5--7----8---7---5---3---5---7---8---7---5---3---5---7---0----------|
D|--3--5--7----8---7---5---3---5---7---8---7---5---3---5---7---0----------|

Chorus: Guitar 2 (Distorted)
e|------------------------------------------------------------------------|
B|------------------------------------------------------------------------|
G|------------------------------------------------------------------------|
D|--0-0--0-0--3--5--/7--\5---3-----10---10---x-x---10---x-x---7-----------|
A|--0-0--0-0--3--5--/7--\5---3-----10---10---x-x---10---x-x---7-----------|
D|--0-0--0-0--3--5--/7--\5---3-----10---10---x-x---10---x-x---7-----------|

Chorus: Guitar 2 (Distorted)
e|------------------------------------------------------------------------|
B|------------------------------------------------------------------------|
G|------------------------------------------------------------7-----------|
D|--0-0--0-0--3--5--/7--\5---3-----10---10---x-x---10----7----7-----------|
A|--0-0--0-0--3--5--/7--\5---3-----10---10---x-x---10----7----5-----------|
D|--0-0--0-0--3--5--/7--\5---3-----10---10---x-x---10----7----------------|

Chorus: Guitar 2 (Distorted)
e|------------------------------------------------------------------------|
B|------------------------------------------------------------------------|
G|------------------------------------------------------------------------|
D|--0-0--0-0------10---10----------10---10---x-x---10---x-x---7-----------|
A|--0-0--0-0--0----8----7----------10---10---x-x---10---x-x---7-----------|
D|--0-0--0-0--0--------------------10---10---x-x---10---x-x---7-----------|

Chorus: Guitar 2 (Distorted)
e|------------------------------------------------------------------------|
B|------------------------------------------------------------------------|
G|------------------------------------------------------------7-----------|
D|--0-0--0-0--3--5--/7--\5---3-----10---10---x-x---10----7----7-----------|
A|--0-0--0-0--3--5--/7--\5---3-----10---10---x-x---10----7----5-----------|
D|--0-0--0-0--3--5--/7--\5---3-----10---10---x-x---10----7----------------|

Chorus: Guitar 1 (Distorted)
e|---------17/18-17-15-17-------------------------------------------------|
B|-------15----------------------------17------18-------------------------|
G|--14-17----------------------------------------------17-----14----------|
D|------------------------------------------------------------------------|
A|------------------------------------------------------------------------|
D|------------------------------------------------------------------------|
                                                                          |
Chorus: Guitar 2 (Distorted)                                              |




e|------------------------------------------------------------------------|
B|------------------------------------------------------------------------|
G|------------------------------------------------------------------------|
D|--0-0--0-0--3--5--/7--\5---3-----10---10---x-x---10---x-x---7-----------|
A|--0-0--0-0--3--5--/7--\5---3-----10---10---x-x---10---x-x---7-----------|
D|--0-0--0-0--3--5--/7--\5---3-----10---10---x-x---10---x-x---7-----------|

Chorus: Guitar 1 (Distorted)
e|---------17/18-17-15-17-------------------------------15----------------|
B|-------15--------------------------17-------18---------------18---------|
G|--14-17-----------------------------------------------------------------|
D|------------------------------------------------------------------------|
A|------------------------------------------------------------------------|
D|------------------------------------------------------------------------|
                                                                          |
Chorus: Guitar 2 (Distorted)                                              |
e|------------------------------------------------------------------------|
B|------------------------------------------------------------------------|
G|------------------------------------------------------------7-----------|
D|--0-0--0-0--3--5--/7--\5---3-----10---10---x-x---10----7----7-----------|
A|--0-0--0-0--3--5--/7--\5---3-----10---10---x-x---10----7----5-----------|
D|--0-0--0-0--3--5--/7--\5---3-----10---10---x-x---10----7----------------|

Chorus: Guitar 1 (Distorted)
e|---17/18-17-15-17-------------------------------------------------------|
B|---------------------------------17------18-----------------------------|
G|--------------------------------------------------17-----14-------------|
D|------------------------------------------------------------------------|
A|------------------------------------------------------------------------|
D|------------------------------------------------------------------------|
                                                                          |
Chorus: Guitar 2 (Distorted)                                              |
e|------------------------------------------------------------------------|
B|------------------------------------------------------------------------|
G|------------------------------------------------------------------------|
D|--0-0--0-0------10---10----------10---10---x-x---10---x-x---7-----------|
A|--0-0--0-0--0----8----7----------10---10---x-x---10---x-x---7-----------|
D|--0-0--0-0--0--------------------10---10---x-x---10---x-x---7-----------|

Chorus: Guitar 1 (Distorted)
e|----------17/18-17-15-17-------------------------------15---------------|
B|--------15-------------------------17------18---------------18----------|
G|---14-17----------------------------------------------------------------|
D|------------------------------------------------------------------------|
A|------------------------------------------------------------------------|
D|------------------------------------------------------------------------|
                                                                          |
Chorus: Guitar 2 (Distorted)                                              |
e|------------------------------------------------------------------------|
B|------------------------------------------------------------------------|
G|------------------------------------------------------------7-----------|
D|--0-0--0-0--3--5--/7--\5---3-----10---10---x-x---10----7----7-----------|
A|--0-0--0-0--3--5--/7--\5---3-----10---10---x-x---10----7----5-----------|
D|--0-0--0-0--3--5--/7--\5---3-----10---10---x-x---10----7----------------|

Outro: Guitar 1 (Distorted)
e|------------------------------------------------------------------------|
B|--15--------------------------------------------------------------------|
G|------------------------------------------------------------------------|
D|------------------------------------------------------------------------|
A|------------------------------------------------------------------------|
D|------------------------------------------------------------------------|
                                                                          |
Outro: Guitar 2 (Distorted)                                               |
e|------------------------------------------------------------------------|
B|------------------------------------------------------------------------|
G|------------------------------------------------------------------------|
D|--0---------------------------------------------------------------------|
A|--0---------------------------------------------------------------------|
D|--0---------------------------------------------------------------------|

Finished


_____________________________________________________________________________
03. World So Cold____________________________________________________________



Artist: Three Days Grace
Song: World So Cold

Three Days Grace
World So Cold
Tabbed by U B the band
Tuning C G C F A D

Legend
b-bend           v-vibrato           pm-palm mute           /-slide up

Intro: Guitar 1 (Clean with Phase Shifter)
D|--------------------------------------------------------------------|
A|--------------------------------------------------------------------|
F|--------------2--------3---2-----------------2-----------5----------|
C|-----------------0--3---------------------------0--3--0-------------|
G|--------------------------------------------------------------------|
C|--3b-v----0----------------------3b-v----0--------------------------|

Intro: Guitar 1 (Clean with Phase Shifter)
D|--------------------------------------------------------------------|
A|--------------------------------------------------------------------|
F|----------------2--------3---2------------3------2------------------|
C|-------------------0--3---------------------------------3-----------|
G|--------------------------------------------------------------------|
C|--0h3b-v----0----------------------1--------------------------------|

Intro: Guitars 1 & 2 (Distorted)
D|--------------------------------------------------------------------|
A|--------------------------------------------------------------------|
F|---------------------------------------------------------5-5-5/7----|
C|----------0---7--0--3--8-0-7-0-----------0---7--0--3--0--5-5-5/7----|
G|----------0---7--0--3--8-0-7-0-----------0---7--0--3--0--3-3-3/5----|
C|--3b-v----0---7--0--3--8-0-7-0---3b-v----0---7--0--3--0-------------|

Intro: Guitar 1 (Distorted)      Guitar 1
D|------------------------------|-------------------------------------|
A|------------------------------|-------------------------------------|
F|------------------------------|---------3------2--------------------|
C|----------0---7--0--3--8-0-7--|-----------------------3-------------|
G|----------0---7--0--3--8-0-7--|-------------------------------------|
C|--3b-v----0---7--0--3--8-0-7--|--1----------------------------------|
                                                                      |
Intro: Guitar 2 (Distorted)      Guitar 2                             |
D|------------------------------|-------------------------------------|
A|------------------------------|-------------------------------------|
F|------------------------------|-------------------------------------|
C|----------0---7--0--3--8-0-7--|--1----------------------------------|
G|----------0---7--0--3--8-0-7--|--1----------------------------------|
C|--3b-v----0---7--0--3--8-0-7--|--1----------------------------------|
                                   pm

Verse 1: Guitar 1 (Clean with Phase Shifter) PLAY VERSE 2 TIMES
D|--------------------------------------------------------------------|
A|--------------------------------------------------------------------|
F|--------------2--------3---2-----------------2-----------5----------|
C|-----------------0--3---------------------------0--3--0-------------|
G|--------------------------------------------------------------------|
C|--3b-v----0----------------------3b-v----0--------------------------|

Verse 1: Guitar 1
D|--------------------------------------------------------------------|
A|--------------------------------------------------------------------|
F|----------------2--------3---2------------3------2------------------|
C|-------------------0--3---------------------------------3-----------|
G|--------------------------------------------------------------------|
C|--0h3b-v----0----------------------1--------------------------------|

Pre Chorus: Guitar 1 (Clean with Phase Shifter)
D|--------------------------------------------------------------------|
A|--------------------------------------------------------------------|
F|-----------------1010-9-9-9------1010-9-9-9-------------------------|
C|-------------8---8-8--8-8-8--0---0-0--0-0-0--5---5-5-5-5--8-8-8-8-8-|
G|-------------8---8-8--8-8-8--0---0-0--0-0-0--5---5-5-5-5--8-8-8-8-8-|
C|-------------8---8-8--8-8-8--0---0-0--0-0-0--5---5-5-5-5--8-8-8-8-8-|
                                                                      |
Pre Chorus: Guitar 2 (Distorted)                                      |


D|--------------------------------------------------------------------|
A|--10-11-10---10-10-8--8-10--10-10-8--8-10--10-10-8--8-10-10---------|
F|--------------------------------------------------------------------|
C|--------------------------------------------------------------------|
G|--------------------------------------------------------------------|
C|--------------------------------------------------------------------|

Chorus: Guitars 1 & 2 (Distorted)
D|--------------------------------------------------------------------|
A|--------------------------------------------------------------------|
F|--------------------------------------------------------------------|
C|--0--0-10----10----8--------------0--0-10----10----8----------------|
G|--0--0-10----10----8--------------0--0-10----10----8----------------|
C|--0--0-10----10----8---5-7-8-10---0--0-10----10----8---5-7-8-10-----|

Chorus: Guitars 1 (Distorted)
D|----------------------|---------------------------------------------|
A|----------------------|---------------------------------------------|
F|----------------------|---------------------------------------------|
C|--0--0-7----10-10-x-5-|--3-3-3-3--5-5-5-5--3-3-3-3--5-5-5-5--0------|
G|--0--0-7----10-10-x-5-|--1-1-1-1--3-3-3-3--1-1-1-1--3-3-3-3--0------|
C|--0--0-7----10-10-x-5-|--------------------------------------0------|
                                                                      |
Chorus: Guitars 2 (Distorted)                                         |
D|----------------------|--------5-6-5-3-5-3-----5-6-5-3-5-3----------|
A|----------------------|--6-----------------6-3---------------6------|
F|----------------------|---------------------------------------------|
C|--0--0-7----10-10-x-5-|---------------------------------------------|
G|--0--0-7----10-10-x-5-|---------------------------------------------|
C|--0--0-7----10-10-x-5-|---------------------------------------------|

Verse 2: Guitar 1 (Clean with Phase Shifter)
D|--------------------------------------------------------------------|
A|--------------------------------------------------------------------|
F|--------------2--------3---2-----------------2-----------5----------|
C|-----------------0--3---------------------------0--3--0-------------|
G|--------------------------------------------------------------------|
C|--3b-v----0----------------------3b-v----0--------------------------|

Verse 2: Guitar 1
D|--------------------------------------------------------------------|
A|--------------------------------------------------------------------|
F|----------------2--------3---2------------3------2------------------|
C|-------------------0--3---------------------------------3-----------|
G|--------------------------------------------------------------------|
C|--0h3b-v----0----------------------1--------------------------------|

Pre Chorus: Guitar 1 (Clean with Phase Shifter)
D|--------------------------------------------------------------------|
A|--------------------------------------------------------------------|
F|-----------------1010-9-9-9------1010-9-9-9-------------------------|
C|-------------8---8-8--8-8-8--0---0-0--0-0-0--5---5-5-5-5--8-8-8-8-8-|
G|-------------8---8-8--8-8-8--0---0-0--0-0-0--5---5-5-5-5--8-8-8-8-8-|
C|-------------8---8-8--8-8-8--0---0-0--0-0-0--5---5-5-5-5--8-8-8-8-8-|
                                                                      |
Pre Chorus: Guitar 2 (Distorted)                                      |
D|--------------------------------------------------------------------|
A|--10-11-10---10-10-8--8-10--10-10-8--8-10--10-10-8--8-10-10---------|
F|--------------------------------------------------------------------|
C|--------------------------------------------------------------------|
G|--------------------------------------------------------------------|
C|--------------------------------------------------------------------|

Chorus: Guitars 1 & 2 (Distorted)
D|--------------------------------------------------------------------|
A|--------------------------------------------------------------------|
F|--------------------------------------------------------------------|
C|--0--0-10----10----8--------------0--0-10----10----8----------------|
G|--0--0-10----10----8--------------0--0-10----10----8----------------|
C|--0--0-10----10----8---5-7-8-10---0--0-10----10----8---5-7-8-10-----|

Chorus: Guitars 1 (Distorted)




D|----------------------|---------------------------------------------|
A|----------------------|---------------------------------------------|
F|----------------------|---------------------------------------------|
C|--0--0-7----10-10-x-5-|--3-3-3-3--5-5-5-5--3-3-3-3--5-5-------------|
G|--0--0-7----10-10-x-5-|--1-1-1-1--3-3-3-3--1-1-1-1--3-3-------------|
C|--0--0-7----10-10-x-5-|----------------------------------5-7-8-10---|
                                                                      |
Chorus: Guitars 2 (Distorted)                                         |
D|----------------------|--------5-6-5-3-5-3--------------------------|
A|----------------------|--6-----------------6-3----------------------|
F|----------------------|---------------------------------------------|
C|--0--0-7----10-10-x-5-|---------------------------------------------|
G|--0--0-7----10-10-x-5-|---------------------------------------------|
C|--0--0-7----10-10-x-5-|---------------------------------------------|

Bridge: Guitars 1 & 2 (Distorted)
D|--------------------------------------------------------------------|
A|--------------------------------------------------------------------|
F|--------------------------------------------------------------------|
C|--------------------------------------------------------------------|
G|--------------------------------------------------------------------|
C|--5---5---5---5---5---5--8-7-5-3--0---0---0---0---0---0--5-7-8-10---|

Bridge: Guitars 1 & 2 (Distorted)
D|--------------------------------------------------------------------|
A|--------------------------------------------------------------------|
F|--------------------------------------------------------------------|
C|--------------------------------------------------------------------|
G|--------------------------------------------------------------------|
C|--5---5---5---5---5---5--8-7-5-3--0---0---0---10---------5-7-8-10---|

Bridge: Guitars 1 & 2 (Distorted)
D|--------------------------------------------------------------------|
A|--------------------------------------------------------------------|
F|--------------------------------------------------------------------|
C|--8---8---x-----0--------x--x--10-----------------------------------|
G|--8---8---x-----0--------x--x--10-----------------------------------|
C|--8---8---x-----0--------x--x--10-----------------------------------|

Chorus: Guitars 1 & 2 (Distorted)
D|--------------------------------------------------------------------|
A|--------------------------------------------------------------------|
F|--------------------------------------------------------------------|
C|--0--0-10----10----8--------------0--0-10----10----8----------------|
G|--0--0-10----10----8--------------0--0-10----10----8----------------|
C|--0--0-10----10----8---5-7-8-10---0--0-10----10----8---5-7-8-10-----|

Chorus: Guitars 1 (Distorted)
D|----------------------|---------------------------------------------|
A|----------------------|---------------------------------------------|
F|----------------------|---------------------------------------------|
C|--0--0-7----10-10-x-5-|--3-3-3-3--5-5-5-5--3-3-3-3--5-5-5-5---------|
G|--0--0-7----10-10-x-5-|--1-1-1-1--3-3-3-3--1-1-1-1--3-3-3-3---------|
C|--0--0-7----10-10-x-5-|---------------------------------------------|
                                                                      |
Chorus: Guitars 2 (Distorted)                                         |
D|----------------------|--------5-6-5-3-5-3-----5-6-5-3-5-3----------|
A|----------------------|--6-----------------6-3-------------6--------|
F|----------------------|---------------------------------------------|
C|--0----7----10-10-x-5-|---------------------------------------------|
G|--0----7----10-10-x-5-|---------------------------------------------|
C|--0----7----10-10-x-5-|---------------------------------------------|

Outro: Guitars 1 & 2 (Distorted) PLAY OUTRO 2 TIMES
D|--------------------------------------------------------------------|
A|--------------------------------------------------------------------|
F|---------------------------------------------------------5-5-5/7----|
C|----------0---7--0--3--8-0-7-0-----------0---7--0--3--0--5-5-5/7----|
G|----------0---7--0--3--8-0-7-0-----------0---7--0--3--0--3-3-3/5----|
C|--3b-v----0---7--0--3--8-0-7-0---3b-v----0---7--0--3--0-------------|

Finished



_____________________________________________________________________________
04. Lost In You______________________________________________________________




Artist: Three Days Grace
Song: Lost In You

-----------------------------------------------------------------------------
Lost In You – Three Days Grace
-----------------------------------------------------------------------------

Tabbed by: Daniel Slindee
Email:slind020@umn.edu

Tuning:Drop D, DAdGBe

INTRO
e|--------------------------------------------------------------------------|
B|--------------------------------------------------------------------------|
G|----9-11-4-6-6-6~-6-------------------------------------------------------|
D|----0-0-------------X2----------------------------------------------------|
A|----0-0--0-0-0-0--0-------------------------------------------------------|
D|----0-0-------------------------------------------------------------------|

Verse 
e|--------------------------------------------------------------------------|
B|--------------------------------------------------------------------------|
G|----9-11-4-6-6-6~-6----------9-11-6666---9-11-4-6-6-6~-6--9-11-6666-------|
D|----0-0-------------X2-------0-0--4444---0-0--------------0-0--4444-------|
A|----0-0--0-0-0-0--0----------0-0--4444---0-0--0-0-0-0--0--0-0--4444-------|
D|----0-0----------------------0-0--4444---0-0--------------0-0--4444-------|


Pre Chorus
e|--------------------------------------------------------------------------|
B|------------3333----------------------------------------------------------|
G|--44444-666-2222----4444--------------------------------------------------|
D|--22222-444-0000----2222-7777-0000-22222222-------------------------------|
A|--22222-444-0000----2222-7777-0000-22222222-------------------------------|
D|--22222-444-0000----2222-7777-0000-22222222-------------------------------|

Chorus
e|--------------------------------------------------------------------------|
B|--------------------------------------------------------------------------|
G|--2222-6666-9999-119-1111---2222-6666-2222-4444---------------------------|
D|--0000-4444-7777-0-0-0-0----0000-4444-0000-2222--cont. next line----------|
A|--0000-4444-7777-0-0-0-0----0000-4444-0000-2222---------------------------|
D|--0000-4444-7777-0-0-0-0----0000-4444-0000-2222---------------------------|


e|--------------------------------------------------------------------------|
B|--------------------------------------------------------------------------|
G|--2222-6666-9999-119-1111---2222-9999-------------------------------------|
D|--0000-4444-7777-0-0-0-0----0000-7777-4444-2222---------------------------|
A|--0000-4444-7777-0-0-0-0----0000-7777-4444-2222---------------------------|
D|--0000-4444-7777-0-0-0-0----0000-7777-4444-2222---------------------------|

Gtr 2 fill.
e|---------9-----12-----7-9---|
B|-----7-----7------7---------|
G|---9---9-----9------9-------|
D|----------------------------|
A|----------------------------|
D|----------------------------|

Verse 2
Pre chorus
Chorus 2

Post chorus fill
e|-----------------------|
B|-----------------------|
G|--22222222-------------|
D|--00000000-22222222----|
A|--00000000-22222222----|
D|--00000000-22222222----|

Bridge





e|--------------------------------------------------------------------------|
B|--------------------------------------------------------------------------|
G|--6666-4444-6666-2222-6666-4444-2222-2222-4~~~----------------------------|
D|--4444-2222-4444-0000-4444-2222-0000-0000-2~~~----------------------------|
A|--4444-2222-4444-0000-4444-2222-0000-0000-2~~~----------------------------|
D|--4444-2222-4444-0000-4444-2222-0000-0000-2~~~----------------------------|

Breakdown
e|--------------------------------------------------------------------------|
B|--------------------------------------------------------------------------|
G|----9-11-4-6~~~--------------9-11-6~~~------------------------------------|
D|----0-0---------X2-----------0-0--4~~~--222222222-------------------------|
A|----0-0--0-0-----------------0-0--4~~~--222222222-------------------------|
D|----0-0----------------------0-0--4~~~--222222222-------------------------|

Chorus
e|--------------------------------------------------------------------------|
B|--------------------------------------------------------------------------|
G|--2222-6666-9999-119-1111---2222-6666-2222-4444---------------------------|
D|--0000-4444-7777-0-0-0-0----0000-4444-0000-2222--cont. next line----------|
A|--0000-4444-7777-0-0-0-0----0000-4444-0000-2222---------------------------|
D|--0000-4444-7777-0-0-0-0----0000-4444-0000-2222---------------------------|


e|-----------------------------------------------------2~~~-----------------|
B|-----------------------------------------------------3~~~-----------------|
G|--2222-6666-9999-119-1111---2222-9999------4~~~------2~~~-----------------|
D|--0000-4444-7777-0-0-0-0----0000-7777-4444-2~~~--X2--0~~~-----------------|
A|--0000-4444-7777-0-0-0-0----0000-7777-4444-2~~~------0~~~-----------------|
D|--0000-4444-7777-0-0-0-0----0000-7777-4444-2~~~------0~~~-----------------|

Listen to song for strum patterns. You’ll get it.
Great song, could use a good tab.

| /  slide up
| \  slide down
| h  hammer-on
| p  pull-off
| ~  vibrato
| +  harmonic
| x  Mute note
=============================================================================


_____________________________________________________________________________
05. The Good Life____________________________________________________________



Artist: Three Days Grace
Song: The Good Life

Three Days Grace
The Good Life
Tabbed by U B the band
Tuning D A D G B e

Legend
h-hammer on                  p-pull off              pm-palm mute
\-slide down                 v-vibrato               PH-Pinch Harmonic

Intro: Guitar 1 (Distorted)
e|--------------------------------------------------------------------|
B|--------------------------------------------------------------------|
G|--------------------------------------------------------------------|
D|--0---0---7h8--0--5h6---0---1------0---0---7h8--0--5h6---0---1------|
A|--------------------------------------------------------------------|
D|--------------------------------------------------------------------|

e|--------------------------------------------------------------------|
B|--------------------------------------------------------------------|
G|--------------------------------------------------------------------|
D|--0---0---7h8--0--5h6---0---1------0---0---6p5--0--6p5---0---3------|
A|--------------------------------------------------------------------|
D|--------------------------------------------------------------------|

Intro: Guitar 1 (Distorted) PLAY 2 TIMES
e|--------------------------------------------------------------------|
B|--------------------------------------------------------------------|
G|--------------------------------------------------------------------|
D|--------------------------------------------------------------------|
A|--0---0---7h8--0--5h6---0---1------0---0---7h8--0--5h6---0---1------|
D|--0---0---7h8--0--5h6---0---1------0---0---7h8--0--5h6---0---1------|

Intro: Guitar 1 (Distorted
e|--------------------------------------------------------------------|
B|--------------------------------------------------------------------|
G|--------------------------------------------------------------------|
D|--------------------------------------------------------------------|
A|--0---0---7h8--0--5h6---0---1------0---0---6p5--0--6p5---0----------|
D|--0---0---7h8--0--5h6---0---1------0---0---6p5--0--6p5---0---3v-----|

Verse 1: Guitar 1 (Distorted)
e|--------------------------------------------------------------------|
B|--------------------------------------------------------------------|
G|--------------------------------------------------------------------|
D|--------------------------------------------------------------------|
A|--0---0---7h8--0--5h6---0---1------0---0---7h8--0--5h6---0---1------|
D|--0---0---7h8--0--5h6---0---1------0---0---7h8--0--5h6---0---1------|
    pm  pm  pmpm pm pmpm  pm         pm  pm  pmpm pm pmpm  pm

Verse 1: Guitar 1 (Distorted)
e|--------------------------------------------------------------------|
B|--------------------------------------------------------------------|
G|--------------------------------------------------------------------|
D|--------------------------------------------------------------------|
A|--0---0---7h8--0--5h6---0---1------0---0---6p5--0--6p5---0----------|
D|--0---0---7h8--0--5h6---0---1------0---0---6p5--0--6p5---0---3v-----|
    pm  pm  pmpm pm pmpm  pm         pm  pm  pmpm pm pmpm  pm

Verse 1: Guitar 1 (Distorted)
e|--------------------------------------------------------------------|
B|--------------------------------------------------------------------|
G|--------------------------------------------------------------------|
D|--------------------------------------------------------------------|
A|--0---0---7h8--0--5h6---0---1------0---0---7h8--0--5h6---0---1------|
D|--0---0---7h8--0--5h6---0---1------0---0---7h8--0--5h6---0---1------|
    pm  pm  pmpm pm pmpm  pm         pm  pm  pmpm pm pmpm  pm

Verse 1: Guitar 1 (Distorted)
e|--------------------------------------------------------------------|
B|--------------------------------------------------------------------|
G|--------------------------------------------------------------------|
D|--8------8------8------8------7-------------------------------------|
A|--8------8------8------8------7-------------------------------------|
D|--8------8------8------8------7-------------------------------------|


Chorus: Guitar 1 (Distorted)
e|--------------------------------------------------------------------|
B|--------------------------------------------------------------------|
G|------------------7--7--7--------------------------7--7--7----------|
D|--0--0--0---------5--5--5---8-8-8--0--0--0---------5--5--5--10-10---|
A|--0--0--0--0h3p0--5--5--5---8-8-8--0--0--0--0h3p0--5--5--5--10-10---|
D|--0--0--0--0h3p0--5--5--5---8-8-8--0--0--0--0h3p0--5--5--5--10-10---|

Chorus: Guitar 1 (Distorted)
e|--------------------------------------------------------------------|
B|--------------------------------------------------------------------|
G|--10-----10-----10-----10-----10-----10------9------9---------------|
D|--8------8------8------8------7------7-------7------7---------------|
A|--8------8------8------8------7------7-------7------7---------------|
D|--8------8------8------8------7------7-------7------7---------------|

Chorus: Guitar 1 (Distorted)
e|--------------------------------------------------------------------|
B|--------------------------------------------------------------------|
G|------------------7--7--7--------------------------7--7--7----------|
D|--0--0--0---------5--5--5---8-8-8--0--0--0---------5--5--5--10-10---|
A|--0--0--0--0h3p0--5--5--5---8-8-8--0--0--0--0h3p0--5--5--5--10-10---|
D|--0--0--0--0h3p0--5--5--5---8-8-8--0--0--0--0h3p0--5--5--5--10-10---|

Chorus: Guitar 1 (Distorted)
e|--------------------------------------------------------------------|
B|--------------------------------------------------------------------|
G|--10-----10-----10-----10-----10------------------------------------|
D|--8------8------8------8------7-------------------------------------|
A|--8------8------8------8------7-------------------------------------|
D|--8------8------8------8------7----6p5--0--6p5---0---3PH-v----------|

Post Chorus: Guitar 1 (Distorted)
e|--------------------------------------------------------------------|
B|--------------------------------------------------------------------|
G|--------------------------------------------------------------------|
D|--------------------------------------------------------------------|
A|--0---0---7h8--0--5h6---0---1------0---0---7h8--0--5h6---0---1------|
D|--0---0---7h8--0--5h6---0---1------0---0---7h8--0--5h6---0---1------|

Post Chorus: Guitar 1 (Distorted
e|--------------------------------------------------------------------|
B|--------------------------------------------------------------------|
G|--------------------------------------------------------------------|
D|--------------------------------------------------------------------|
A|--0---0---7h8--0--5h6---0---1------0---0---6p5--0--6p5---0----------|
D|--0---0---7h8--0--5h6---0---1------0---0---6p5--0--6p5---0---3v-----|

Verse 2: Guitar 1 (Distorted)
e|--------------------------------------------------------------------|
B|--------------------------------------------------------------------|
G|--------------------------------------------------------------------|
D|--------------------------------------------------------------------|
A|--0---0---7h8--0--5h6---0---1------0---0---7h8--0--5h6---0---1------|
D|--0---0---7h8--0--5h6---0---1------0---0---7h8--0--5h6---0---1------|
    pm  pm  pmpm pm pmpm  pm         pm  pm  pmpm pm pmpm  pm

Verse 2: Guitar 1 (Distorted)
e|--------------------------------------------------------------------|
B|--------------------------------------------------------------------|
G|--------------------------------------------------------------------|
D|--------------------------------------------------------------------|
A|--0---0---7h8--0--5h6---0---1------0---0---6p5--0--6p5---0----------|
D|--0---0---7h8--0--5h6---0---1------0---0---6p5--0--6p5---0---3v-----|
    pm  pm  pmpm pm pmpm  pm         pm  pm  pmpm pm pmpm  pm

Verse 2: Guitar 1 (Distorted)
e|--------------------------------------------------------------------|
B|--------------------------------------------------------------------|
G|--------------------------------------------------------------------|
D|--------------------------------------------------------------------|
A|--0---0---7h8--0--5h6---0---1------0---0---7h8--0--5h6---0---1------|
D|--0---0---7h8--0--5h6---0---1------0---0---7h8--0--5h6---0---1------|
    pm  pm  pmpm pm pmpm  pm         pm  pm  pmpm pm pmpm  pm


Verse 2: Guitar 1 (Distorted)
e|--------------------------------------------------------------------|
B|--------------------------------------------------------------------|
G|--------------------------------------------------------------------|
D|--8------8------8------8------7-------------------------------------|
A|--8------8------8------8------7-------------------------------------|
D|--8------8------8------8------7-------------------------------------|

Chorus: Guitar 1 (Distorted)
e|--------------------------------------------------------------------|
B|--------------------------------------------------------------------|
G|------------------7--7--7--------------------------7--7--7----------|
D|--0--0--0---------5--5--5---8-8-8--0--0--0---------5--5--5--10-10---|
A|--0--0--0--0h3p0--5--5--5---8-8-8--0--0--0--0h3p0--5--5--5--10-10---|
D|--0--0--0--0h3p0--5--5--5---8-8-8--0--0--0--0h3p0--5--5--5--10-10---|

Chorus: Guitar 1 (Distorted)
e|--------------------------------------------------------------------|
B|--------------------------------------------------------------------|
G|--10-----10-----10-----10-----10-----10------9------9---------------|
D|--8------8------8------8------7------7-------7------7---------------|
A|--8------8------8------8------7------7-------7------7---------------|
D|--8------8------8------8------7------7-------7------7---------------|

Chorus: Guitar 1 (Distorted)
e|--------------------------------------------------------------------|
B|--------------------------------------------------------------------|
G|------------------7--7--7--------------------------7--7--7----------|
D|--0--0--0---------5--5--5---8-8-8--0--0--0---------5--5--5--10-10---|
A|--0--0--0--0h3p0--5--5--5---8-8-8--0--0--0--0h3p0--5--5--5--10-10---|
D|--0--0--0--0h3p0--5--5--5---8-8-8--0--0--0--0h3p0--5--5--5--10-10---|

Chorus: Guitar 1 (Distorted)
e|--------------------------------------------------------------------|
B|--------------------------------------------------------------------|
G|--10-----10-----10-----10-----10-----10-----------------------------|
D|--8------8------8------8------7------7------------------------------|
A|--8------8------8------8------7------7------------------------------|
D|--8------8------8------8------7------7------------------------------|

Bridge: Guitar 1 (Distorted) PLAY 2 TIMES
e|--------------------------------------------------------------------|
B|--------------------------------------------------------------------|
G|--------------------------------------------------------------------|
D|-------------------------------------------5-5-5-5--3-3-------------|
A|-------------------------------------------3-3-3-3--1-1-------------|
D|--0---7---3---2--3---0---7---3--2--0--2--3--------------3-2-0--2--3-|

Bridge: Guitar 1 (Distorted) PLAY 1 TIME
e|--------------------------------------------------------------------|
B|--------------------------------------------------------------------|
G|-----------------------------------------------------------9--------|
D|---------------------8--8--8--8--8--8--8--8--777777-777777-7--------|
A|---------------------8--8--8--8--8--8--8--8--777777-777777-7--------|
D|--0---7---3---2--3---8--8--8--8--8--8--8--8--777777-777777-7--------|

Bridge: Guitar 1 (Distorted) PLAY 1 TIME
e|--------------------------------------------------------------------|
B|--------------------------------------------------------------------|
G|--------------------------------------------------------------------|
D|--------------------------------------------------------------------|
A|--5------5--5---8------8--8---0--0------0------0--0--0--------------|
D|--5------5--5---8------8--8---0--0------0------0--0--0--------------|

Bridge: Guitar 1 (Distorted) PLAY 1 TIME
e|--------------------------------------------------------------------|
B|--------------------------------------------------------------------|
G|---------------------------------------9----------------------------|
D|--8-----8-----8-----8-----7-7-7-7-7-7--7----------------------------|
A|--8-----8-----8-----8-----7-7-7-7-7-7--7----------------------------|
D|--8-----8-----8-----8-----7-7-7-7-7-7--7----------------------------|

Chorus: Guitar 1 (Distorted)



e|--------------------------------------------------------------------|
B|--------------------------------------------------------------------|
G|------------------7--7--7--------------------------7--7--7----------|
D|--0--0--0---------5--5--5---8-8-8--0--0--0---------5--5--5--10-10---|
A|--0--0--0--0h3p0--5--5--5---8-8-8--0--0--0--0h3p0--5--5--5--10-10---|
D|--0--0--0--0h3p0--5--5--5---8-8-8--0--0--0--0h3p0--5--5--5--10-10---|

Chorus: Guitar 1 (Distorted)
e|--------------------------------------------------------------------|
B|--------------------------------------------------------------------|
G|--10-----10-----10-----10-----10-----10------9------9---------------|
D|--8------8------8------8------7------7-------7------7---------------|
A|--8------8------8------8------7------7-------7------7---------------|
D|--8------8------8------8------7------7-------7------7---------------|

Chorus: Guitar 1 (Distorted)
e|--------------------------------------------------------------------|
B|--------------------------------------------------------------------|
G|------------------7--7--7--------------------------7--7--7----------|
D|--0--0--0---------5--5--5---8-8-8--0--0--0---------5--5--5--10-10---|
A|--0--0--0--0h3p0--5--5--5---8-8-8--0--0--0--0h3p0--5--5--5--10-10---|
D|--0--0--0--0h3p0--5--5--5---8-8-8--0--0--0--0h3p0--5--5--5--10-10---|

Chorus: Guitar 1 (Distorted)
e|--------------------------------------------------------------------|
B|--------------------------------------------------------------------|
G|--10-----10-----10-----10-----10------------------------------------|
D|--8------8------8------8------7-------------------------------------|
A|--8------8------8------8------7-------------------------------------|
D|--8------8------8------8------7-------------------------------------|

Outro: Guitar 1 (Distorted) PLAY 2 TIMES
e|--------------------------------------------------------------------|
B|--------------------------------------------------------------------|
G|--------------------------------------------------------------------|
D|--------------------------------------------------------------------|
A|--0---0---7h8--0--5h6---0---1------0---0---7h8--0--5h6---0---1------|
D|--0---0---7h8--0--5h6---0---1------0---0---7h8--0--5h6---0---1------|

Outro: Guitar 1 (Distorted
e|--------------------------------------------------------------------|
B|--------------------------------------------------------------------|
G|--------------------------------------------------------------------|
D|--------------------------------------------------------------------|
A|--0---0---7h8--0--5h6---0---1------0---0---6p5--0--6p5---0----------|
D|--0---0---7h8--0--5h6---0---1------0---0---6p5--0--6p5---0---3PH-v--|

Outro: Guitar 1 (Distorted)
e|--------------------------------------------------------------------|
B|--------------------------------------------------------------------|
G|--7----7-\----------------------------------------------------------|
D|--7----7-\----------------------------------------------------------|
A|--5----5-\----------------------------------------------------------|
D|--------------------------------------------------------------------|

Finished


_____________________________________________________________________________
06. No More__________________________________________________________________



song: No More
artist: Three Days Grace
tuning: e b g d a d (drop D)

(note: I adapted this from a guitar pro tab)


Moderate = 100 bpm

Intro
                       * hold this note the 1st time
e|---------------------9---------------------|\   ------------|
b|-----------12------------------------------| \              |
g|-------11-------11-------------------------|  \ x3          |
d|----9--------------------------------------|  /             |
a|-------------------------------------------| /              |
d|-9-----------------------------------------|/               |
                                                              |___x3
                       * hold this one 1st time too           |
e|---------------------0---------------------|\               |
b|-----------10------------------------------| \              |
g|-------11-------11-------------------------|  \ x3          |
d|----9--------------------------------------|  /             |
a|-------------------------------------------| /              |
d|-0-----------------------------------------|/   ------------|


Verse

Guitar 1
                       * hold this note the 1st time
e|---------------------9---------------------|\   ------------|
b|-----------12------------------------------| \              |
g|-------11-------11-------------------------|  \ x3          |
d|----9--------------------------------------|  /             |
a|-------------------------------------------| /              |
d|-9-----------------------------------------|/               |
                                                              |___x3
                       * hold this one 1st time too           |
e|---------------------0---------------------|\               |
b|-----------10------------------------------| \              |
g|-------11-------11-------------------------|  \ x3          |
d|----9--------------------------------------|  /             |
a|-------------------------------------------| /              |
d|-0-----------------------------------------|/   ------------|

Guitar 2

e|---------------------------------------------------|\
b|---------------------------------------------------| \
g|---------------------------------------------------|  \ x3
d|-9-9--9-9-9--0-0--0-0-0----------------------------|  /
a|-9-9--9-9-9--0-0--0-0-0----------------------------| /
d|-9-9--9-9-9--0-0--0-0-0----------------------------|/


Pre-Chorus

Guitar 1 (14s 13s and 16s not 1 and 4,3 or 6)
e|---------------------------------------------------|\
b|---------------------------------------------------| \
g|-14-14-14-13-13-13-16-16-16-13-13-13---------------|  \ x4
d|---------------------------------------------------|  /
a|---------------------------------------------------| /
d|---------------------------------------------------|/

Guitar 2
e|---------------------------------------------------|\
b|---------------------------------------------------| \
g|---------------------------------------------------|  \ x2
d|-444444444444444444-7777-222222222222222222-7777---|  /
a|-444444444444444444-7777-222222222222222222-7777---| /
d|-444444444444444444-7777-222222222222222222-7777---|/


Chorus

Guitar 1
e|---------------------------------------------------|\
b|---------------------------------------------------| \
g|-14-14-14-13-13-13-16-16-16-13-13-13---------------|  \ x3
d|---------------------------------------------------|  /
a|---------------------------------------------------| /
d|---------------------------------------------------|/

e|--------------------0-------------------------------|\
b|------------10--------------------------------------| \
g|--------11------11----------------------------------|  \ x3
d|-----9----------------------------------------------|  /
a|----------------------------------------------------| /
d|--0-------------------------------------------------|/

Guitar 2
e|---------------------------------------------------|\
b|---------------------------------------------------| \
g|---------------------------------------------------|  \ x1
d|-0-4-7-0-4-7-2-2-7-0-0-----------------------------|  /
a|-0-4-7-0-4-7-2-2-7-0-0-----------------------------| /
d|-0-4-7-0-4-7-2-2-7-0-0-----------------------------|/

Post Chorus

Guitar 2
e|---------------------------------------------------|\
b|---------------------------------------------------| \
g|---------------------------------------------------|  \ x1
d|-44444444444444444444444444------------------------|  /
a|-44444444444444444444444444------------------------| /
d|-44444444444444444444444444------------------------|/


Verse

Pre-Chorus

Chorus


Pre-Solo

Guitar 2
e|---------------------------------------------------|\
b|---------------------------------------------------| \
g|---------------------------------------------------|  \ x1
d|-444444444444--777--222222-------------------------|  /
a|-444444444444--777--222222-------------------------| /
d|-444444444444--777--222222-------------------------|/


Solo

Guitar 2
e|---------------------------------------------------|\
b|---------------------------------------------------| \
g|---------------------------------------------------|  \ x1
d|-222222--777---------------------------------------|  /
a|-222222--777---------------------------------------| /
d|-222222--777---------------------------------------|/


e|---------------------------------------------------|\
b|---------------------------------------------------| \
g|---------------------------------------------------|  \ x2
d|-444444444444444444-7777-222222222222222222-7777---|  /
a|-444444444444444444-7777-222222222222222222-7777---| /
d|-444444444444444444-7777-222222222222222222-7777---|/

Guitar 1

e|---------------------------------------------------|\
b|---------------------------------------------------| \
g|--14-13b-13~-14-13b-13~-14-15b-15b~----------------|  \ x3
d|---------------------------------------------------|  /
a|---------------------------------------------------| /
d|---------------------------------------------------|/

e|---------------------------------------------------|\
b|---------------------------16b~~-------------------| \
g|--14-13b-13~-14-13b-13~-14-------------------------|  \ x1
d|---------------------------------------------------|  /
a|---------------------------------------------------| /
d|---------------------------------------------------|/


Chorus

Outro (same as intro)




_____________________________________________________________________________
07. Last To Know_____________________________________________________________



Artist: Three Days Grace
Song: Last To Know

-------------------------------------------------------------------------------
     LAST TO KNOW - Three Days Grace
-------------------------------------------------------------------------------
Tabbed by: mariewong
Email: wlj_marie@hotmail.com

Tuning: Standard





Intro:

e|------------------------------0---2~--|
B|---0-----0------------0---3-------3~--|
G|-2-----2-----2-0--2---------------2~--|
D|-2----------------2---------------0~--|
A|-2---2-----2------3-3---3---3---3-----|
E|--------------------------------------|



Verse:
She just walked away 
Why didn't she tell me 
And where do I go tonight 
This isn't happening to me 
This can't be happening to me 
She didn't say a word 
Just walked away 

e|------------------------------0---2--|
B|---0-----0------------0---3-------3--|
G|-2-----2-----2-0--2---------------2--|
D|-2----------------2---------------0--|
A|-2---2-----2------3-3---3---3---3----|
E|-------------------------------------|

e|-----------------------------------------|
B|---0-----0----------------0---3---5-3-5--|
G|-2-----2-----2-0--0---2------------------|
D|-2----------------2----------------------|
A|-2---2-----2------3-3---3---3---3--------|
E|-----------------------------------------|

e|------------------------------0---2--|
B|---0-----0------------0---3-------3--|
G|-2-----2-----2-0--2---------------2--|
D|-2----------------2---------------0--|
A|-2---2-----2------3-3---3---3---3----|
E|-------------------------------------|

e|-----------------------------------------|
B|---0-----0----------------0---3---5-3-5--|
G|-2-----2-----2-0--0---2------------------|
D|-2----------------2----------------------|
A|-2---2-----2------3-3---3---3---3--------|
E|-----------------------------------------|

e|-------------------------------------|
B|---0-----0----------------0---3---5--|
G|-2-----2-----2-0--0---2--------------|
D|-2----------------2------------------|
A|-2---2-----2------3-3---3---3---3----|
E|-------------------------------------|

e|-2h3-----0---0-2-0------|
B|-----0-3---3---3---3----|
G|-------0---0---2-----2--|
D|-2-------------0--------|
A|-------3---3------------|
E|------------------------|



Chorus:
You were the first to say 
That we were not okay 
You were the first to lie 
When we were not alright 
This was my first love 
She was the first to go 
And when she left me for you 
I was the last to know 

e|-2h3-------0-------0-2--|-2h3-------0---0-2-0------|
B|-----0-3-0---3-0-3-3----|-----0-3-0---3---3---3-0--|
G|-------0-----0-----2----|-------0-----0---2--------|
D|-2-----------------0----|-2---------------0--------|
A|-------3-----3----------|-------3-----3------------|
E|------------------------|--------------------------|

e|-2h3-------0-------0-2--|-2-0---------------------0-2---2-3-0----|
B|-----0-3-0---3-0-3-3----|-0-----0---0-----------3---3-3-------3--|
G|-------0-----0-----2----|-0---2-----------------0---2------------|
D|-2-----------------0----|-2---2---2---2-4-5-4-2-2---0------------|
A|-------3-----3----------|-----3-----------------3----------------|
E|------------------------|----------------------------------------|



Verse:
Why didn't she tell me 
Where to go tonight 
She didn't say a word 
She just walked away 

e|------------------------------0---2--|
B|---0-----0------------0---3-------3--|
G|-2-----2-----2-0--2---------------2--|
D|-2----------------2---------------0--|
A|-2---2-----2------3-3---3---3---3----|
E|-------------------------------------|

e|-----------------------------------------|
B|---0-----0----------------0---3---5-3-5--|
G|-2-----2-----2-0--0---2------------------|
D|-2----------------2----------------------|
A|-2---2-----2------3-3---3---3---3--------|
E|-----------------------------------------|

e|------------------------------0---2--|
B|---0-----0------------0---3-------3--|
G|-2-----2-----2-0--2---------------2--|
D|-2----------------2---------------0--|
A|-2---2-----2------3-3---3---3---3----|
E|-------------------------------------|

e|-------------------------------------|
B|---0-----0----------------0---3---5--|
G|-2-----2-----2-0--0---2--------------|
D|-2----------------2------------------|
A|-2---2-----2------3-3---3---3---3----|
E|-------------------------------------|


e|---0-2-0------|
B|-3---3---3----|
G|-0---2-----2--|
D|-----0--------|
A|-3------------|
E|--------------|


Chorus:
You were the first to say 
That we were not okay 
You were the first to lie 
When we were not alright 
This was my first love 

She was the first to go 
And when she left me for you 
I was the last to know 

e|-2h3-------0-------0-2--|-2h3-------0---0-2-0------|
B|-----0-3-0---3-0-3-3----|-----0-3-0---3---3---3-0--|
G|-------0-----0-----2----|-------0-----0---2--------|
D|-2-----------------0----|-2---------------0--------|
A|-------3-----3----------|-------3-----3------------|
E|------------------------|--------------------------|

e|-2h3-------0-------0-2--|-2-0---------------------0-2---2-3-0----|
B|-----0-3-0---3-0-3-3----|-0-----0---0-----------3---3-3-------3--|
G|-------0-----0-----2----|-0---2-----------------0---2------------|
D|-2-----------------0----|-2---2---2---2-4-5-4-2-2---0------------|
A|-------3-----3----------|-----3-----------------3----------------|
E|------------------------|----------------------------------------|



Bridge:

e|-------0-0-------0-0-1-0-3-0-0-1-0------|
B|-1-1-3-------1-3-----3-----------0-0----|
G|-0---------2---------2-----------0---0--|
D|-2---------2---------0-----------2-2----|
A|-3---------0-------------------------3--|
E|----------------------------------------|

Chorus:
I'll be the first to say
That now I'm okay
And for the first time
I've opened up my eyes
This was my worst love
You'll be the first to go
And when she leaves you for dead
You'll be the last to know

e|-2h3-------0-------0-2--|-2h3-------0---0-2-0------|
B|-----0-3-0---3-0-3-3----|-----0-3-0---3---3---3-0--|
G|-------0-----0-----2----|-------0-----0---2--------|
D|-2-----------------0----|-2---------------0--------|
A|-------3-----3----------|-------3-----3------------|
E|------------------------|--------------------------|

e|-2h3-------0-------0-2--|-2-0---------------------0-2---2-3-0----|
B|-----0-3-0---3-0-3-3----|-0-----0---0-----------3---3-3-------3--|
G|-------0-----0-----2----|-0---2-----------------0---2------------|
D|-2-----------------0----|-2---2---2---2-4-5-4-2-2---0------------|
A|-------3-----3----------|-----3-----------------3----------------|
E|------------------------|----------------------------------------|



Chorus:
I'll be the first to say
That now I'm okay
And for the first time
I've opened up my eyes
This was my worst love
You'll be the first to go
And when she leaves you for dead
You'll be the last to know

e|-2h3-------0-------0-2--|-2h3-------0---0-2-0------|
B|-----0-3-0---3-0-3-3----|-----0-3-0---3---3---3-0--|
G|-------0-----0-----2----|-------0-----0---2--------|
D|-2-----------------0----|-2---------------0--------|
A|-------3-----3----------|-------3-----3------------|
E|------------------------|--------------------------|





e|-2h3-------0-------0-2--|-2-0---------------------0-2---2-3-2-0-------|
B|-----0-3-0---3-0-3-3----|-0-----0---0-----------3---3-3---------3-0~--|
G|-------0-----0-----2----|-0---2-----------------0---2-------------0~--|
D|-2-----------------0----|-2---2---2---2-4-5-4-2-2---0-------------2~--|
A|-------3-----3----------|-----3-----------------3-----------------2~--|
E|------------------------|---------------------------------------------|








| /  slide up
| \  slide down
| h  hammer-on
| p  pull-off
| ~  vibrato
| +  harmonic
| x  Mute note
=============================================================================



_____________________________________________________________________________
08. Someone Who Cares________________________________________________________



Artist: Three Days Grace
Song: Someone Who Cares

Tabbed by: Joshua Garcia (halofreak731@aol.com)

Tabs for the song: Someone Who Cares by Three Days Grace
Please rate and let me know if you have any corrections. Thank you.

*Updated on 10/19/09 - Fixed the Bridge as suggested...because I'm someone who cares! lol

*Updated on 11/20/09 - As pointed out I completely forgot to tab out the 
change for the 2nd guitar on the last chorus. It's now fixed.


Tuning: Drop D (D A D G B E)


Intro
Guitar 1:
E||--------------------------------|
B||--------------------------------|
G||-------10------8----------------| x3
D||-1--3--x--1-3--x--1-3-3---------|
A||-1--3--8--1-3--6--1-3-3--3b4r3--|
D||-1--3-----1-3-----1-3-3---------|


E||----------------|
B||----------------|
G||-------10----6--|
D||-1--3--x--1--6--|
A||-1--3--8--1--4--|
D||-1--3-----1-----|



Verse
Guitar 2:
E||-------------------------------------------------------------------------|
B||---------4-----------4-3----------------4------------3------------4-3----|
G||-------5------------------5-----------5---5---------------------5-----5--| x2
D||---5--------------5--------------3--5--------------5---------5-----------|
A||-3-------------3----------------------------6----3---------3-------------|
D||-----------------------------------------------5-------------------------|



E||----5------------------------------------------------|
B||--6---6----------6------------8------------8---------|
G||--------7------5---5--------7---7--------7---7-------| x2
D||----------0----------3-0----------5-0----------5-0---|
A||-----------------------------------------------------|
D||-----------------------------------------------------|



Chorus
Guitar 1:
E||---------------------------------------------------------|
B||---------------------------------------------------------|
G||-----------------3-3-3-3-3-3-3-3-5-5-5-5-5-5-5-5-5-5-5---|
D||-0-0-0-0-0-0-0-0-3-3-3-3-3-3-3-3-5-5-5-5-5-5-5-5-5-5-5---|
A||-0-0-0-0-0-0-0-0-1-1-1-1-1-1-1-1-3-3-3-3-3-3-3-3-3-3-3---|
D||-0-0-0-0-0-0-0-0-----------------------------------------|


E||-----------|
B||-----------|
G||------3-2--| (Back to chorus)
D||-3-2-------|
A||-----------|
D||-----------|


Guitar 2:




E||----5------------------------------------------------|
B||--6---6----------6------------8------------8---------|
G||--------7------5---5--------7---7--------7---7-------|
D||----------0----------3-0----------5-0----------5-0---|
A||-----------------------------------------------------|
D||-----------------------------------------------------|



Verse
Guitar 2:
E||-------------------------------------------------------------------------|
B||---------4-----------4-3----------------4------------3------------4-3----|
G||-------5------------------5-----------5---5---------------------5-----5--|
D||---5--------------5--------------3--5--------------5---------5-----------|
A||-3-------------3----------------------------6----3---------3-------------|
D||-----------------------------------------------5-------------------------|



Chorus
Guitar 1:
E||---------------------------------------------------------|
B||---------------------------------------------------------|
G||-----------------3-3-3-3-3-3-3-3-5-5-5-5-5-5-5-5-5-5-5---|
D||-0-0-0-0-0-0-0-0-3-3-3-3-3-3-3-3-5-5-5-5-5-5-5-5-5-5-5---|
A||-0-0-0-0-0-0-0-0-1-1-1-1-1-1-1-1-3-3-3-3-3-3-3-3-3-3-3---|
D||-0-0-0-0-0-0-0-0-----------------------------------------|


E||-----------|
B||-----------|
G||------3-2--| (Back to chorus) x4
D||-3-2-------|
A||-----------|
D||-----------|


Guitar 2:
E||----5------------------------------------------------|
B||--6---6----------6------------8------------8---------|
G||--------7------5---5--------7---7--------7---7-------| x4
D||----------0----------3-0----------5-0----------5-0---|
A||-----------------------------------------------------|
D||-----------------------------------------------------|



Bridge
Guitar 1:
E||----------------------|-----------------------|-------------------|-------------------|
B||----------------------|-----------------------|-------------------|-------------------|
G||----------------------|-----5-----5----5------|-----3-----3---3---|-----5-----5---5---|
D||------------------x5--|-------------------x2--|-------------------|-------------------|
A||-35355-35355-355------|-3535--3535--35--------|-3535--3535--35----|-3535--3535--35----|
D||----------------------|-----------------------|-------------------|-------------------|


E||----------------------|-----------------------|-------------------|-------------------|
B||-----3-----3---3------|-----------------------|-------------------|-------------------|
G||----------------------|-----5-----5---5-------|-----3-----3---3---|-----5-----5---5---|
D||------------------x4--|-------------------x2--|-------------------|-------------------|
A||-3535--3535--35-------|-3535--3535--35--------|-3535--3535--35----|-3535--3535--35----|
D||----------------------|-----------------------|-------------------|-------------------|


E||------------------------------------|
B||------------------------------------|
G||------------------------------------|
D||-5-5-5-5-5-5-5-5-5-5-5-5-5-5-5-5-5--|
A||-5-5-5-5-5-5-5-5-5-5-5-5-5-5-5-5-5--|
D||-5-5-5-5-5-5-5-5-5-5-5-5-5-5-5-5-5--|




Chorus
Guitar 1:
E||---------------------------------------------------------|
B||---------------------------------------------------------|
G||-----------------6-6-6-6-6-6-6-6-8-8-8-8-8-8-8-8-8-8-8---|
D||-3-3-3-3-3-3-3-3-6-6-6-6-6-6-6-6-8-8-8-8-8-8-8-8-8-8-8---|
A||-3-3-3-3-3-3-3-3-4-4-4-4-4-4-4-4-6-6-6-6-6-6-6-6-6-6-6---|
D||-3-3-3-3-3-3-3-3-----------------------------------------|


E||-----------|
B||-----------|
G||------6-5--| (Back to chorus) x3
D||-6-5-------|
A||-----------|
D||-----------|


E||----------------------------|
B||----------------------------|
G||-----------------6-6-6-6----|
D||-3-3-3-3-3-3-3-3-6-6-6-6----|
A||-3-3-3-3-3-3-3-3-4-4-4-4----|
D||-3-3-3-3-3-3-3-3------------|


Guitar 2:
E||--------------------------------------------------------------------------------|
B||-----------------------4-4-4-4-4-6-6-6----------4-4-4-4-------------------------|
G||-------------3-3-5-5-5-----------------3-3-3-3-3----------6-5-------------------| x4
D||-3-3-3-3-3-3------------------------------------------6-5-----------------------|
A||--------------------------------------------------------------------------------|
D||--------------------------------------------------------------------------------|



Outro
Guitar 1:
E||--------------------------------|-------------------|
B||--------------------------------|-------------------|
G||-------10------8----------------|-------10------6---|
D||-1--3--x--1-3--x--1-3-3---------|-1--3--x--1-3--6---|
A||-1--3--8--1-3--6--1-3-3--3b4r3--|-1--3--8--1-3--4---|
D||-1--3-----1-3-----1-3-3---------|-1--3-----1-3------|




Tablature Legend
----------------
 h   - hammer-on
 p   - pull-off
 b   - bend
 r   - release bend
 *   - pinch harmonic
 x   - mute note
 .   - palm mute
 /   - slide down
 \   - slide up



_____________________________________________________________________________
09. Bully____________________________________________________________________



Artist: Three Days Grace
Song: Bully

-------------------------------------------------------------------------------
     BULLY - Three Days Grace
-------------------------------------------------------------------------------
Tabbed by: Corbin Nesa
Email: c_nesa@hotmail.com

       Lemme know what you think!

Tuning: Dropped C

Intro
D|---------------------------------------------------------------------|
A|---------------------------------------------------------------------|
F|----------------------------------------------------------------(5)--|
C|--4-3---3-3-0---0---0---0---0---0-4-3---3-3-0---0---0---0----(5)-----|
G|--4-3---3-3-0---0---0---0---0---0-4-3---3-3-0---0---0---0-(5)--------|
C|--4-3---3-3-0---0---0---0---0---0-4-3---3-3-0---0---0---0------------|

D|---------------------------------------------------------------------|
A|---------------------------------------------------------------------|
F|---------------------------------------------------------------------|
C|--4-3---3-3-0---0---0---0---0---0-4-3---3-3-0---0---0---0-0----------|
G|--4-3---3-3-0---0---0---0---0---0-4-3---3-3-0---0---0---0-0----------|
C|--4-3---3-3-0---0---0---0---0---0-4-3---3-3-0---0---0---0-0----------|

Verse 1
D|---------------------------------------------------------------------|
A|---------------------------------------------------------------------|
F|----------------------------------------------------------------(5)--|
C|--4-3---3-3-0---0---0---0-0---0-0-4-3---3-3-0---0---0---0----(5)-----|
G|--4-3---3-3-0---0---0---0-0---0-0-4-3---3-3-0---0---0---0-(5)--------|
C|--4-3---3-3-0---0---0---0-0---0-0-4-3---3-3-0---0---0---0------------| \
    . .   . . .   .   .   . .   . . . .   . . .   .   .   .               \
                                                                           X2
                                                                          /
D|---------------------------------------------------------------------| /
A|---------------------------------------------------------------------|
F|---------------------------------------------------------------------|
C|--4-3---3-3-0---0---0---0-0---0-0-10--------------0-0-5--------------|
G|--4-3---3-3-0---0---0---0-0---0-0-10--------------0-0-5--------------|
C|--4-3---3-3-0---0---0---0-0---0-0-10--------------0-0-5--------------|
    . .   . . .   .   .   . .   . .                 . .

Chorus (feel free to play with hammer ons and pull offs)

Guitar 1
D|---------------------------------------------------------------------|
A|---------------------------------------------------------------------|
F|---------------------------------------------------------------------|
C|--4-5---7-5-4-3-5-2-0---0-0-------4-5---7-5-4-3-5-2-0---0-0----------|
G|--4-5---7-5-4-3-5-2-0---0-0-------4-5---7-5-4-3-5-2-0---0-0----------|
C|--4-5---7-5-4-3-5-2-0---0-0-------4-5---7-5-4-3-5-2-0---0-0----------|
Guitar 2                                                                
D|---------------------------------------------------------------------|
A|----------------------------------------------------------13~--------|
F|------------------/14~----12~---------------------/14~---------------|
C|---------------------------------------------------------------------| \
G|---------------------------------------------------------------------|  \
C|---------------------------------------------------------------------|   \
                                                                           X2
Guitar 1                                                                   /
D|---------------------------------------------------------------------|  /
A|---------------------------------------------------------------------| /
F|---------------------------------------------------------------------|
C|--4-5---7-5-4-3-5-2-0---0-0-------10------------x-x-5----------------|
G|--4-5---7-5-4-3-5-2-0---0-0-------10------------x-x-5----------------|
C|--4-5---7-5-4-3-5-2-0---0-0-------10------------x-x-5----------------|
Guitar 2
D|---------------------------------------------------------------------|
A|---------------------------------------------------------------------|
F|------------------/14~----12~----------------------------------------|
C|---------------------------------------------------------------------|
G|---------------------------------------------------------------------|
C|---------------------------------------------------------------------|


Pre Verse 2
D|---------------------------------------------------------------------|
A|---------------------------------------------------------------------|
F|---------------------------------------------------------------------|
C|--4-3---3-3-0---0---0---0---0---0-4-3---3-3-0---0---0---0-0----------|
G|--4-3---3-3-0---0---0---0---0---0-4-3---3-3-0---0---0---0-0----------|
C|--4-3---3-3-0---0---0---0---0---0-4-3---3-3-0---0---0---0-0----------|

Verse 2
D|---------------------------------------------------------------------|
A|---------------------------------------------------------------------|
F|----------------------------------------------------------------(5)--|
C|--4-3---3-3-0---0---0---0-0---0-0-4-3---3-3-0---0---0---0----(5)-----|
G|--4-3---3-3-0---0---0---0-0---0-0-4-3---3-3-0---0---0---0-(5)--------|
C|--4-3---3-3-0---0---0---0-0---0-0-4-3---3-3-0---0---0---0------------| \
    . .   . . .   .   .   . .   . . . .   . . .   .   .   .               \
                                                                           X2
                                                                          /
D|---------------------------------------------------------------------| /
A|---------------------------------------------------------------------|
F|---------------------------------------------------------------------|
C|--4-3---3-3-0---0---0---0-0---0-0-10--------------0-0-5--------------|
G|--4-3---3-3-0---0---0---0-0---0-0-10--------------0-0-5--------------|
C|--4-3---3-3-0---0---0---0-0---0-0-10--------------0-0-5--------------|
    . .   . . .   .   .   . .   . .                 . .

Chorus

Guitar 1
D|---------------------------------------------------------------------|
A|---------------------------------------------------------------------|
F|---------------------------------------------------------------------|
C|--4-5---7-5-4-3-5-2-0---0-0-------4-5---7-5-4-3-5-2-0---0-0----------|
G|--4-5---7-5-4-3-5-2-0---0-0-------4-5---7-5-4-3-5-2-0---0-0----------|
C|--4-5---7-5-4-3-5-2-0---0-0-------4-5---7-5-4-3-5-2-0---0-0----------|
Guitar 2                                                                
D|---------------------------------------------------------------------|
A|----------------------------------------------------------13~--------|
F|------------------/14-~---12~---------------------/14~---------------|
C|---------------------------------------------------------------------| \
G|---------------------------------------------------------------------|  \
C|---------------------------------------------------------------------|   \
                                                                           X2
Guitar 1                                                                   /
D|---------------------------------------------------------------------|  /
A|---------------------------------------------------------------------| /
F|---------------------------------------------------------------------|
C|--4-5---7-5-4-3-5-2-0---0-0-------10------------x-x-5----------------|
G|--4-5---7-5-4-3-5-2-0---0-0-------10------------x-x-5----------------|
C|--4-5---7-5-4-3-5-2-0---0-0-------10------------x-x-5----------------|
Guitar 2
D|---------------------------------------------------------------------|
A|---------------------------------------------------------------------|
F|------------------/14~----12~----------------------------------------|
C|---------------------------------------------------------------------|
G|---------------------------------------------------------------------|
C|---------------------------------------------------------------------|


Bridge
D|---------------------------------------| X4
A|---------------------------------------|
F|---------------------------------------|
C|----------5p4p0h1----------------------|
G|---------------------------------------|
C|--0---0---------------0---0---5p3p0-3--|
    .   .   .......     .   .   .....

D|---------------------------------------| X4
A|---------------------------------------|
F|---------------------------------------|
C|--0---0---5p4p0h1-----0---0---5p3p0h3--|
G|--0---0---5p4p0h1-----0---0---5p3p0h3--|
C|--0---0---5p4p0h1-----0---0---5p3p0p3--|


Guitar 1
D|---------------------------------------|
A|---------------------------------------|
F|---------------------------------------|
C|--0-------5p4p0h1---------0---5p3p0h3--|
G|--0-------5p4p0h1---------0---5p3p0h3--| \
C|--0-------5p4p0h1---------0---5p3p0p3--|  \
Guitar 2                                     X5
D|---------------------------------------|  /
A|---------------------------------------| /
F|----------/17~-------------------------|
C|--/10~---------------------------------|
G|---------------------------------------|
C|---------------------------------------|

D|------------------------|
A|------------------------|
F|------------------------|
C|--10---10-10-10---------|
G|--10---10-10-10---------|
C|--10---10-10-10---------|

Chorus

Guitar 1
D|---------------------------------------------------------------------|
A|---------------------------------------------------------------------|
F|---------------------------------------------------------------------|
C|--4-5---7-5-4-3-5-2-0---0-0-------4-5---7-5-4-3-5-2-0---0-0----------|
G|--4-5---7-5-4-3-5-2-0---0-0-------4-5---7-5-4-3-5-2-0---0-0----------|
C|--4-5---7-5-4-3-5-2-0---0-0-------4-5---7-5-4-3-5-2-0---0-0----------|
Guitar 2                                                                
D|---------------------------------------------------------------------|
A|----------------------------------------------------------13~--------|
F|------------------/14-~---12~---------------------/14~---------------|
C|---------------------------------------------------------------------| \
G|---------------------------------------------------------------------|  \
C|---------------------------------------------------------------------|   \
                                                                           X2
Guitar 1                                                                   /
D|---------------------------------------------------------------------|  /
A|---------------------------------------------------------------------| /
F|---------------------------------------------------------------------|
C|--4-5---7-5-4-3-5-2-0---0-0-------10------------x-x-5----------------|
G|--4-5---7-5-4-3-5-2-0---0-0-------10------------x-x-5----------------|
C|--4-5---7-5-4-3-5-2-0---0-0-------10------------x-x-5----------------|
Guitar 2
D|---------------------------------------------------------------------|
A|---------------------------------------------------------------------|
F|------------------/14~----12~----------------------------------------|
C|---------------------------------------------------------------------|
G|---------------------------------------------------------------------|
C|---------------------------------------------------------------------|

Outro
D|---------------------------------------------------------------------|
A|---------------------------------------------------------------------|
F|----------------------------------------------------------------(5)--|
C|--4-3---3-3-0---0---0---0---0---0-4-3---3-3-0---0---0---0----(5)-----|
G|--4-3---3-3-0---0---0---0---0---0-4-3---3-3-0---0---0---0-(5)--------|
C|--4-3---3-3-0---0---0---0---0---0-4-3---3-3-0---0---0---0------------|

Enjoy

| /  slide up
| \  slide down
| h  hammer-on
| p  pull-off
| ~  vibrato
|(n) natural harmonic
| x  Mute note
=============================================================================




_____________________________________________________________________________
10. Without You______________________________________________________________



Artist: Three Days Grace
Song: Without You

-------------------------------------------------------------------------------
                       WITHOUT YOU: Three Days Grace
-------------------------------------------------------------------------------
Tabbed by: TheThirdDay
Email: TheThirdDaySH@gmail.com

One of my favorites off of Life Starts Now. Pretty basic song, even the solo is
easy. Played from Drop D. I tabbed this partially by mariewong's bass tab and
ear. What mariewong tabbed seems pretty good, but the parts I tabbed may be off.
Rate it based off it's accuracy.

Also, thanks to kiklogik at YouTube, who's cover has used as a reference for
parts of the tab. Video can be found here:
http://www.youtube.com/watch?v=u-S1oh1cy2o


------------------------------------------------


Intro Riff:

Guitar 2:

e|----------------------------------------------|
b|----------------------------------------------|
g|----------------------------------------------|
d|----------------------------------------------|
a|----------------------------------------------|
d|-999999-121212121212-555555555555-------------| x2
          ^12's


Verse Riff:

Guitar 2:

e|----------------------------------------------|
b|----------------------------------------------|
g|----------------------------------------------|
d|----------------------------------------------|
a|----------------------------------------------|
d|-999999-121212121212-555555555555-------------| x2
          ^12's

e|----------------------------------------------|
b|----------------------------------------------|
g|----------------------------------------------|
d|----------------------------------------------|
a|----------------------------------------------|
d|-777777-999999-555555555555-------------------| x2

(While Guitar 2 repeats the above,) Guitar 1:

e|----------------------------------------------|
b|----------------------------------------------|
g|-----------------------12-12------------------|
d|-9-9-11-11-11-11-12-12------------------------|
a|-----------------------------8-8-8-8-8-8-8...-|
d|----------------------------------------------| x2
       ^11's       ^..&..^12's        ^repeat 8's until next repetition
Chorus Riff:

Guitar 2:

e|----------------------------------------------|
b|----------------------------------------------|
g|----------------------------------------------|
d|-10-10-10-10-10-10-10-10-0-0-0-0-0-0-0-0------|
a|-10-10-10-10-10-10-10-10-0-0-0-0-0-0-0-0------|    (First 2 repetitions=1/8ths
d|-10-10-10-10-10-10-10-10-0-0-0-0-0-0-0-0------| x3  Third repetition=1/16ths)
   ^ 10's

Guitar 1 (This could be off, feedback is appreciated):



e|----------------------------------------------|
b|----------------------------------------------|
g|-5-7-7-5-5-5-5-5------------------------------|
d|-----------------0-0-7-7-5-5-4h5p4------------|
a|----------------------------------------------|
d|----------------------------------------------| x2

e|----------------------------------------------|
b|----------------------------------------------|
g|-55-7777-555555-4444--------------------------|
d|---------------------0000-777-5555-454--------|
a|----------------------------------------------|
d|----------------------------------------------| x1

Guitars 1 & 2:

e|----------------------------------------------|
b|----------------------------------------------|
g|----------------------------------------------|
d|-9-9-9-9-9-9-9-997-7-7-7----------------------|
a|-9-9-9-9-9-9-9-997-7-7-7----------------------|
d|-9-9-9-9-9-9-9-997-7-7-7----------------------| x1


Solo (Not 100% sure of this):

Guitar 1:

e|-12--12-14h15p14--14-12-15h17p15-|
b|---------------------------------|
g|---------------------------------|
d|---------------------------------|
a|---------------------------------|
d|---------------------------------|


e|-14-15-14-12--15-14-12--11b-|
b|----------------------------|
g|----------------------------|
d|----------------------------|
a|----------------------------|
d|----------------------------|


e|-11b-11b-11b-11h12p11-----11h12p11----|
b|----------------------11-----------10-|
g|--------------------------------------|
d|--------------------------------------|
a|--------------------------------------|
d|--------------------------------------|


e|-14--14-17b-14-15--14-15-14-12--15-14-12-|
b|-----------------------------------------|
g|-----------------------------------------|
d|-----------------------------------------|
a|-----------------------------------------|
d|-----------------------------------------|


e|-12b-13--12b-12b-12b-12h13p12-----11h12p11-----|
b|------------------------------11-----------10--|
g|-----------------------------------------------|
d|-----------------------------------------------|
a|-----------------------------------------------|
d|-----------------------------------------------|

Guitar 2:

e|--------------------------------------------------|
b|--------------------------------------------------|
g|--------------------------------------------------|
d|-12---12-10-9-10---10---3-33333-5---5-5-7-8---8-7-|
a|-12---12-10-9-10---10---3-33333-5---5-5-7-8---8-7-|
d|-12---12-10-9-10---10---3-33333-5---5-5-7-8---8-7-| x2

Bridge:

Guitar 2 only:

e|----------------------|
b|----------------------|
g|-5----5-------7-------|
d|-5----5-------7-------|
a|-3----3-------5-------|
d|----------------------| x3

Guitars 1 & 2:

e|----------------------------------------------|
b|----------------------------------------------|
g|----------------------------------------------|
d|-9-9-9-9-9-9-9-997-7-7-7----------------------|
a|-9-9-9-9-9-9-9-997-7-7-7----------------------|
d|-9-9-9-9-9-9-9-997-7-7-7----------------------|

Outro:

Guitars 1 & 2:

e|----------------------------------------------|
b|----------------------------------------------|
g|----------------------------------------------|
d|-9---9---9---9---7-------7--------------------|
a|-9---9---9---9---7-------7--------------------|
d|-9---9---9---9---7-------7--------------------|




_____________________________________________________________________________
11. Goin Down________________________________________________________________




Artist: Three Days Grace
Song: Goin Down

Three Days Grace
Goin Down
Tabbed by U B the band
Tuning D A D G B e

Legend
pm-palm mute                   v-vibrato                  *-harmonic

Intro: Guitar 1
e|--------------------------------------------------------------------|
B|------------------------------------------------------17----16------|
G|--------------14----------------------------14----------------------|
D|--14----15----------------------14----15----------------------------|
A|--------------------------------------------------------------------|
D|--------------------------------------------------------------------|

Verse 1: Guitar 1 PLAY 3 TIMES
e|--------------------------------------------------------------------|
B|----------------------------------------13--------12----------------|
G|----------------------14------------------------------------14------|
D|----------14----15--------------------------------------------------|
A|--------------------------------------------------------------------|
D|--------------------------------------------------------------------|

Verse 1: Guitar 1 PLAY 1 TIME
e|--------------------------------------------------------------------|
B|--------------------------------------------------------------------|
G|----------------------14--------------------------------------------|
D|----------14----15--------------------------------------------------|
A|--------------------------------------------------------------------|
D|--------------------------------------------------------------------|
                                                                      |
Verse 1: Guitar 2 (Distorted) PLAY 1 TIME                             |
e|--------------------------------------------------------------------|
B|--------------------------------------------------------------------|
G|--------------------------------------------------------------------|
D|--------------------------------3-3-3-3-3-3-3-3--3---3--------------|
A|--------------------------------3-3-3-3-3-3-3-3--3---3--------------|
D|--------------------------------3-3-3-3-3-3-3-3--3---3--------------|
                                  pmpmpmpmpmpmpmpm

Chorus: Guitars 1 & 2 (Distorted)
e|--------------------------------------------------------------------|
B|--------------------------------------------------------------------|
G|--------------------------------------------------------------------|
D|--12-0---0-3-0---0-6-7-6-0-3-0----0-12-0---0-3-0---0-6-7-6-0-3-0----|
A|--12-0---0-3-0---0-6-7-6-0-3-0----0-12-0---0-3-0---0-6-7-6-0-3-0----|
D|--12-0---0-3-0---0-6-7-6-0-3-0----0-12-0---0-3-0---0-6-7-6-0-3-0----|

Chorus: Guitar 1 (Distorted with WAH)
e|--------------------------------------------------------------------|
B|--------------------------------------------------------------------|
G|----------------------14-14-14-14----14v----------------------------|
D|-----------------------x--x--x--x-----------------------------------|
A|----------------------12-12-12-12-----------------------------------|
D|--------------------------------------------------------------------|
                                                                      |
Chorus: Guitar 2 (Distorted)                                          |
e|--------------------------------------------------------------------|
B|--------------------------------------------------------------------|
G|--------------------------------------------------------------------|
D|--7*--12-0---0-3-0---0-6-7-6-0-3-0---0--3--3--3--3--10--10--10--10--|
A|------12-0---0-3-0---0-6-7-6-0-3-0---0--3--3--3--3--10--10--10--10--|
D|------12-0---0-3-0---0-6-7-6-0-3-0---0--3--3--3--3--10--10--10--10--|

Post Chorus: Guitar 1
e|--------------------------------------------------------------------|
B|------------------------------------------------------17----16------|
G|--------------14----------------------------14----------------------|
D|--14----15----------------------14----15----------------------------|
A|--------------------------------------------------------------------|
D|--------------------------------------------------------------------|

Verse 2: Guitar 1 PLAY 3 TIMES


e|--------------------------------------------------------------------|
B|----------------------------------------13--------12----------------|
G|----------------------14------------------------------------14------|
D|----------14----15--------------------------------------------------|
A|--------------------------------------------------------------------|
D|--------------------------------------------------------------------|

Verse 2: Guitar 1 PLAY 1 TIME
e|--------------------------------------------------------------------|
B|--------------------------------------------------------------------|
G|----------------------14--------------------------------------------|
D|----------14----15--------------------------------------------------|
A|--------------------------------------------------------------------|
D|--------------------------------------------------------------------|
                                                                      |
Verse 2: Guitar 2 (Distorted) PLAY 1 TIME                             |
e|--------------------------------------------------------------------|
B|--------------------------------------------------------------------|
G|--------------------------------------------------------------------|
D|--------------------------------3-3-3-3-3-3-3-3--3---3--------------|
A|--------------------------------3-3-3-3-3-3-3-3--3---3--------------|
D|--------------------------------3-3-3-3-3-3-3-3--3---3--------------|
                                  pmpmpmpmpmpmpmpm

Chorus: Guitars 1 & 2 (Distorted) PLAY CHORUS 2 TIMES
e|--------------------------------------------------------------------|
B|--------------------------------------------------------------------|
G|--------------------------------------------------------------------|
D|--12-0---0-3-0---0-6-7-6-0-3-0----0-12-0---0-3-0---0-6-7-6-0-3-0----|
A|--12-0---0-3-0---0-6-7-6-0-3-0----0-12-0---0-3-0---0-6-7-6-0-3-0----|
D|--12-0---0-3-0---0-6-7-6-0-3-0----0-12-0---0-3-0---0-6-7-6-0-3-0----|

Chorus: Guitar 1 (Distorted with WAH)
e|--------------------------------------------------------------------|
B|--------------------------------------------------------------------|
G|----------------------14-14-14-14----14v----------------------------|
D|-----------------------x--x--x--x-----------------------------------|
A|----------------------12-12-12-12-----------------------------------|
D|--------------------------------------------------------------------|
                                                                      |
Chorus: Guitar 2 (Distorted)                                          |
e|--------------------------------------------------------------------|
B|--------------------------------------------------------------------|
G|--------------------------------------------------------------------|
D|--7*--12-0---0-3-0---0-6-7-6-0-3-0---0--3--3--3--3--10--10--10--10--|
A|------12-0---0-3-0---0-6-7-6-0-3-0---0--3--3--3--3--10--10--10--10--|
D|------12-0---0-3-0---0-6-7-6-0-3-0---0--3--3--3--3--10--10--10--10--|

Bridge: Guitars 1 & 2
e|--------------------------------------------------------------------|
B|--------------------------------------------------------------------|
G|--------------------------------------------------------------------|
D|--0-----12-----0-----7-----0-----10-----0-----5--------5--5--5------|
A|--0-----12-----0-----7-----0-----10-----0-----5--------5--5--5------|
D|--0-----12-----0-----7-----0-----10-----0-----5--------5--5--5------|

Bridge: Guitars 1 & 2
e|--------------------------------------------------------------------|
B|--------------------------------------------------------------------|
G|--------------------------------------------------------------------|
D|--0-----12-----0-----7-----0-----10---------10--10-----13--12-------|
A|--0-----12-----0-----7-----0-----10---------10--10-----13--12-------|
D|--0-----12-----0-----7-----0-----10---------10--10-----13--12-------|

Bridge: Guitars 1 & 2
e|--------------------------------------------------------------------|
B|--------------------------------------------------------------------|
G|--------------------------------------------------------------------|
D|--0-----12-----0-----7-----0-----10-----0-----5--------5--5--5------|
A|--0-----12-----0-----7-----0-----10-----0-----5--------5--5--5------|
D|--0-----12-----0-----7-----0-----10-----0-----5--------5--5--5------|

Bridge: Guitars 1 & 2



e|--------------------------------------------------------------------|
B|--------------------------------------------------------------------|
G|--------------------------------------------------------------------|
D|--0-----12-----0-----7-----0-----10--10--10--10--10--10--10--10-----|
A|--0-----12-----0-----7-----0-----10--10--10--10--10--10--10--10-----|
D|--0-----12-----0-----7-----0-----10--10--10--10--10--10--10--10-----|

Chorus: Guitars 1 (Distorted with FUZZ) PLAY 1 TIME
e|--------------------------------------------------------------------|
B|--------------------------------------------------------------------|
G|--------------------------------------------------------------------|
D|--12-0---0-3-0---0-6-7-6-0-3-0----0-12-0---0-3-0---0-6-7-6-0-3-0----|
A|--12-0---0-3-0---0-6-7-6-0-3-0----0-12-0---0-3-0---0-6-7-6-0-3-0----|
D|--12-0---0-3-0---0-6-7-6-0-3-0----0-12-0---0-3-0---0-6-7-6-0-3-0----|

Chorus: Guitars 1 & 2 (Distorted) PLAY CHORUS 2 TIMES
e|--------------------------------------------------------------------|
B|--------------------------------------------------------------------|
G|--------------------------------------------------------------------|
D|--12-0---0-3-0---0-6-7-6-0-3-0----0-12-0---0-3-0---0-6-7-6-0-3-0----|
A|--12-0---0-3-0---0-6-7-6-0-3-0----0-12-0---0-3-0---0-6-7-6-0-3-0----|
D|--12-0---0-3-0---0-6-7-6-0-3-0----0-12-0---0-3-0---0-6-7-6-0-3-0----|

Chorus: Guitar 1 (Distorted with WAH)
e|--------------------------------------------------------------------|
B|--------------------------------------------------------------------|
G|----------------------14-14-14-14----14v----------------------------|
D|-----------------------x--x--x--x-----------------------------------|
A|----------------------12-12-12-12-----------------------------------|
D|--------------------------------------------------------------------|
                                                                      |
Chorus: Guitar 2 (Distorted)                                          |
e|--------------------------------------------------------------------|
B|--------------------------------------------------------------------|
G|--------------------------------------------------------------------|
D|--7*--12-0---0-3-0---0-6-7-6-0-3-0---0--3--3--3--3--10--10--10--10--|
A|------12-0---0-3-0---0-6-7-6-0-3-0---0--3--3--3--3--10--10--10--10--|
D|------12-0---0-3-0---0-6-7-6-0-3-0---0--3--3--3--3--10--10--10--10--|

Finished




_____________________________________________________________________________
12. Life Starts Now__________________________________________________________



Artist: Three Days Grace
Song: Life Starts Now

Three Days Grace
Life Starts Now
Tabbed by U B the band
Tuning D A D G B e

Legend
p-pull off

Intro: Guitar 1 (Clean) PLAY 1 TIME
e|----------------------------------------------10--------------------|
B|-----------13-12---------13----12----------------13-12-----13----12-|
G|-----14----------14---------------------12--------------10----10----|
D|----------------------10----10--------------------------------------|
A|--12----12---------------------------10----10-----------------------|
D|--------------------------------------------------------------------|

Verse 1: Guitar 2 (Low Distortion) PLAY 1 TIME
e|--------------------------------------------------------------------|
B|----------1-0------1p0---0---3------------3-1-0---------------------|
G|-----2--------2------------0-------------------------5-----5--------|
D|-------------------------------------0------------------3--2--------|
A|--0--------------------3-----------------------------------3--------|
D|----------------------------------0---------------3--------2--------|

Verse 1: Guitar 2 (Low Distortion) PLAY 2 TIMES
e|--------------------------------------------------------------------|
B|----------1-0------1p0---0---3------------3-1-0---------------------|
G|-----2--------2------------0-------------------------5-----5--------|
D|-------------------------------------0------------------3--2--------|
A|--0--------------------3-----------------------------------3--------|
D|----------------------------------0---------------3--------2--------|
                                                                      |
Verse 1: Guitar 1 (Low Distortion)                                    |
e|--------------------------------------------------------------------|
B|-----------------------------------------------------------13-12----|
G|-----------------------------------------------------------------14-|
D|--------------------------------------------------------------------|
A|--------------------------------------------------------------------|
D|--------------------------------------------------------------------|

Verse 1: Guitar 2 (Low Distortion) PLAY 1 TIME
e|--------------------------------------------------------------------|
B|----------1-0------1p0---0---3------------3-1-0---------------------|
G|-----2--------2------------0-------------------------5-----5--------|
D|-------------------------------------0------------------3--2--------|
A|--0--------------------3-----------------------------------3--------|
D|----------------------------------0---------------3--------2--------|

Chorus: Guitar 1 (Distorted)
e|--------------------------------------------------------------------|
B|--------------------------------------------------------------------|
G|--2----------------------------------2------5-----------------------|
D|--2------2------3---3---3-3-3-3------2------5------0---0---3-3-3-3--|
A|--0------2------3---3---3-3-3-3------0------3------0---0---3-3-3-3--|
D|---------2------3---3---3-3-3-3--------------------0---0---3-3-3-3--|
                                                                      |
Chorus: Guitar 1 (Low Distortion)                                     |
e|-----------------------------------------------------------0--------|
B|--------------------------0-1---------------------------------------|
G|------------------------------2-------------------------------------|
D|--------------------------------------------------------------------|
A|--------------------------------------------------------------------|
D|--------------------------------------------------------------------|

Chorus: Guitar 1 (Distorted)
e|--------------------------------------------------------------------|
B|--------------------------------------------------------------------|
G|--2----------------------------------2------3--------------------2--|
D|--2------5------3---3---3-3-3-3------2------3------3-------------2--|
A|--0------5------3---3---3-3-3-3------0------1------3-------------0--|
D|---------5------3---3---3-3-3-3--------------------3----------------|
                                                                      |
Chorus: Guitar 1 (Low Distortion)                                     |



e|---------------------------------------------------0----------------|
B|--------------------------3-1-0-------------------------------------|
G|--------------------------------------------------------------------|
D|--------------------------------------------------------------------|
A|--------------------------------------------------------------------|
D|--------------------------------------------------------------------|

Verse 1: Guitar 2 (Low Distortion) PLAY 1 TIME
e|--------------------------------------------------------------------|
B|----------1-0------1p0---0---3------------3-1-0---------------------|
G|-----2--------2------------0-------------------------5-----5--------|
D|-------------------------------------0------------------3--2--------|
A|--0--------------------3-----------------------------------3--------|
D|----------------------------------0---------------3--------2--------|

Verse 1: Guitar 2 (Low Distortion) PLAY 2 TIMES
e|--------------------------------------------------------------------|
B|----------1-0------1p0---0---3------------3-1-0---------------------|
G|-----2--------2------------0-------------------------5-----5--------|
D|-------------------------------------0------------------3--2--------|
A|--0--------------------3-----------------------------------3--------|
D|----------------------------------0---------------3--------2--------|
                                                                      |
Verse 1: Guitar 1 (Clean)                                             |
e|--------------------------------------------------------------------|
B|-----------------------------------------------------------13-12----|
G|-----------------------------------------------------------------14-|
D|--------------------------------------------------------------------|
A|--------------------------------------------------------------------|
D|--------------------------------------------------------------------|

Verse 1: Guitar 2 (Low Distortion) PLAY 1 TIME
e|--------------------------------------------------------------------|
B|----------1-0------1p0---0---3------------3-1-0---------------------|
G|-----2--------2------------0-------------------------5-----5--------|
D|-------------------------------------0------------------3--2--------|
A|--0--------------------3-----------------------------------3--------|
D|----------------------------------0---------------3--------2--------|

Chorus: Guitar 1 (Distorted)
e|--------------------------------------------------------------------|
B|--------------------------------------------------------------------|
G|--2----------------------------------2------5-----------------------|
D|--2------2------3---3---3-3-3-3------2------5------0---0---3-3-3-3--|
A|--0------2------3---3---3-3-3-3------0------3------0---0---3-3-3-3--|
D|---------2------3---3---3-3-3-3--------------------0---0---3-3-3-3--|
                                                                      |
Chorus: Guitar 1 (Low Distortion)                                     |
e|-----------------------------------------------------------0--------|
B|--------------------------0-1---------------------------------------|
G|------------------------------2-------------------------------------|
D|--------------------------------------------------------------------|
A|--------------------------------------------------------------------|
D|--------------------------------------------------------------------|

Chorus: Guitar 1 (Distorted)
e|--------------------------------------------------------------------|
B|--------------------------------------------------------------------|
G|--2----------------------------------2------3--------------------2--|
D|--2------5------3---3---3-3-3-3------2------3------3-------------2--|
A|--0------5------3---3---3-3-3-3------0------1------3-------------0--|
D|---------5------3---3---3-3-3-3--------------------3----------------|
                                                                      |
Chorus: Guitar 1 (Low Distortion)                                     |
e|---------------------------------------------------0----------------|
B|--------------------------3-1-0-------------------------------------|
G|--------------------------------------------------------------------|
D|--------------------------------------------------------------------|
A|--------------------------------------------------------------------|
D|--------------------------------------------------------------------|

Bridge: Guitars 1 & 2 (Distorted)




e|--------------------------------------------------------------------|
B|--------------------------------------------------------------------|
G|--------------------5-----------------------------------5-----------|
D|--0--------3--------5--------5--------0--------3--------5-------5---|
A|--0--------3--------3--------5--------0--------3--------3-------5---|
D|--0--------3-----------------5--------0--------3----------------5---|

Bridge: Guitars 1 & 2 (Distorted)
e|--------------------------------------------------------------------|
B|--------------------------------------------------------------------|
G|---------------------------------------------------5----------------|
D|--0---------------8---------------3----------------5----------------|
A|--0---------------8---------------3----------------3----------------|
D|--0---------------8---------------3---------------------------------|

Chorus: Guitar 1 (Clean)      (Distorted)
e|----------------------------|---------------------------------------|
B|----------------------------|---------------------------------------|
G|----------------------------|---------------------------------------|
D|--9---9-9-9----7---7-7-7----|--5---5---5-5-5------9---9---9-9-9-----|
A|--9---9-9-9----7---7-7-7----|--5---5---5-5-5------9---9---9-9-9-----|
D|--9---9-9-9----7---7-7-7----|--5---5---5-5-5------9---9---9-9-9-----|
                                                                      |
Chorus: Guitar 2 (Distorted)                                          |
e|--------------------------------------------------------------------|
B|-------------------------------12----15----14---------12--15--14--12|
G|--------------------------------------------------------------------|
D|--------------------------------------------------------------------|
A|--------------------------------------------------------------------|
D|--------------------------------------------------------------------|

Chorus: Guitar 1 (Distorted)
e|--------------------------------------------------------------------|
B|--------------------------------------------------------------------|
G|--7--7--7-7-7-------------------------------------------------------|
D|--7--7--7-7-7------7--7--7-7-7------5--5--5-5-5------9------4-------|
A|--5--5--5-5-5------7--7--7-7-7------5--5--5-5-5------9------4-------|
D|-------------------7--7--7-7-7------5--5--5-5-5------9------4-------|
                                                                      |
Chorus: Guitar 2 (Distorted)                                          |
e|--------------------------12----------------------------------------|
B|--15----14------------12-----15-14------15----14-----15-----14------|
G|------------------------------------12------------------------------|
D|--------------------------------------------------------------------|
A|--------------------------------------------------------------------|
D|--------------------------------------------------------------------|

Chorus: Guitar 1 (Distorted)
e|--------------------------------------------------------------------|
B|--------------------------------------------------------------------|
G|------------------------------------7---7---7-7-7-------------------|
D|--5---5---5-5-5----9---9---9-9-9----7---7---7-7-7----7---7---7-7-7--|
A|--5---5---5-5-5----9---9---9-9-9----5---5---5-5-5----7---7---7-7-7--|
D|--5---5---5-5-5----9---9---9-9-9---------------------7---7---7-7-7--|
                                                                      |
Chorus: Guitar 2 (Distorted)                                          |
e|---------------------------------------------------------12---------|
B|--12----15----14------12----15----14----15----14-----12------15--14-|
G|--------------------------------------------------------------------|
D|--------------------------------------------------------------------|
A|--------------------------------------------------------------------|
D|--------------------------------------------------------------------|

Chorus: Guitar 1 (Distorted)
e|--------------------------------------------------------------------|
B|--------------------------------------------------------------------|
G|--------------------------------------------------------------------|
D|--5---5---5-5-5---9---9-9-9----7---7-7-7----5-----------------------|
A|--5---5---5-5-5---9---9-9-9----7---7-7-7----5-----------------------|
D|--5---5---5-5-5---9---9-9-9----7---7-7-7----5-----------------------|
                                                                      |
Chorus: Guitar 2 (Distorted)                                          |




e|--------------------------------------------------------------------|
B|--------15----14--15-----------14-----------12----------------------|
G|--12----------------------------------------------------------------|
D|--------------------------------------------------------------------|
A|--------------------------------------------------------------------|
D|--------------------------------------------------------------------|

Finished



=============================================================================
=============================================================================


That's all. Please Take the time to rate! Thanks




Thanks to all the people who tabbed these songs!




END
comments
print report bad tab
1 comment total.
+1 reply
alec314 wrote on October 18 2013, 05:07 pm

AWESOME TAB RIGHT HERE YO!

I want to post or [tab]
guest
You may want to rate the tab now too:
select rating
Please do not post tabs as comments. Select "correction" instead!