Oops, an error
Loading. Please wait.

Misery Loves My Company Tab

ver1
ver1

Whole song

Interactive

More versions @911Tabs.com
15,093 views 90 this week
no commentswrite comment
1 2 3 4 5
excellent!
x 5
Autoscroll
+/-
esc
set tempo
stop
Contributor
Difficulty
Tuning
intermediate
C G C F A D
WARNING: You are trying to view
                                    content from Ultimate-Guitar.com
                                    in an unauthorized application,
                                    which is prohibited.

                                    Please use an official Ultimate
                                    Guitar Tabs application for iPhone,
                                    iPad or Android to access legitimate
                                    chords, guitar, bass, and drum tabs
                                    from Ultimate-Guitar.com database.

                                    Type "ultimate guitar tabs" in Apple
                                    App Store's or Android Market's
                                    search to find the application.
Tabbed by: Joshua Garcia (joshuag523@aol.com)

Tabs for the song: Misery Loves My Company by Three Days Grace
Please rate and let me know if you have any corrections. Thank you.


Tuning: Drop C (C G C F A D)


Intro
Guitar 1:
D||------------17~-------17~--|------------12~-------12~--|
A||-----15--------------------|-----15--------------------|
F||--14-----14--------14------|--14-----14--------14------|
C||---------------------------|---------------------------| x2
G||---------------------------|---------------------------|
C||---------------------------|---------------------------|



Guitar 1:
D||------------17~-------17~--|------------12~-------12~--|------------17~-------17~--|
A||-----15--------------------|-----15--------------------|-----15--------------------|
F||--14-----14--------14------|--14-----14--------14------|--14-----14--------14------|
C||---------------------------|---------------------------|---------------------------|
G||---------------------------|---------------------------|---------------------------|
C||---------------------------|---------------------------|---------------------------|


Guitar 2:
D||----------------------|
A||----------------------|
F||----------------------|
C||--0~------3~------8~--|
G||--0~------3~------8~--|
C||--0~------3~------8~--|


Guitar 1/2:
D||-------------------|
A||-------------------|
F||-------------------|
C||-------------------|
G||-------------------|
C||--3~--b5r3~----1~--|



Verse
Guitar 1/2:
D||-----------------------|------------------------|
A||-----------------------|------------------------|
F||-----------------------|------------------------|
C||-----------------------|------------------------|
G||----------------3-1-0--|-----------------3-1-0--|
C||--5-3-0---0~-----------|--5-3-0---0~------------|


D||-----------------------|------------------------|
A||-----------------------|------------------------|
F||-----------------------|------------------------|
C||-----------------------|------------------------|
G||----------------3-1-0--|-----------------3-1-0--|
C||--5-3-0---0~-----------|--5-3-0---0~------------|



Pre-Chorus
Guitar 1:
D||--------------------------------------------------------------|
A||--------------------------------------------------------------|
F||--------------------------------------------------------------|
C||-----------------------------------------------------10~~~-\--|
G||-----------------------------------------------------10~~~-\--|
C||--5555555555555555-7777777777777777-8888888888888888-10~~~-\--|


Guitar 2 (Distorted):
D||--------------------------------------------------------------|
A||--------------------------------------------------------------|
F||--------------------------------------------------------------|
C||-----------------------------------------------------10~~~-\--|
G||-----------------------------------------------------10~~~-\--|
C||--5555555555555555-7777777777777777-8888888888888888-10~~~-\--|



Chorus
Guitar 1:
D||------------17~-------17~--|------------12~-------12~--|
A||-----15--------------------|-----15--------------------|
F||--14-----14--------14------|--14-----14--------14------|
C||---------------------------|---------------------------| x2
G||---------------------------|---------------------------|
C||---------------------------|---------------------------|


Guitar 1:
D||------------17~-------17~--|------------12~-------12~--|------------17~-------17~--|
A||-----15--------------------|-----15--------------------|-----15--------------------|
F||--14-----14--------14------|--14-----14--------14------|--14-----14--------14------|
C||---------------------------|---------------------------|---------------------------|
G||---------------------------|---------------------------|---------------------------|
C||---------------------------|---------------------------|---------------------------|


Guitar 2:
D||------------------------------|
A||------------------------------|
F||------------------------------|
C||--0~------3~------8~------5~--|
G||--0~------3~------8~------5~--|
C||--0~------3~------8~------5~--|


Guitar 2:
D||----------------------|
A||----------------------|
F||----------------------|
C||--0~------3~------8~--|
G||--0~------3~------8~--|
C||--0~------3~------8~--|


Guitar 1/2:
D||-------------------|
A||-------------------|
F||-------------------|
C||-------------------|
G||-------------------|
C||--3~--b5r3~----1~--|



Pre-Verse
Guitar 1/2:
D||-----------------------------------------------------------|
A||-----------------------------------------------------------|
F||-----------------------------------------------------------|
C||-----------------------------------------------------------|
G||--------------3-1-0---1-0-------0---------3-1-0---1-0------|
C||--5-3-0---0~--------------5-3-5---0---0~--------------5-3--|


D||-----------------------------------------------------------|
A||-----------------------------------------------------------|
F||-----------------------------------------------------------|
C||-----------------------------------------------------------|
G||----0---------3-1-0---1-0-------0---------3-1-0---1-0---0--|
C||--5---0---0~--------------5-3-5---0---0~--------------5----|



Verse
Guitar 1/2:
D||-----------------------|------------------------|
A||-----------------------|------------------------|
F||-----------------------|------------------------|
C||-----------------------|------------------------|
G||----------------3-1-0--|-----------------3-1-0--|
C||--5-3-0---0~-----------|--5-3-0---0~------------|


D||-----------------------|------------------------|
A||-----------------------|------------------------|
F||-----------------------|------------------------|
C||-----------------------|------------------------|
G||----------------3-1-0--|-----------------3-1-0--|
C||--5-3-0---0~-----------|--5-3-0---0~------------|



Pre-Chorus
Guitar 1:
D||--------------------------------------------------------------|
A||--------------------------------------------------------------|
F||--------------------------------------------------------------|
C||-----------------------------------------------------10~~~-\--|
G||-----------------------------------------------------10~~~-\--|
C||--5555555555555555-7777777777777777-8888888888888888-10~~~-\--|


Guitar 2 (Distorted):
D||--------------------------------------------------------------|
A||--------------------------------------------------------------|
F||--------------------------------------------------------------|
C||-----------------------------------------------------10~~~-\--|
G||-----------------------------------------------------10~~~-\--|
C||--5555555555555555-7777777777777777-8888888888888888-10~~~-\--|



Chorus
Guitar 1:
D||------------17~-------17~--|------------12~-------12~--|
A||-----15--------------------|-----15--------------------|
F||--14-----14--------14------|--14-----14--------14------|
C||---------------------------|---------------------------| x2
G||---------------------------|---------------------------|
C||---------------------------|---------------------------|


Guitar 1:
D||------------17~-------17~--|------------12~-------12~--|------------17~-------17~--|
A||-----15--------------------|-----15--------------------|-----15--------------------|
F||--14-----14--------14------|--14-----14--------14------|--14-----14--------14------|
C||---------------------------|---------------------------|---------------------------|
G||---------------------------|---------------------------|---------------------------|
C||---------------------------|---------------------------|---------------------------|


Guitar 2:
D||------------------------------|
A||------------------------------|
F||------------------------------|
C||--0~------3~------8~------5~--|
G||--0~------3~------8~------5~--|
C||--0~------3~------8~------5~--|


Guitar 2:
D||----------------------|
A||----------------------|
F||----------------------|
C||--0~------3~------8~--|
G||--0~------3~------8~--|
C||--0~------3~------8~--|


Guitar 1/2:
D||-------------------|
A||-------------------|
F||-------------------|
C||-------------------|
G||-------------------|
C||--3~--b5r3~----1~--|



Solo
Guitar 1:
D||----------------------|--15b17~-----r15--13~---15-------|
A||----------------------|----------------------------17~--|
F||--14~-----b15---r14~--|---------------------------------|
C||----------------------|---------------------------------|
G||----------------------|---------------------------------|
C||----------------------|---------------------------------|


D||-----------------------------------------13----------------13--------------|
A||--17b18-17-15-13-15-17b18-17-15-13-15-17----17-15-13-15-17----17-15-13-15--|
F||---------------------------------------------------------------------------|
C||---------------------------------------------------------------------------|
G||---------------------------------------------------------------------------|
C||---------------------------------------------------------------------------|


D||-----13----------------13----------------13-15-13----------13-15-17-15-13----17b18r17~--|
A||--17----17-15-13-15-17----17-15-13-15-17----------17-15-17----------------17------------|
F||----------------------------------------------------------------------------------------|
C||----------------------------------------------------------------------------------------|
G||----------------------------------------------------------------------------------------|
C||----------------------------------------------------------------------------------------|


D||--20b22~-----r20--17--18--20--15--17--18--17~------15------|
A||------------------------------------------------------18~--|
F||-----------------------------------------------------------|
C||-----------------------------------------------------------|
G||-----------------------------------------------------------|
C||-----------------------------------------------------------|


Guitar 2:
D||-----------------------------------------------------------|
A||-----------------------------------------------------------|
F||-----------------------------------------------------------|
C||-----------------------------------------------------------| x4
G||--------------3-1-0---1-0-------0---------3-1-0---1-0------|
C||--5-3-0---0~--------------5-3-5---0---0~--------------5-3--|



Chorus
Guitar 1:
D||------------17~-------17~--|------------12~-------12~--|
A||-----15--------------------|-----15--------------------|
F||--14-----14--------14------|--14-----14--------14------|
C||---------------------------|---------------------------| x2
G||---------------------------|---------------------------|
C||---------------------------|---------------------------|


Guitar 1:
D||------------17~-------17~--|------------12~-------12~--|------------17~-------17~--|
A||-----15--------------------|-----15--------------------|-----15--------------------|
F||--14-----14--------14------|--14-----14--------14------|--14-----14--------14------|
C||---------------------------|---------------------------|---------------------------|
G||---------------------------|---------------------------|---------------------------|
C||---------------------------|---------------------------|---------------------------|


Guitar 2:
D||------------------------------|
A||------------------------------|
F||------------------------------|
C||--0~------3~------8~------5~--|
G||--0~------3~------8~------5~--|
C||--0~------3~------8~------5~--|


Guitar 2:
D||----------------------|
A||----------------------|
F||----------------------|
C||--0~------3~------8~--|
G||--0~------3~------8~--|
C||--0~------3~------8~--|


Guitar 1/2:
D||-------------------|
A||-------------------|
F||-------------------|
C||-------------------|
G||-------------------|
C||--3~--b5r3~----1~--|



Outro
Guitar 1/2:
D||-----------------------------------------------------------------------------------|
A||-----------------------------------------------------------------------------------|
F||-----------------------------------------------------------------------------------|
C||-----------------------------------------------------------------------------------|
G||-----------------3-1-------0------------3-1-------0------------3-1-------0---------|
C||--5-3-0---0~---------5-3-5---0---0~---------5-3-5---0---0~---------5-3-5---0---0~--|


D||------------------|
A||------------------|
F||------------------|
C||--------------0~--|
G||--3-1---0-----0~--|
C||------5---5-3-0~--|




Tablature Legend
----------------
 h   hammer-on
 p   pull-off
 b   bend
 pb  pre-bend
 r   release bend
 ~   hold / vibrato
 .   palm mute
 /   slide up
 \   slide down
 *   pinch harmonic
 '   natural harmonic
 x   mute note
 T   tap
comments
print report bad tab
I want to post or [tab]
guest
You may want to rate the tab now too:
select rating
Please do not post tabs as comments. Select "correction" instead!