Oops, an error
Loading. Please wait.

One-X Bass Tab

ver1
ver1

Album

Whole song

Interactive

More versions @911Tabs.com
3,466 views 6 this week
no commentswrite comment
1 2 3 4 5
excellent!
x 1
Autoscroll
+/-
esc
set tempo
stop
Contributor
Hey! There's an official Ultimate Guitar app which is ideal
for learning songs when you're away from computer. Get the app
WARNING: You are trying to view
                                    content from Ultimate-Guitar.com
                                    in an unauthorized application,
                                    which is prohibited.

                                    Please use an official Ultimate
                                    Guitar Tabs application for iPhone,
                                    iPad or Android to access legitimate
                                    chords, guitar, bass, and drum tabs
                                    from Ultimate-Guitar.com database.

                                    Type "ultimate guitar tabs" in Apple
                                    App Store's or Android Market's
                                    search to find the application.
BAND: THREE DAYS GRACE
ALBUM: LIFE STARTS NOW

Tabbed by: pkgk24



-----------------------------------------------------------------------------
                               Its All Over
-----------------------------------------------------------------------------

Tuning: Drop C: (5 string) ACGCF	(4 string) CGCF



Intro
G|--------------------------------------|
D|--------------------------------------|
A|--------------------------------------|
C|---0-0---0-7-7---7-3-3---3-2-3-2-3----|x3

G|--------------------------------------|
D|--------------------------------------|
A|--------------------------------------|
C|--5-5-5-5-5-5-5-5-----------------3---|x1

Verse
G|--------------------------------------|
D|--------------------------------------|
A|--------------------------------------|
C|--0000-----7777-----3333-----2323-----|x3

G|--------------------------------------|
D|--------------------------------------|
A|--------------------------------------|
C|--5-5-5-5-5-5-5---3-3-3-3-3-3-3-------|x1

G|--------------------------------------|
D|--------------------------------------|
A|--------------------------------------|
C|--0000-----7777-----3333-----2323-----|x3

Pre Chorus
G|--------------------------------------|
D|--------------------------------------|
A|--------------------------------------|
C|--5-5-5-5-5-5-5-------8-------10------|x1

Chorus
G|--------------------------------------------------|
D|--------------------------------------------------|
A|--------------------------------------------------|
C|-0---8---5-5-5-5-5-5-5---10-10-10-10-10-10-----3--|x2

Verse
G|--------------------------------------|
D|--------------------------------------|
A|--------------------------------------|
C|--0000-----7777-----3333-----2323-----|x3

G|--------------------------------------|
D|--------------------------------------|
A|--------------------------------------|
C|--5-5-5-5-5-5-5---3-3-3-3-3-3-3-------|x1

G|--------------------------------------|
D|--------------------------------------|
A|--------------------------------------|
C|--0000-----7777-----3333-----2323-----|x3

Pre Chorus
G|--------------------------------------|
D|--------------------------------------|
A|--------------------------------------|
C|--5-5-5-5-5-5-5-------8-------10------|x1

Chorus
G|--------------------------------------------------|
D|--------------------------------------------------|
A|--------------------------------------------------|
C|-0---8---5-5-5-5-5-5-5---10-10-10-10-10-10-----3--|x2

Break
G|--------------------------------------|
D|--------------------------------------|
A|--------------------------------------|
C|---0-0---0-7-7---7-3-3---3-2-3-2-3----|x3

G|--------------------------------------|
D|--------------------------------------|
A|--------------------------------------|
C|--5-5-5-5---------8-8-8-8-------------|x1

During The Solo
G|--------------------------------------------------|
D|--------------------------------------------------|
A|--------------------------------------------------|
C|-0---8---5-5-5-5-5-5-5---10-10-10-10-10-10-----3--|x2

Rest

Pre Chorus
G|--------------------------------------|
D|--------------------------------------|
A|--------------------------------------|
C|--5-5-5-5-5-5-5----10-10-10-10-10-----|x1

Chorus
G|--------------------------------------------------|
D|--------------------------------------------------|
A|--------------------------------------------------|
C|-0---8---5-5-5-5-5-5-5---10-10-10-10-10-10-----3--|x3

Outro
G|--------------------------------------|
D|--------------------------------------|
A|--------------------------------------|
C|---0-0---0-7-7---7-3-3---3-2-3-2-3----|x1





-----------------------------------------------------------------------------
                                    Pain
-----------------------------------------------------------------------------


Tuning: Drop D: (5 string) BDADG	(4 string) DADG




Intro: (0:15)
G|---------------------------------------------------------------|
D|---------------------------------------------------------------|
A|-------2h3p2-0-------------2h3p2-0-------------2h3p2-0---------|
D|---2-2---------5---0---2-2---------7---0---2-2---------5---0---|

G|---------------------------------|      
D|---------------------------------|  (this part's kinda cool because
A|---3-3-3-3-5-5-5-5---------------|   it leads right into the verse)
D|---------------------------------|

Verse (x4): (0:27)                     (after 4th time)
G|-------------------------------------|---------------|
D|-------------------------------------|---------------|
A|---7-7-7-7-6-6-6-6-5-5-5-5-4-4-4-4---|---3~----------|
D|-------------------------------------|---------------|

Chorus (x2): (0:54)
G|---------------------------------------------------------------|
D|---------------------------------------------------------------|
A|-------2h3p2-0-------------2h3p2-0-------------2h3p2-0---------|
D|---2-2---------5---0---2-2---------7---0---2-2---------5---0---|

G|---------------------------------|
D|---------------------------------|
A|---3-3-3-3-5-5-5-5---------------|
D|---------------------------------|

Verse (x3): (1:18)

(after 3rd time)
G|---------------|
D|---------------|
A|---3~----------|
D|---------------|

Chorus (x2): (1:40)

Chorus cont.
G|---------------------------------|
D|---------------------------------|
A|---3-3-3-3-5-5-5-5---------------|
D|---------------------------------|

Bridge part 1 (x2): (2:10)
G|---------------------------------|
D|---------------------------------|
A|---3-3-3-3-5-5-5-5---------------|
D|---------------------------------|

Bridge part 2 (x2): (2:19)
G|-------------------------|---------------------------------|
D|-------------------------|---------------------------------|
A|---910-910-910-910-9-2---|---3-3-3-3-5-5-5-5---------------|
D|-------------------------|---------------------------------|

Chorus (x2): (2:47)

Chorus cont. (x2)
G|---------------------------------|
D|---------------------------------|
A|---3-3-3-3-5-5-5-5---------------|
D|---------------------------------|

End: (3:16)
G|---------------------|
D|---------------------|
A|---910-910-910-910---|
D|---------------------|





-----------------------------------------------------------------------------
                               Animal I Have Become
-----------------------------------------------------------------------------



Tuning: Drop C: (5 string) ACGCF	(4 string) CGCF


   
|-----------------|----------------|----------------|-----------------|
|-----------------|----------------|----------------|-----------------|
|-----------7-----|----------7-----|----------7-----|----------7------|
|--0-0--7h8---8-7-|-0-0--7h8---8-7-|-0-0--7h8---8-7-|-0-0--7h8---8-7--|



|----------------|----------------|----------------|---------------|
|----------------|----------------|----------------|---------------|
|----------7-----|----------7-----|----------7-----|----------7----|
|-0-0--7h8---8-7-|-0-0--7h8---8-7-|-0-0--7h8---8-7-|-0-0--7h8---8--|


   Verse
    								    3x
||----------------|---------------|----------------|----------------|
||o---------------|---------------|----------------|----------------|
||o---------------|---------------|----------7-----|----------7-----|
||--3-3--3-3-3--3-|-3-3--3-3-3-5--|-0-0--7h8---8-7-|-3-0--7h8---8---|


 Pre-Chorus
  
|---------------|---------------|---------------|------||
|---------------|---------------|---------------|------||
|---------------|---------------|---------------|------||
|-3-3--3-3-3--3-|-3-3--3-3-3--3-|-5-5--5-5-5--5-|-8----||


 Chorus
|---------------|--------------|---------------|---------------|
|---------------|--------------|---------------|---------------|
|---------------|--------------|---------------|---------------|
|-0--0--10--10--|-3--3--7--7h8-|-0--0--10--10--|-3--3--5-5-3-2-|


                                                       
|---------------|--------------|---------------|--------------|
|---------------|--------------|---------------|--------------|
|---------------|--------------|---------------|--------------|
|-0--0--10--10--|-3--3--7--7h8-|-0--0--10--10--|-3--3--5-3-2--|


 Pre-Verse
  
|----------------|---------------|
|----------------|---------------|
|----------7-----|----------7----|
|-0-0--7h8---8-7-|-0-0--7h8---8--|


   Verse
    								    3x
||----------------|---------------|----------------|-----------------|
||----------------|---------------|----------------|-----------------|
||----------------|---------------|----------7-----|----------7------|
||--3-3--3-3-3--3-|-3-3--3-3-3-5--|-0-0--7h8---8-7-|-3-0--7h8---8----|


 Pre-Chorus
  
|---------------|---------------|---------------|------|
|---------------|---------------|---------------|------|
|---------------|---------------|---------------|------|
|-3-3--3-3-3--3-|-3-3--3-3-3--3-|-5-5--5-5-5--5-|-8----|


   Chorus
    
||----------------|--------------|---------------|-----------------|
||----------------|--------------|---------------|-----------------|
||----------------|--------------|---------------|-----------------|
||--0--0--10--10--|-3--3--7--7h8-|-0--0--10--10--|-3--3--5-5-3-2---|


                                                       
|---------------|--------------|---------------|--------------|
|---------------|--------------|---------------|--------------|
|---------------|--------------|---------------|--------------|
|-0--0--10--10--|-3--3--7--7h8-|-0--0--10--10--|-3--3--5-3-2--|


 interlude

|----------||----------------|----------------|
|----------||----------------|----------------|
|----------||----------------|----------7-----|
|-0--------||--8-8--8-8-8--8-|-5-5--5h8---8-7-|


|---------------|----------------|
|---------------|----------------|
|---------------|----------------|
|-0-0--0-0-0--0-|-3-3--3-3-3--3--|


                  
|---------------|-------------|----------|--------|
|---------------|-------------|----------|--------|
|---------------|-------7-----|----------|--------|
|-8-8--8-8-8--8-|-0-7-8---8-7-|-0--------|-(0)----|


 
|----------------|----------------||-----------------|-----------------|
|----------------|----------------||o----------------|-----------------|
|----------7-----|----------7-----||o----------7-----|----------7------|
|-0-0--7h8---8-7-|-0-0--7h8---8-7-||--0-0--7h8---8-7-|-0-0--7h8---8-7--|


 Pre-Chorus
 
|--------|
|--------|
|--------|
|--------|


   Out-Chorus
    
||----------------|--------------|---------------|-----------------|
||----------------|--------------|---------------|-----------------|
||----------------|--------------|---------------|-----------------|
||--0--0--10--10--|-3--3--7--7h8-|-0--0--10--10--|-3--3--5-5-3-2---|


   Outro
                                            
    								3x
||-----------------|-----------------|-|---------------|
||-----------------|-----------------|-|---------------|
||-----------7-----|----------7------|-|--------8------|
||--0-0--7h8---8-7-|-0-0--7h8---8-7--|-|--0-7-8---8-7--|


  
    								 4x
|-------------|----------|------------|-|-------------|---------|
|-------------|----------|------------|-|-------------|---------|
|-------8-----|----------|------------|-|-------------|---------|
|-0-7-8---8-7-|-0--------|-(0)--------|-|--(0)--------|-(0)-----|






-----------------------------------------------------------------------------
                                Never Too Late
-----------------------------------------------------------------------------



Tuning: Drop D: (5 string) BDADG	(4 string) DADG


Verse (start with drums or 0:25)
G|-----------------------------------------|     
D|-----------------------------------------|
A|-----------------------------------------|
D|-8-10-0-----8-10-0-----8-10-0-----7---10-|

Chorus
G|--------------------------------------------|
D|--------------------------------------------|
A|--------------------------------------------|
D|-0-8-7-10---0-8-7-10---0-8-7-10---88-0-7-10-|

Verse
G|-----------------------------------------|     
D|-----------------------------------------|
A|-----------------------------------------|
D|-8-10-0-----8-10-0-----8-10-0-----7---10-| x2

Chorus
G|--------------------------------------------|
D|--------------------------------------------|
A|--------------------------------------------|
D|-0-8-7-10---0-8-7-10---0-8-7-10---88-0-7-10-|

Bridge
G|-------------|       G|-------------|
D|-------------|       D|-------------|
A|-------------|       A|-------------|
D|-8--8---3-10-| x3    D|-8--8---7-10-|    

(break)
(start with drums or 2:33)

Chorus/Outro
G|--------------------------------|       G|-------------|
D|--------------------------------|       D|-------------|
A|--------------------------------|       A|-------------|
D|-0-8-7-10---0-8-7-10---0-8-7-10-| x3    D|--88-0--7-10-| x3










-----------------------------------------------------------------------------
                                   On My Own
-----------------------------------------------------------------------------


Tuning: 5 String Standard   BEDAG



   VERSE
G-|-----------|-----------------|-----------------|
D-|-----------|-----------------|-----------------|
A-|-----1-3-7-|-------------7h9-|-------------5h7-|
E-|---3-------|-------5-7-8-----|-------5-7-8-----|
B-|-1---------|-55-55-----------|-55-55-----------|
                                                                              

G-|-----------------|---------------------|
D-|-----------------|---------------------|
A-|-----------3-5/7-|---------------------|
E-|-------3-5-------|----------000-33-5h7-|
B-|-33-33-----------|-11--1111------------|
                                                                              

   PRE-Chorus
G-|-----------------|------|
D-|-----------------|------|
A-|-----------------|------|
E-|------00-33-77h8-|------|
B-|-33--------------|-1----|
                                                                              

   Chorus
G-|-------------------------------|
D-|-------------------------------|
A-|-------------------------------|
E-|-----------------------/5-5555-|
B-|-5-5-513/8-8-8-1-1-101---------|
                                                                              

   Verse
G-|-------------|-----------------|----------------|------|-------------|
D-|-------------|-----------------|----------------|------|-------------|
A-|-------------|-----------------|----------------|------|-------------|
E-|-55-33-22-00-|-----55-33-22-00-|----55-33-22-00-|------|-5---55555555|
B-|-------------|-333-------------|-11-------------|-1----|-------------|
                                                                              
   Outro
G-|-------------------|
D-|-------------------|
A-|-------------------|
E-|-55-33-22-0--------|
B-|------------1------|




-----------------------------------------------------------------------------
                                   Riot
-----------------------------------------------------------------------------



Tuning: 5 String Standard  BEDAG


                              x4
G| -------------------------|  |---------------------------------------|
D|o-------------------------|o |---------------------------------------|
A| -------------------------|  |---------------------------------------|
E|o-------------4~~~--4~-3~-|o |-------------4~~~--------------4-3---3-|
B| -1~~~--4~~~--------------|  |-1~~~--4~~~--------4-3-4-6-4-3-----6---|

|------------------------|---------------------------|
|------------------------|---------------------------|
|------------------------|---------------------------|
|--------4-3--------4-3--|--------4-3---------6--6h8-|
|-1--4-1------1-4-1------|-1--4-1------6-6--6--------|

|------------------------|--------------------------------|
|------------------------|--------------------------------|
|------------------------|------------------------------3-|
|--------4-3--------4-3--|--------4-3---------4-3---4-3---|
|-1--4-1------1-4-1------|-1--4-1------6-6--6-----6-------|
                             x4
| -------------------------|  |---------------------------------------|
|o-------------------------|o |---------------------------------------|
| -------------------------|  |---------------------------------------|
|o-------------4~~~--4~-3~-|o |-------------4~~~--------------4-3---3-|
| -1~~~--4~~~--------------|  |-1~~~--4~~~--------4-3-4-6-4-3-----6---|

|------------------------|---------------------------|
|------------------------|---------------------------|
|------------------------|---------------------------|
|--------4-3--------4-3--|--------4-3---------6--6h8-|
|-1--4-1------1-4-1------|-1--4-1------6-6--6--------|

|------------------------|---------------------------|-------|
|------------------------|---------------------------|-------|
|------------------------|---------------------------|-------|
|--------4-3--------4-3--|--------4-3---------6--6h8-|-------|
|-1--4-1------1-4-1------|-1--4-1------6-6--6--------|1~~~~~~|

Short pause (let the guitar play through below sequesnce once)
                                 x3
| -----------------------------|  |--------------------------|
|o-----------------------------|o |--------------------------|
| ---------------11-----10---8-|  |---------------11-10-8-10-|
|o-8-8-8-11-10-9----8-8----8---|o |-8-8-8-11-10-9------------|
| -----------------------------|  |--------------------------|

                                 x3
| -----------------------------|  |--------------------------|
|o---------------11-----10---8-|o |---------------11-10-8-10-|
| -8-8-8-11-10-9----8-8----8---|  |-8-8-8-11-10-9------------|
|o-----------------------------|o |--------------------------|
| -----------------------------|  |--------------------------|

|-------------------------|-------------------------------------------|
|-------------------------|-------------------------------------------|
|-------------------------|-------------------------------------------|
|-------------4~~~--4~-3~-|-------------444-444-444-444-444-444-444-4-|
|-1~~~--4~~~--------------|-1~~~--4~~~--------------------------------|

Short Pause

|------------------------|---------------------------|
|------------------------|---------------------------|
|------------------------|---------------------------|
|--------4-3--------4-3--|--------4-3---------6--6h8-|
|-1--4-1------1-4-1------|-1--4-1------6-6--6--------|

|------------------------|---------------------------|
|------------------------|---------------------------|
|------------------------|---------------------------|
|--------4-3--------4-3--|--------4-3---------6--6h8-|
|-1--4-1------1-4-1------|-1--4-1------6-6--6--------|

|------------------------|---------------------------|
|------------------------|---------------------------|
|------------------------|---------------------------|
|--------4-3--------4-3--|--------4-3---------6--6h8-|
|-1--4-1------1-4-1------|-1--4-1------6-6--6--------|

|------------------------|--------------------------------|-----------|
|------------------------|--------------------------------|-----------|
|------------------------|------------------------------3-|-----------|
|--------4-3--------4-3--|--------4-3---------4-3---4-3---|-----------|
|-1--4-1------1-4-1------|-1--4-1------6-6--6-----6-------|-1~~~~~~~~~|



-----------------------------------------------------------------------------
                                Get Out Alive
-----------------------------------------------------------------------------


Tuning: Drop D: (5 string) BDADG	(4 string) DADG



Bass Dosn't start 'till Chorus
Chorus
|----------------------|
|----------------------|
|----------------------|
|-5~----1~----3~----5~-|x2

Verse
|-------------------------------------------------|
|-------------------------------------------------|
|-------5---5-6-----3---3-5-----1---1-3-----0-1-0-|
|-5~--0-----------0-----------0-----------0-------|x3

Chorus x2

Bridge
|-----------------------------------------------------------------|
|-----------------------------------------------------------------|
|-----------------------------------------------------------------|
|-8-8-8-8-8-8-8-8-0-0-0-0-0-0-0-0-5-5-5-5-5-5-5-5-0-1-1-1-1-1-1-1-|x2

Verse x2 instead of x3

Distortion Verse
|-------------------------------------------------------|
|-------------------------------------------------------|
|-------------------------------------------------------|
|-8-7-5-5--0-0--13-13--10-10--0-0--8-8--10-10--8-7--5-5-|x2

Chorus x3

Bridge

Alternate Chorus
|-----------------------------------------------------------------|
|-----------------------------------------------------------------|
|-----------------------------------------------------------------|
|-5-5-5-5-5-5-5-5-1-1-1-1-1-1-1-1-3-3-3-3-3-3-3-3-5-5-5-5-5-5-5-5-|x4


-----------------------------------------------------------------------------
                                Let It Die
-----------------------------------------------------------------------------


Tuning: Drop D: (5 string) BDADG	(4 string) DADG



G-------------------------------------------------------------------------|
D-------------------------------------------------------------------------|
A-------------------------------------------------------------------------|
D-5-5-5-5--7-7-7-7--3-3-3-3--3-3-3-3--5-5-5-5--7-7-7-7--3-3-3-3--3-3-3-3--|

G----------------|
D----------------|
A----------------|
D5-5-5-5--7-7-7-7|

G----------------------------|
D-2-2-2-2-2-2-2-2--3-3-3-3-5-|
A----------------------------|
D----------------------------|

G------------------------------------------------------|
D------------------------------------------------------|
A-0-0--3-3------------3-3-----0-0--3-3-----------3-3---|
D-----------0-3-3--3-------5------------0-3-3--3-----5-|

G---------------------------|
D---------------------------|
A-0-0--3-3------------3-3---|
D-----------0-3-3--3------5-|

G-----------------------|
D-----------------------|
A-0-0--3-3--------------|
D----------0-3-3--3-3-5-|

G------------------------------------------------------------------------|
D------------------------------------------------------------------------|
A------------------------------------------------------------------------|
D-5-5-5-5--7-7-7-7--3-3-3-3--3-3-3-3--5-5-5-5--7-7-7-7--3-3-3-3--3-3-3-3-|

G-----------------|
D-----------------|
A-----------------|
D-5-5-5-5--7-7-7-7|

G----------------------------|
D-2-2-2-2-2-2-2-2--3-3-3-3-5-|
A----------------------------|
D----------------------------|

G------------------------------------------------------|
D------------------------------------------------------|
A-0-0--3-3------------3-3-----0-0--3-3-----------3-3---|
D-----------0-3-3--3-------5------------0-3-3--3-----5-|

G---------------------------|
D---------------------------|
A-0-0--3-3------------3-3---|
D-----------0-3-3--3------5-|

G-----------------------|
D-----------------------|
A-0-0--3-3--------------|
D----------0-3-3--3-3-5-|

G------------------------------------------------------------------------|
D-0-0-0-0--2-2-2-2--3-3-3-3--5-5-5-5--0-0-0-0--2-2-2-2--3-3-3-3--5-5-5-5-|
A------------------------------------------------------------------------|
D------------------------------------------------------------------------|

G-2-2-2-2-----------------------------2-2-2-2--4-4-4-4--5-5-5-5-|
D----------2-2-2-2--3-3-3-3--5-5-5-5----------------------------|
A---------------------------------------------------------------|
D---------------------------------------------------------------|

G--7-7-7-7-7-7-----|
D------------------|
A--------------0-0-|
D------------------|

G------------------------------------------------------------|
D------------------------------------------------------------|
A--------3-3----0-0-3-3-2------------0-0--3-3----------3-3---|
D-3-3--3-----5------------3-3-x-x-5-----------0-3-3--3-----5-|

G---------------------|
D---------------------|
A-0-0-3-3-2-----------|
D-----------3-3-x-x-5-|

G-----------------------------------------------------------------------|
D-----------------------------------------------------------------------|
A-0-0--3-3----------3-3----0-0-3-3-2-----------0-0--3-3----------3-3----|
D----------0-3-3--3-----5------------3-3-x-x-5-----------0-3-3--3-----5-|

G----------------------|
D----------------------|
A--0-0-3-3-2-----------|
D------------3-3-x-x-5-|


-----------------------------------------------------------------------------
                                 Over And Over
-----------------------------------------------------------------------------


Tuining: 5 String Standard  BEDAG



  VERSE
G-|-----------|
D-|-----------|
A-|-----------|
E-|-1---------|
B-|------3----|
                                                                              

   PRE-Chorus
G-|----------------------------------|
D-|----------------------------------|
A-|----------------------3-----------|
E-|-666666--------111111-------0-----|
B-|--------333333--------------------|
                                                                              

   Chorus 1
G-|----------------|-------------------*----|
D-|----------------|---------------5---*2---|
A-|-000-----333----|-000-----5---5-----*----|
E-|-----111-----33-|-----111-----------*----|
B-|----------------|-------------------*----|
                                                                              

   Verse
G-|-----------------|------------------|---------------|
D-|-----------------|------------------|---------------|
A-|-222222-555555---|-222222-5555------|-222222--------|
E-|---------------5-|-------------5555-|--------3------|
B-|-----------------|------------------|---------------|
                                                                              
 
   BREAK
G-|-----------|
D-|-----------|
A-|-----------|
E-|-----------|
B-|-0000-8888-|
                                                                              

   Chorus 2
G-|--------|----------------------|----------------|
D-|--------|-----------------74---|----------------|
A-|-555----|-222-----7---7--------|-222-----555----|
E-|-----55-|-----333--------------|-----333-----55-|
B-|--------|----------------------|----------------|
                                                                              

   outro
G-|----------|
D-|----------|
A-|----------|
E-|-7--------|
B-|----------|


-----------------------------------------------------------------------------
                              Time For Dying
-----------------------------------------------------------------------------


Tuning: Drop C: (5 string) ACGCF	(4 string) CGCF



Intro x2
F|-------------------------------------|
C|-------------------------------------|
G|-------------------------------------|
C|-7---0--0-3--0-3-5-0-7--0--0-3-5-0-3-|

Verse
F|------------------------------------------------|
C|------------------------------------------------|
G|------------------------------------------------|
C|-8-10--7-0--0-0-0--7-0--0-0-0--7-0--0-0-0--8-10-|

Rest during Pre-chorus

Chorus
F|-------------------------------------|
C|-------------------------------------|
G|-------------------------------------|
C|-0-8---3-5--0-10--8-0--3-10--0-8--10-|

Verse 2
F|-------------------------------------------------------|
C|-------------------------------------------------------|
G|-------------------------------------------------------|
C|-7-0--0-0-0---7-0--0-0-0--7-0--0-0-0--7-0--0-0-0--8-10-|

Rest

Chorus

Rest

Chorus x2

Intro x2



-----------------------------------------------------------------------------
                                  Gone Forever
-----------------------------------------------------------------------------

Tuning: 5 String standard   BEDAG


   Break
G-|----------------|
D-|----------------|
A-|-77779999-10----|
E-|----------------|
B-|----------------|
                                                                              

   Chorus
G-|---------------------|---------------------|-----------------|----------|
D-|---------------------|---------------------|-----------------|----------|
A-|---------------------|---------------------|-----------------|----------|
E-|-22---33--------5555-|------3333------5555-|-333333-2--357---|-77777777-|
B-|-----------3333------|-0000------3333------|-----------------|----------|
                                                                          

   Verse
G-|--------------------------------|------------|---------|------------------|
D-|---------99---------------------|-----2-4----|---------|------------------|
A-|------99--------77-55-----------|-0----------|---------|-----7777999910---|
E-|-7777-------5555-----333333-----|------------|---------|-5555-------------|
B-|----------------------------333-|------------|---------|------------------|
                                    

   Verse
G-|-------------------------|-------------------------|-------|-------|
D-|-------------------------|-------------------------|-------|-------|
A-|-------------------797---|-------------------575---|-------|-------|
E-|-00000000-77777777-----7-|-00000000-77775555-----5-|-------|-------|
B-|-------------------------|-------------------------|-------|-------|
                          

   Outro
G-|-----------------|---------------|
D-|-----------------|---------------|
A-|-----------------|---------------|
E-|-33333333-2---35-|---------------|
B-|-----------------|---------------|


-----------------------------------------------------------------------------
                                    One X
-----------------------------------------------------------------------------

Tuning: Drop D: (5 string) BDADG	(4 string) DADG


Intro/ Verse
0:38
G----------------------|
D----------------------|
A----------------------| (2x)
D-5-5-5~-3-3-3~--------|

Chorus
0:53
G----------------------|
D----------------------|
A----------------------| (3x)
D---7—0-333------------|

Right after chorus play this:
G-----------------------|
D-----------------------|
A-----------------------| (1x)
D----0---0----3~--------|

Verse pt 2
G-----------------------|
D-----------------------|
A-----------------------| (1x)
D--77---77---33---------|

G-----------------------|
D-----------------------|
A-----------------------|(1x)
D--77---00---33---------|

G-----------------------|
D-----------------------|
A-----------------------| (1x)
D--77---77---33---------|

G-----------------------|
D-----------------------|
A-----------------------|(1x)
D--77---00---33---------|

G-----------------------|
D-----------------------|
A-----------------------| (1x)
D--77---77---33---------|

G-----------------------|
D-----------------------|
A-----------------------|(1x)
D--77---00---33---------|

Prechorus:
G----------------------|
D----------------------|
A----------------------| (2x)
D-5-5-5~-3-3-3~--------|

Chorus
G----------------------|
D----------------------|
A----------------------| (3x)
D---7----0-333---------|

G-----------------------|
D-----------------------|
A-----------------------| (1x)
D----0---0----3~--------|

G----------------------|
D----------------------|
A----------------------| (3x)
D---7----0-333---------|

G-----------------------|
D-----------------------|
A-----------------------| (1x)
D----0---0----3~--------|

Bridge
G----------------------------------------------------|
D----------------------------------------------------|
A-0-0-0-0-0-0-0-0-0-0-0-0-0-0-0-0--------------------| (1x)
D----------------------------------------------------|


G-----------------------------------------------------|
D-----------------------------------------------------| (1x)
A-----------------------------------------------------| thats four tens
D---3333----7777----10101010----12-14-15~-------------|  and a 14 and a 15

G----------------------|
D----------------------|
A----------------------| (5x)
D---7----0-333---------|

G-----------------------|
D-----------------------|
A-----------------------| (1x)
D----0---0----3~--------|

G----------------------|
D----------------------|
A----------------------| (3x)
D---7----0-333---------|

G-----------------------|
D-----------------------|
A-----------------------| (2x)
D----0---0----3~--------|

Outro
G-------------------------------------------------------------------|
D-------------------------------------------------------------------|
A-------------------------------------------------------------------| (3x)
D-----10-10-10-10~---3-3-3-3~---7-7-7-7~---5-5-5-5~-----------------|

End on:
G----------|
D----------|
A----------|
D-10~------|





Thanks for using this and thanks to all the people who tabbed before me!  All the 
songs belong to THREE DAYS GRACE, not me. And NONE of these are my tabs they are 
all borrowed for the convenience of you the site browser!

PKGK24
comments
We did not receive enough feedback on this tab! Please rate:
print report bad tab
1 2 3 4 5
I want to post or [tab]
guest
You may want to rate the tab now too:
select rating
Please do not post tabs as comments. Select "correction" instead!