Oops, an error
Loading. Please wait.

Three Days Grace Bass Tab

12,331 views 6 this week
8 commentsread comments
1 2 3 4 5
excellent!
x 3
Autoscroll
+/-
esc
set tempo
stop
Contributor
Hey! There's an official Ultimate Guitar app which is ideal
for learning songs when you're away from computer. Get the app
WARNING: You are trying to view
                                    content from Ultimate-Guitar.com
                                    in an unauthorized application,
                                    which is prohibited.

                                    Please use an official Ultimate
                                    Guitar Tabs application for iPhone,
                                    iPad or Android to access legitimate
                                    chords, guitar, bass, and drum tabs
                                    from Ultimate-Guitar.com database.

                                    Type "ultimate guitar tabs" in Apple
                                    App Store's or Android Market's
                                    search to find the application.
Band- Three Days Grace
Album- Three Days Grace

1.BURN

Intro
G|--------------------|    |--------------|
D|--------------------|    |--------------|
A|-035053-035053-0356-| x3 |-035053-035\0-|
E|--------------------|    |--------------|
B|--------------------|    |--------------|

G|---------------|
D|---------------|
A|-0355303535356-| x4
E|---------------|
B|---------------|

G|--------------|         |-----------|
D|--------------|         |-----------|
A|----533553356-| x4 then |----5335\0-|
E|--------------|         |-----------|
B|-33-----------|         |-33--------|

Verse 1 (same as intro)
G|--------------------|
D|--------------------|
A|-035053-035053-0356-| x8
E|--------------------|
B|--------------------|

Verse 2
G|--------------------------|
D|--------------------------|
A|----------0000-101333-----|
E|-11111111-----------------|
B|--------------------------|

G|------------------------------------|
D|-00---------------------------------|
A|----00-1111-1-----------0000-101333-| x2
E|--------------3333-11---------------|
B|----------------------4-------------|

Verse 3
G|--------------------|       |--------------------|
D|--------------------|       |--------------------|
A|-035053-035053-0356-| break |-035053-035053-0356-| x6
E|--------------------|       |--------------------|
B|--------------------|       |--------------------|

Verse 4

G|--------------------------|
D|--------------------------|
A|----------0000-101333-----|
E|-11111111-----------------|
B|--------------------------|

G|------------------------------------|
D|-00---------------------------------|
A|----00-1111-1-----------0000-101333-| x2
E|--------------3333-11---------------|
B|----------------------4-------------|

Verse 5
G|--------------------|
D|--------------------|
A|-035053-035053-0356-| x2
E|--------------------|
B|--------------------|

Solo
G|---------------|
D|---------------|
A|-0355303535356-| x2 before then x4 during guitar solo
E|---------------|
B|---------------|

Verse 6
G|----------------------------------|
D|----------------------------------|
A|----------------------------00000-|
E|-11111111-33333333-11111111-------|
B|----------------------------------|

G|------------------------------------|
D|-00---------------------------------|
A|----00-1111-1-----------0000-101333-| x2
E|--------------3333-11---------------|
B|----------------------4-------------|

Outro
G|--------------------|
D|--------------------|
A|-035053-035053-0356-| x2
E|--------------------|
B|--------------------|

G|---------------|
D|---------------|
A|-0355303535356-| x2
E|---------------|
B|---------------|

G|------------------------------|
D|------------------------------|
A|---53035535356-03553035535356-|
E|------------------------------|
B|-3----------------------------|

G|----------------|         G|---------------|
D|----------------|         D|---------------|
A|----53035535356-| x3 then A|----5303553356-|
E|----------------|         E|---------------|
B|-33-------------|         B|-33------------|

G|--------------|
D|--------------|
A|----533553356-| x4
E|--------------|
B|-33-----------|

2.JUST LIKE YOU

intro:
g:--------------------------------------------------------------|
d:--------------------------------------------------------------|
a:--------------------------------------------------------------|
db:9-7-4-0-9-9---9-7-4-0-9-9---9-7-4-0-9-9----5---5-5-7--5-5-7--|

verse  (x2)
g:------------------------------------------------------------|
d:------------------------------------------------------------|
a:------------------------------------------------------------|
db:9-7-4-0-9-9---9-7-4-0-9-9---9-7-4-0-9-9---5---5-5-7--5-5-7-|

pre-chorus
g:----------------------------------------------------------|
d:----------------------------------------------------------|
a:----------------------------------------------------------|
db:-4---------5---------4---------5-5-5-5----5-5-7--5-5-7---|

chorus (x2)
g:---------------------------------------------------------------------------|
d:---------------------------------------------------------------------------|
a:---------------------------------------------------------------------------|
db:9999----00000-----7777----10101010----9999----0000----7777----5-5-7-5-5-7-|

pause for guitar

verse (x2)

pre-chorus

chorus (x2)

bridge pt.1 (x3)
g;------------------------------------------|
d:------------------------------------------|
a:------------------------------------------|
db:5-5-5-5-5-5-5-5--0-0-0-0-0-0-0---9-7-4-0-|

bridge pt. 2
g:-------------------------------------------|
d:-------------------------------------------|
a:-------------------------------------------|
db:2-2-2-2-2-2-2-2--7-7-7-7-7-7-7---9-7-4-0--|

prechorus

chorus (x2)

verse(x1)

3.I HATE EVERYTHING ABOUT YOU

Verse:

G|----------------------------------------------------------------|
D|----------------------------------------------------------------|
A|----------------------------------------------------------------|
E|-0222222-0222222-0222222-02222225-------5-------5-------5-------|
B|---------------------------------333333--333333--333333--333333-|


Pre-Chorus:

G|--------|
D|--------|
A|--------|
E|-0~-----|
B|-----3~-|


Chorus:

G|----------------------------------------------|
D|----------------------------------------------|
A|----------------------------------------------|
E|-22--5555-5-5-0000-0-0-222222------0000-0-5-4-| <- not twenty-two!
B|---33------------------------333333-----------|


Interlude:

G|-----------------------------------|
D|-----------------------------------|
A|-----------------------------------|
E|--------00000000-22222222-00000000-|
B|33333333---------------------------|

Repeat the Chorus 'till the end, and end on:

E|-2-|

4.HOME

Intro/chorus
F|------------------------------------------|
C|------------------------------------------|
G|------------------------------------------|
C|--0--0------0--0------8--8------5--5------|

F|------------------------------------------|
C|------------------------------------------|
G|------------------------------------------|
C|--0--0------0--0------1--1------10--10----|

F|----------------------------------------------------------|
C|----------------------------------------------------------|
G|----------------------------------------------------------|
C|--0--0--x-x--x--0--0--x-x--x--8--8--x-x--x--5--5--x-x--x--|

F|----------------------------------------------------------|
C|----------------------------------------------------------|
G|----------------------------------------------------------|
C|0--0--x-x--x--0--0--x-x--x--1--1--x-x--x--10--10--x-x--x--|

Verse (x4)
F|-----------------------------------------------|
C|-----------------------------------------------|
G|-----------------------------------------------|
C|-0--0--0--0--0--0--0--0--8--8--8--8--8--8--8--8|

F|--------------------------------------------------------------------------|
C|--------------------------------------------------------------------------|
G|--------------------------------------------------------------------------|
C|--0--3p--0--5p--0--7p--0--8--10--12---0--3p--0--5p--0--7p--0--8--10--12---|

chorus
F|--------------------------------------------------------------------------|
C|--------------------------------------------------------------------------|
G|--------------------------------------------------------------------------|
C|--0------8----5-----0------1----10----0------8----5-----0------1----10----|

F|------------------------------------------------------------------------------|
C|------------------------------------------------------------------------------|
G|------------------------------------------------------------------------------|
C|--0--0------0--0------8--8------5--5-----0--0------0--0------1--1------10--10-|

Interlude
F|--------------------------------------------------------------------------|
C|--------------------------------------------------------------------------|
G|--------------------------------------------------------------------------|
C|--0--3p--0--5p--0--7p--0--8--10--12---0--3p--0--5p--0--7p--0--8--10--12---|

Verse (x4)
F|-----------------------------------------------|
C|-----------------------------------------------|
G|-----------------------------------------------|
C|-0--0--0--0--0--0--0--0--8--8--8--8--8--8--8--8|

F|--------------------------------------------------------------------------|
C|--------------------------------------------------------------------------|
G|--------------------------------------------------------------------------|
C|--0--3p--0--5p--0--7p--0--8--10--12---0--3p--0--5p--0--7p--0--8--10--12---|


chorus
F|--------------------------------------------------------------------------|
C|--------------------------------------------------------------------------|
G|--------------------------------------------------------------------------|
C|--0------8----5-----0------1----10----0------8----5-----0------1----10----|

F|------------------------------------------------------------------------------|
C|------------------------------------------------------------------------------|
G|------------------------------------------------------------------------------|
C|--0--0------0--0------8--8------5--5-----0--0------0--0------1--1------10--10-|

F|----------------------------------------------------------|
C|----------------------------------------------------------|
G|----------------------------------------------------------|
C|--0--0--x-x--x--0--0--x-x--x--8--8--x-x--x--5--5--x-x--x--|

F|----------------------------------------------------------|
C|----------------------------------------------------------|
G|----------------------------------------------------------|
C|0--0--x-x--x--0--0--x-x--x--1--1--x-x--x--10--10--x-x--x--|

Bridge
F|-----|-----------|
C|-----|-----------|
G|-----|-----------|
C|--0--|--1--1--1--|

chorus
F|--------------------------------------------------------------------------|
C|--------------------------------------------------------------------------|
G|--------------------------------------------------------------------------|
C|--0------8----5-----0------1----10----0------8----5-----0------1----10----|


F|------------------------------------------------------------------------------|
C|------------------------------------------------------------------------------|
G|------------------------------------------------------------------------------|
C|--0--0------0--0------8--8------5--5-----0--0------0--0------1--1------10--10-|


F|------------------------------------------------------------------------------|
C|------------------------------------------------------------------------------|
G|------------------------------------------------------------------------------|
C|--0--0------0--0------8--8------5--5-----0--0------0--0------1--1------10--10-|


F|--------------------------------------------|
C|--------------------------------------------|
G|--------------------------------------------|
C|--0--0------0--0------8--8------5--5-----0--|

5.SCARED

Intro
  (0:04)
G|---------------------------------------------------------------------------|
D|---------------------------------------------------------------------------|
A|---------------(4x)--------------------------------------------------------|
D|-5-5-5-5-5-0---------------------------------------------------------------|

Verse
  (0:12)
G|---------------------------------------------------------------------------|
D|---------------------------------------------------------------------------|
A|--------------(8x)---------------------------------------------------------|
D|-5-5-5-5-5-0---------------------------------------------------------------|

Pre-Chorus
  (0:28)
G|---------------------------------------------------------------------------|
D|---------------------------------------------------------------------------|
A|---------------------------------------------------------------------------|
D|-1-1-1-1-8-8-8-8---5-5-5-5-5-0---5-5-5-5-5-0---1-1-1-1-8-8-8-7-------------|

Chorus
  (0:40)
G|---------------------------------------------------------------------------|
D|---------------------------------------------------------------------------|
A|---------------------(3x)----------------(play this the 4th time)----------|
D|-5--0--1--10-10-3-4--------5--0--1----3------------------------------------|

Intro (0:57)
Verse (1:05)
Pre-Chorus (1:21)
Chorus (1:33)
Intro (1:49)

Bridge
  (1:58)
G|---------------------------------------------------------------------------|
D|---------------------------------------------------------------------------|
A|------------------(1x)---------(4x)-------------------(1x)---------(2x)----|
D|-1-1-1-1-8-8-8-3--------5---0--------1-1-1-1-8-8-8-8--------5---0----------|

G|---------------------------------------------------------------------------|
D|---------------------------------------------------------------------------|
A|------------------(1x)---------(2x)----------------------------------------|
D|-1-1-1-1-8-8-8-8--------5---0--------1-1-1-1-1-1-1-1-8-8-8-8-8-------------|

Chorus 2x (2:30)
Intro (3:03)

6.LET YOU DOWN

intro

#------------------------------------------------------------------|
#------------------------------------------------------------------|
#------------------------------------------------------------------|
#----0-0-0-0-0-0-0-----0-0-0-0-0-0-0---0-0-0-0-0-0-0---0-0-0-0-0-0-|
verse
#-----------------------------------------------------------------|
#-----------------------------------------------------------------|
#---------3---1-----------3--1-------3--1------3--1--1--1--3--3---|  (x2)
#---0--0-----------0--0--------0--0-------0--0--------------------|
chorus

#------------------------------------------------------------------|
#----------------------------------(x3)----------------------------|
#------------------------------------------------------------------|
#---0--0-3-0-3-----8-7-10---------------8-8-8-8-8-8-10-10-10-10-10-|

verse

chorus (x2)

internlude

#-----------------------------------------------------------------|
#-----------------------------------------------------------------|
#-------------------(x2)-----------------------------(x4)---------|
#-----0-9-7-5-4-0--------9----4----5----0-9-7-5-4-0--------0----0-|


#-----------------------------------------------------------------|
#-----------------------------------------------------------------|
#-----------------------------------------------------------------|
#-------------------8-7-10----------------------------------------|


chorus(x2)

intro couple of times

7.NOW OR NEVER

Don't Know

8.BORN LIKE THIS

-------------------------------|
-------------------------------|  4X
-------------------------------|
-0--0-0-2-2-3-6-6-6-6-5^-------|


-------------------------------|
-------------------------------|  4X
-------------------------------|
-0-2-3-6-6-6-6-5-5-5-----------|

---------------------------------------------------------------| 3X
-0-0-0---------------------------------------------------------|
-------0--0-------------1-1--0-0-------1---0----------1-1----3-|
------------2-2-2-3--0-----------0-0-0-------3-3-3-5-----------|

-------------------------------|
-------------------------------|
-------------------------------|
-------------------------------|
-0-0-0-0------0-0-0-0----------|


-------------------------------|
-------------------------------|
-2-----0----2------------------|
-------------------------------|

--------------------------------------|
--------------------------------------|
--------------------------------------|
-88888888--8--X-3-3---X-X-3-3-3--X--1-|

9.DROWN

intro

#------------------------------------------------------------------------|
#------------------------------------2---2-3-----------------------------|
#------------------------1-1-0-0-0-1---1------1-1-0-0-0-1-1-1------------| (x2)
#---0-0-3-0-3-0-5-0-2-2----------------------------------------------0---|
                                             on second time
verse

#--------------------------------------------------------------------------|
#--------------------------------------------------------------------------|
#------------------------------------------------------------------------3-|
#--0-----------------------------0-----------------------------------------|
    leeeeet  riiiiiiing              riiiing agaaaaaain

chorus

#----------------------------------------------------------------------|
#----------------------------------------------------------------------|
#--------1-----0---3-3-------------------------------------------------|  (x4)
#---0-------3----------------------------------------------------------|

intro (x2)

verse

chorus(x4)

inturlude is chorus (x however many)

chorus(x4)

10.WAKE UP

start this at 00:18
G|---------------------------------------------------------------:
D|---------------------------------------------------------------:
A|---------------------------------------------------------------:X3
D|-444444-222222-777777-222222-----------------------------------:

pre-chorus
G|---------------------------------------------------------------:
D|---------------------------------------------------------------:
A|---------------------------------------------------------------:
D|-4-4-4-4-6-6-6-6-7-7-7-7-9-9-9-9-------------------------------:

chorus
G|---------------------------------------------------------------:
D|---------------------------------------------------------------:
A|-------------------------------------444444/5-55555------------:
D|-44444--22-222--77777--22-222--44444----------------22222222---:

11.TAKE ME UNDER

Intro (clean)
|------------------------------------------------|
|------------------------------------------------|
|------------------------------------------------|
|--5---5-7---7-8---8-10---10---------------------|
                                                    (x4)
|------------------------------------------------|
|------------------------------------------------|
|--6-6---------6-6---------6-6-------------------|
|------------------------------------------------|

|------------------------------------------------------------|
|------3-----------1------------3-----------1----------------|
|----3-----------1------------3-----------1------------------|
|--3-----------1------------3-----------1--------------------|


Verse (distorted)
|------------------------------------------------|
|------------------------------------------------|
|----------------------------5----8--------------|
|--5---5-7---7-8---8-10---10---------------------|
						(x4)
|------------------------------------------------|
|------2----------2------------------------------|
|----1----------1--------------------------------|
|--1----------1----------------------------------|


Pre-chorus
|------------------------------------------------------------|
|------3-----------1------------3-----------1----------------|
|----3-----------1------------3-----------1------------------|
|--3-----------1------------3-----------1--------------------|


Chorus
|---------------------------------------------------|
|---------------------------------------------------|
|---------------------------------------------------|
|--5---0---13---12---0------5---0---13---12---0-----|
				(x2)
|------------------------------------------------------|
|------------------------------------------------------|
|------------------------------------------------------|
|--3---3---3---3---3---------1---1---1---1---1---------|


Verse

Chorus

Bridge
|-----------------------------------------------------|
|-----------------------------------------------------|
|-----------------------------5-5-8-8-----------------|
|--5-5-5-7-7-7-8-8-8-10-10-10-------------------------|
                                                       (x4)
|-------------------------------------------------------|
|-------------------------------------------------------|
|--6---6---6---6-------6---6---6---6------6-------------|
|-------------------------------------------------------|


Pre-Chorus
|-------------------------------------------------------------|
|------3-----------1------------3-----------------------------|
|----3-----------1------------3-------------------------------|
|--3-----------1------------3---------------------------------|

|------------------------------------------------|
|------------------------------------------------|
|--6-6-6-5-5-5-----------------------------------|
|--------------10-10-10-8-8-8-7^-----------------|


Chorus
|-------------------------------------------------------------|
|-------------------------------------------------------------|
|-------------------------------------------------------------|
|--5---0---13---12---0------5---0---13---12----*12-*12-*12----|
	                                                       (x2)
|-----------------------------------------------------------|
|-----------------------------------------------------------|
|-----------------------------------------------------------|
|--3---3---3---3---3---------1---1---1---1---1--------------|

Bridge

Pre-chorus (clean)

Again

12.OVERRATED

Intro
|---------------------------------------------------|
|---------------------------------------------------|
|-----------8-7----10-8-7---------------------------|
|--0-8-7-0------7----------7-10-8-7-8---------------|


Verse (clean)(x5)
|-----------------------------------------------------------------------------|
|-----------------------------------------------------------------------------|
|--5---5---3-----7---7/-5---------0-3/-7-------3----7--7/-5-------0-3---------|
|--0----------------------------3------0------------------------3-------------|

Chorus
|--------------------------------------------|
|--------------------------------------------|
|-----------------------------0-3------------|
|--0-0---10-10---5-5---3----3----------------|


Pre-verse
|---------------------------------------------|
|---------------------------------------------|
|---------------------------------------------|
|--0------------------------------------------|


Verse (x4)
|-----------------------------------------------------------------------------|
|-----------------------------------------------------------------------------|
|--5---5---3-----7---7/-5----------0-3/-7-------3----7---7/-5-------0-3-------|
|--0-----------------------------3------0------------------------3------------|

Chorus


Bridge
|---------------------------------------------|
|---------------------------------------------|
|---------------------------------------------|
|--0------------------------------------------|


Intro Riff


Chorus

End With

|---------------------------------------------------------------------------|
|---------------------------------------------------------------------------|
|---------------------------------------------------------------------------|
|--0--0--0--0--0--0--0--0--0--0--0--0--0--0--0--0--0--0--0--0---------------|

Use of 3rd string on verses is optional.

ENJOY!!!
comments
We did not receive enough feedback on this tab! Please rate:
print report bad tab
1 2 3 4 5
8 comments total. Showing first comments.
+2 reply
saturns_bassman wrote on January 17 2005, 12:00 am

dude in the i hate everything about you video the bass player isnt playing a five string its in drop d.....and in the just like u one he plays a 5 string but nice tab any way thought id let u no

+1 reply
commonlerror wrote on April 15 2005, 12:00 am

dude your i hate everything about you is so bad at the biggining... ill rate you four stars kuz its not a bad tab its just really really bad at the intro... ill comment and give you the correct intro in a bit but i hafta go do something first

+2 reply
commonlerror wrote on April 15 2005, 12:00 am

so is the beginning of just like you...

I want to post or [tab]
guest
You may want to rate the tab now too:
select rating
Please do not post tabs as comments. Select "correction" instead!