Oops, an error
Loading. Please wait.

Three Days Grace Tab

ver1
ver1

Album

More versions @911Tabs.com
49,680 views 30 this week
10 commentsread comments
1 2 3 4 5
accurate
x 12
add to favorites launch autoscroll
font size
0
reset
Autoscroll
+/-
esc
set tempo
stop
Contributor
WARNING: You are trying to view
                                    content from Ultimate-Guitar.com
                                    in an unauthorized application,
                                    which is prohibited.

                                    Please use an official Ultimate
                                    Guitar Tabs application for iPhone,
                                    iPad or Android to access legitimate
                                    chords, guitar, bass, and drum tabs
                                    from Ultimate-Guitar.com database.

                                    Type "ultimate guitar tabs" in Apple
                                    App Store's or Android Market's
                                    search to find the application.
Band  - Three Days Grace
Album - Three Days Grace

1.Burn
2.Just Like You
3.I Hate Everything About You
4.Home
5.Scared
6.Let You Down
7.Now Or Never
8.Born Like This
9.Drown
10.Wake Up
11.Take Me Under
12.Overrated

1.BURN

Tuning: Dropped D (D,A,D,G,B,E)

Intro
|----------------------------------------------------------|
|----------------------------------------------------------|
|----------------------------------------------------------|
|----------------------------------------------------------|   (x3)
|----------------------------------------------------------|
|-0-10-12-10-12-10-0-10-12-10-12-10-0-10-12-13-------------|

|--------------------------------------------|
|--------------------------------------------|
|--------------------------------------------|
|--------------------------------------------|
|--------------------------------------------|
|-0-10-12-10-12-10-0-10-12/------------------|

|--------------------------------------------|
|--------------------------------------------|
|--------------------------------------------|
|-0-10-12--12-10-0-10-12--12-10--10--12h13---|   (x4)
|-0-10-12--12-10-0-10-12--12-10--10--12h13---|
|-0-10-12--12-10-0-10-12--12-10--10--12h13---|

|--------------------------------------|
|--------------------------------------|
|--------------------------------------|
|-0--0--12-10--0-12--0-10--10-12h13----|  (x3)
|-0--0--12-10--0-12--0-10--10-12h13----|
|-0--0--12-10--0-12--0-10--10-12h13----|


|------------------------------------------|
|------------------------------------------|
|------------------------------------------|
|-0--0--12-10--0-12/-----------------------|
|-0--0--12-10--0-12/-----------------------|
|-0--0--12-10--0-12/-----------------------|

Verse
|---------------------------------------------|
|---------------------------------------------|
|---------------------------------------------|
|-6--6--6--6--6--6--6--7----------------------|
|-5--5--5--5--5--5--5--5----------------------|
|-0-------------------------------------------|
				(x4)
(with tremolo)
|--18~--18~--18~--18~--18~--18~--18~-----------|
|----------------------------------------------|
|----------------------------------------------|
|----------------------------------------------|
|----------------------------------------------|
|----------------------------------------------|

|------------------------------------------|
|------------------------------------------|
|--/9--------------------------------------|
|--/10--------7-7-7-7-8p7-7-10-------------|
|--/8---------7-7-7-7-8p7-7-10-------------|
|-------------7-7-7-7-8p7-7-10-------------|

Chorus
|------------------------------------------------------------------------|
|------------------------------------------------------------------------|
|------------------------------------------------------------------------|
|-0--0--7-7----10----10-10--8-8-5-5--5-5--5-3---3-1---7-7-7-7-8p7-7-10---|  (x2)
|-0--0--7-7----8-----8--8---8-8-5-5--5-5--5-3---3-1---7-7-7-7-8p7-7-10---|
|-0--0--7-7----8-----8--8---8-8-5-5--5-5--5-3---3-1---7-7-7-7-8p7-7-10---|

Verse

Chorus

Bridge
|------------------------------------------------|
|------------------------------------------------|
|------------------------------------------------|
|-0-10-12-10-12-10-0-10-12-10-12-10-0-10-12-13---|  (x2)
|-0-10-12-10-12-10-0-10-12-10-12-10-0-10-12-13---|
|-0-10-12-10-12-10-0-10-12-10-12-10-0-10-12-13---|

|--------------------------------------------|
|--------------------------------------------|
|--------------------------------------------|
|-0-10-12--12-10-0-10-12--12-10--10--12h13---|   (x2)
|-0-10-12--12-10-0-10-12--12-10--10--12h13---|
|-0-10-12--12-10-0-10-12--12-10--10--12h13---|

|----------------------------------------------------------------------------|
|-----------------------9-9-9b10(10)(10)(10)(10)(10)(10)(10)(10)(10)-10^-9---|
|----------------------------------------------------------------------------|
|--6--6--6--6--6--6--7-------------------------------------------------------|(x2)
|--5--5--5--5--5--5--5-------------------------------------------------------|
|----------------------------------------------------------------------------|


|---------------------------------------------------|
|---------------------------------------------------|
|---------------------------------------------------|
|--3-----5------3-------7-7-7-7---------------------|
|--3-----5------3-------7-7-7-7---------------------|
|--3-----5------3-------7-7-7-7---------------------|

Chorus

Outro
|------------------------------------------------|
|------------------------------------------------|
|------------------------------------------------|
|-0-10-12-10-12-10-0-10-12-10-12-10-0-10-12-13---|  (x2)
|-0-10-12-10-12-10-0-10-12-10-12-10-0-10-12-13---|
|-0-10-12-10-12-10-0-10-12-10-12-10-0-10-12-13---|

|--------------------------------------------|
|--------------------------------------------|
|--------------------------------------------|
|-0-10-12--12-10-0-10-12--12-10--10--12h13---|   (x2)
|-0-10-12--12-10-0-10-12--12-10--10--12h13---|
|-0-10-12--12-10-0-10-12--12-10--10--12h13---|

|---------------------------------------------|
|---------------------------------------------|
|---------------------------------------------|
|---------0-12-10-0-10-12--12-10--10--12h13---|
|---------0-12-10-0-10-12--12-10--10--12h13---|
|---------0-12-10-0-10-12--12-10--10--12h13---|

|--------------------------------------------|
|--------------------------------------------|
|--------------------------------------------|
|-0-10-12--12-10-0-10-12--12-10--10--12h13---|
|-0-10-12--12-10-0-10-12--12-10--10--12h13---|
|-0-10-12--12-10-0-10-12--12-10--10--12h13---|

|---------------------------------------------|
|---------------------------------------------|
|---------------------------------------------|
|-------0-0-12-10-0-10-12--12-10--10--12h13---| (x3)
|-------0-0-12-10-0-10-12--12-10--10--12h13---|
|-------0-0-12-10-0-10-12--12-10--10--12h13---|

|----------------------------------------------------|
|----------------------------------------------------|
|----------------------------------------------------|
|-------0-0-12-10-0-10-12--12-12-12-10-10-10-12h13---|
|-------0-0-12-10-0-10-12--12-12-12-10-10-10-12h13---|
|-------0-0-12-10-0-10-12--12-12-12-10-10-10-12h13---|

|---------------------------------------|
|---------------------------------------|
|---------------------------------------|
|-0-0-0--12-10--0-12--0-10--10-12h13----|  (x4)
|-0-0-0--12-10--0-12--0-10--10-12h13----|
|-0-0-0--12-10--0-12--0-10--10-12h13----|

2.JUST LIKE YOU

Tuning: Dropped D, half a step down. (Db,Ab,Db,Gb,Bb,Eb)

Intro/Outro/Verse (x3)
|------------------------------------------------------------------|
|------------------------------------------------------------------|
|------------------------------------------------------------------|
|--9-7-4-0-9-9---9-7-4-0-9-9---9-7-4-0-9-9---7---x-x-9--x-x-9------|
|--9-7-4-0-9-9---9-7-4-0-9-9---9-7-4-0-9-9---5---x-x-7--x-x-7------|
|--9-7-4-0-9-9---9-7-4-0-9-9---9-7-4-0-9-9---5---x-x-7--x-x-7------|

Pre-chorus:
|------------------------------------------------------------------|
|------------------------------------------------------------------|
|--6----------7----------6-----------------------------------------|
|--4----------5----------4---------7--7--7--7---x-x-9--x-x-9-------|
|--4----------5----------4---------5--5--5--5---x-x-7--x-x-7-------|
|--4----------5----------4---------5--5--5--5---x-x-7--x-x-7-------|
pm *  *  *  *

Chorus (x2)
|-----------------------------------------------------------------------------|
|-----------------------------------------------------------------------------|
|-----------------------------------------------------------------------------|
|--9--9----0--0----7--7----10--10-----9--9----0--0----7--7----x-x-9---x-x-9---|
|--9--9----0--0----7--7----10--10-----9--9----0--0----5--5----x-x-7---x-x-7---|
|--9--9----0--0----7--7----10--10-----9--9----0--0----5--5----x-x-7---x-x-7---|

Verse

Pre-chorus

Chorus

Bridge (x2)
|----------------------------------------------------------|
|----------------------------------------------------------|
|----------------------------------------------------------|
|--7--7--7--7-0--0---9-7-4-0--2--2--2--2-7--7---9-7-4-0----|
|--5--5--5--5-0--0---9-7-4-0--2--2--2--2-7--7---9-7-4-0----|
|--5--5--5--5-0--0---9-7-4-0--2--2--2--2-7--7---9-7-4-0----|

Pre-chorus

Chorus

Outro
~~~~~~~~~~~~~~~~

3.I HATE EVERYTHING ABOUT YOU

Intro (Clean)
E|------------------------------------------|
B|------------------------------------------|
G|----4-6b-------4-6b-------4-6b-------4-6b-|
D|----4-6b-------4-6b-------4-6b-------4-6b-|
A|------------------------------------------|
D|-4--------0h4--------0h4--------0h4-------|

  Intro Continued (clean)
E|--------------------------------------------|
B|--------------------------------------------|
G|------4-6b-------4-6b-------4-6b-------4-6b-|
D|------4-6b-------4-6b-------4-6b-------4-6b-|
A|--------------------------------------------|
D|-0-0--------0-0--------0-0--------0-0-------|x1

  Verse 1 (clean)
E|------------------------------------------|
B|------------------------------------------|
G|----4-6b-------4-6b-------4-6b-------4-6b-|
D|----4-6b-------4-6b-------4-6b-------4-6b-|
A|------------------------------------------|
D|-4--------0h4--------0h4--------0h4-------|

  Verse 1 Continued (clean)
E|--------------------------------------------|
B|--------------------------------------------|
G|------4-6b-------4-6b-------4-6b-------4-6b-|
D|------4-6b-------4-6b-------4-6b-------4-6b-|
A|--------------------------------------------|
D|-0-0--------0-0--------0-0--------0-0-------|x4

  Pre-chorus (distortion)
E|---------------------------------------|
B|---------------------------------------|
G|---------------------------------------|
D|-2--------------------0------------6---|
A|-2--------------------0------------4---|
D|-2--------------------0----------------|x1

  Chorus (Heavy Distortion)
E|----------------------------------------------------------------------------------------|
B|----------------------------------------------------------------------------------------|
G|----------------------------------------------------------------------------------------|
D|-4-4----0-0----7-7-7-7-77-7--2-2-2-2-2-----4-4-4-4-44-4--0-0-0-0-0----2-2-2-2-22-2--7-6-|
A|-4-4----0-0----7-7-7-7-77-7--2-2-2-2-2-----4-4-4-4-44-4--0-0-0-0-0----2-2-2-2-22-2--7-6-|
D|-4-4----0-0----7-7-7-7-77-7--2-2-2-2-2-----4-4-4-4-44-4--0-0-0-0-0----2-2-2-2-22-2--7-6-|x2

  Chorus Breakdown (clean)
E|------------------------------------------|
B|------------------------------------------|
G|----4-6b-------4-6b-------4-6b-------4-6b-|
D|----4-6b-------4-6b-------4-6b-------4-6b-|
A|------------------------------------------|
D|-4--------0h4--------0h4--------0h4-------|

  Chorus Breakdown Continued (clean)
E|--------------------------------------------|
B|--------------------------------------------|
G|------4-6b-------4-6b-------4-6b-------4-6b-|
D|------4-6b-------4-6b-------4-6b-------4-6b-|
A|--------------------------------------------|
D|-0-0--------0-0--------0-0--------0-0-------|x1

  Verse 2 (clean)
E|------------------------------------------|
B|------------------------------------------|
G|----4-6b-------4-6b-------4-6b-------4-6b-|
D|----4-6b-------4-6b-------4-6b-------4-6b-|
A|------------------------------------------|
D|-4--------0h4--------0h4--------0h4-------|

  Verse 2 Continued (clean)
E|--------------------------------------------|
B|--------------------------------------------|
G|------4-6b-------4-6b-------4-6b-------4-6b-|
D|------4-6b-------4-6b-------4-6b-------4-6b-|
A|--------------------------------------------|
D|-0-0--------0-0--------0-0--------0-0-------|x2

 Pre-chorus 2 (distortion)
E|---------------------------------------|
B|---------------------------------------|
G|---------------------------------------|
D|-2--------------------0------------6---|
A|-2--------------------0------------4---|
D|-2--------------------0----------------|x1

  Chorus 2 (Heavy Distortion)
E|----------------------------------------------------------------------------------------|
B|----------------------------------------------------------------------------------------|
G|----------------------------------------------------------------------------------------|
D|-4-4----0-0----7-7-7-7-77-7--2-2-2-2-2-----4-4-4-4-44-4--0-0-0-0-0----2-2-2-2-22-2--7-6-|
A|-4-4----0-0----7-7-7-7-77-7--2-2-2-2-2-----4-4-4-4-44-4--0-0-0-0-0----2-2-2-2-22-2--7-6-|
D|-4-4----0-0----7-7-7-7-77-7--2-2-2-2-2-----4-4-4-4-44-4--0-0-0-0-0----2-2-2-2-22-2--7-6-|x2

  Bridge (Clean)
E|--|---------------------------------------------------------------------------|
B|------------------------------------------------------------------------------|
G|------------------------------------------------------------------------------|
D|-6--7--9--6--7--9--6--7--9--6--7/6-----6--7--9--6--7--9--6--7--9--6--7/6------|
A|------------------------------------7-------------------------------------7/3-|
D|------------------------------------------------------------------------------|x1

  Pre Chorus 3 (Clean)
E|------------------------------------------|
B|------------------------------------------|
G|----4-6b-------4-6b-------4-6b-------4-6b-|
D|----4-6b-------4-6b-------4-6b-------4-6b-|
A|------------------------------------------|
D|-4--------0h4--------0h4--------0h4-------|x1

  Chorus 3 (Heavy Distortion)
E|----------------------------------------------------------------------------------------|
B|----------------------------------------------------------------------------------------|
G|----------------------------------------------------------------------------------------|
D|-4-4----0-0----7-7-7-7-77-7--2-2-2-2-2-----4-4-4-4-44-4--0-0-0-0-0----2-2-2-2-22-2--7-6-|
A|-4-4----0-0----7-7-7-7-77-7--2-2-2-2-2-----4-4-4-4-44-4--0-0-0-0-0----2-2-2-2-22-2--7-6-|
D|-4-4----0-0----7-7-7-7-77-7--2-2-2-2-2-----4-4-4-4-44-4--0-0-0-0-0----2-2-2-2-22-2--7-6-|x4

  Ending (distortion)
E|-----------------|
B|-----------------|
G|-----------------|
D|-----------------|
A|--4~-------------|
D|--4~-------------|

4.HOME

Tuning: Drop C. Low to high (C, G, C, F, A, D)

Intro:

Guitar One
|----------------------------|-----------------------------|
|----------------------------|-----------------------------|
|----------------------------|-----------------------------|
|0-0---0-0---10-10--5-5------|-0-0---0-0---1-1---5-5-------|
|0-0---0-0---8--8---5-5------|-0-0---0-0---1-1---3-3-------|
|0-0---0-0---8--8---5-5------|-0-0---0-0---1-1-------------|

Guitar Two
|---17----17-----18----20-18-|----17----17-----18----20-18-|
|----------------------------|-----------------------------|
|----------------------------|-----------------------------|
|----------------------------|-----------------------------|
|----------------------------|-----------------------------|
|----------------------------|-----------------------------|

Guitar One
|------------------------------------------|--------------------------------------------|
|------------------------------------------|--------------------------------------------|
|------------------------------------------|--------------------------------------------|
|0-0-x-x-x-0-0-x-x-x-10-10-x-x-x-5-5-x-x-x-|-0-0-x-x-x-0-0-x-x-x-1-1-x-x-x-5-5-x-x-x----|
|0-0-x-x-x-0-0-x-x-x-8--8--x-x-x-5-5-x-x-x-|-0-0-x-x-x-0-0-x-x-x-1-1-x-x-x-3-3-x-x-x----|
|0-0-x-x-x-0-0-x-x-x-8--8--x-x-x-5-5-x-x-x-|-0-0-x-x-x-0-0-x-x-x-1-1-x-x-x--------------|

Guitar Two
|-----17--------17----------18-------20-18-|------17---------17--------18-------20-18-17|
|------------------------------------------|--------------------------------------------|
|------------------------------------------|--------------------------------------------|
|------------------------------------------|--------------------------------------------|
|------------------------------------------|--------------------------------------------|
|------------------------------------------|--------------------------------------------|

Verse:

Guitar One
|----------------------------------------------------------------------|
|----------------------------------------------------------------------|
|----------------------------------------------------------------------|
|----------------------------------------------------------------------|
|----------------------------------------------------------------------|
|------------------------------------------0-3p0-0-5p0-0-7p0-0-8-10-12-|(do twice)

Guitar Two
|--------------------|---------------------|
|--10---10---10---10-|---11---11---11---11-|
|7----7----7----7----|-7----7----7----7----|
|--------------------|---------------------|
|--------------------|---------------------|
|--------------------|---------------------|

Chorus:

Guitar One and Two:
|-----------------|----0-----------|----0------------|----0-------------|
|-----------------|----3-----------|----3------------|----3-------------|
|-----------------|----2-----------|----2------------|----2-------------|
|---------10--5---|-0------1---5---|-0------10---5---|-0------1-----5---|
|0-0-0-0--8---5---|-0------1---3---|-0------8----5---|-0------1-----3---|
|0-0-0-0--8---5---|-0------1-------|-0------8----5---|-0------1---------|

Better off alone
Guitar One
|----------------------------|-----------------------------|
|----------------------------|-----------------------------|
|----------------------------|-----------------------------|
|0-0---0-0---10-10--5-5------|-0-0---0-0---1-1---5-5-------|
|0-0---0-0---8--8---5-5------|-0-0---0-0---1-1---3-3-------|
|0-0---0-0---8--8---5-5------|-0-0---0-0---1-1-------------|

Guitar Two
|---17----17-----18----20-18-|----17----17-----18----20-18-|
|----------------------------|-----------------------------|
|----------------------------|-----------------------------|
|----------------------------|-----------------------------|
|----------------------------|-----------------------------|
|----------------------------|-----------------------------|

Guitar One
|----------------------------|
|----------------------------|
|----------------------------|
|----------------------------|
|----------------------------|
|0-3p0-0-5p0-0-7p0-0-8-10-12-|


Verse:

Guitar One
|----------------------------------------------------------------------|
|----------------------------------------------------------------------|
|----------------------------------------------------------------------|
|----------------------------------------------------------------------|
|----------------------------------------------------------------------|
|------------------------------------------0-3p0-0-5p0-0-7p0-0-8-10-12-|(do twice)

Guitar Two
|--------------------|---------------------|
|--10---10---10---10-|---11---11---11---11-|
|7----7----7----7----|-7----7----7----7----|
|--------------------|---------------------|
|--------------------|---------------------|
|--------------------|---------------------|

Chorus:

Guitar One and Two:
|-----------------|----0-----------|----0------------|----0-------------|
|-----------------|----3-----------|----3------------|----3-------------|
|-----------------|----2-----------|----2------------|----2-------------|
|---------10--5---|-0------1---5---|-0------10---5---|-0------1-----5---|
|0-0-0-0--8---5---|-0------1---3---|-0------8----5---|-0------1-----3---|
|0-0-0-0--8---5---|-0------1-------|-0------8----5---|-0------1---------|

Better off alone
Guitar One
|----------------------------|-----------------------------|
|----------------------------|-----------------------------|
|----------------------------|-----------------------------|
|0-0---0-0---10-10--5-5------|-0-0---0-0---1-1---5-5-------|
|0-0---0-0---8--8---5-5------|-0-0---0-0---1-1---3-3-------|
|0-0---0-0---8--8---5-5------|-0-0---0-0---1-1-------------|

Guitar Two
|---17----17-----18----20-18-|----17----17-----18----20-18-|
|----------------------------|-----------------------------|
|----------------------------|-----------------------------|
|----------------------------|-----------------------------|
|----------------------------|-----------------------------|
|----------------------------|-----------------------------|

Guitar One
|------------------------------------------|--------------------------------------------|
|------------------------------------------|--------------------------------------------|
|------------------------------------------|--------------------------------------------|
|0-0-x-x-x-0-0-x-x-x-10-10-x-x-x-5-5-x-x-x-|-0-0-x-x-x-0-0-x-x-x-1-1-x-x-x-5-5-x-x-x----|
|0-0-x-x-x-0-0-x-x-x-8--8--x-x-x-5-5-x-x-x-|-0-0-x-x-x-0-0-x-x-x-1-1-x-x-x-3-3-x-x-x----|
|0-0-x-x-x-0-0-x-x-x-8--8--x-x-x-5-5-x-x-x-|-0-0-x-x-x-0-0-x-x-x-1-1-x-x-x--------------|

Guitar Two
|-----17--------17----------18-------20-18-|------17---------17--------18-------20-18-17|
|------------------------------------------|--------------------------------------------|
|------------------------------------------|--------------------------------------------|
|------------------------------------------|--------------------------------------------|
|------------------------------------------|--------------------------------------------|
|------------------------------------------|--------------------------------------------|

Bridge:

Guitar One [this part is actually bass, but you can turn your volume knob down and play along]
|--------------------------------|
|--------------------------------|
|--------------------------------|
|--------------------------------|
|--------------------------------|
|0-0-0-0-0-0-0-0-8-8-8-8-5-5-5-5-| (x3)

Guitar Two:
|------------------------|
|------------------------|
|------------------------|
|------------------------|
|------------------------|
|0-0-0-0-0-0-0-0-1-1-1-1-|  I'm better off alone

Chorus:

Guitar One and Two:
|-----------------|----0-----------|----0------------|----0-------------|
|-----------------|----3-----------|----3------------|----3-------------|
|-----------------|----2-----------|----2------------|----2-------------|
|---------10--5---|-0------1---5---|-0------10---5---|-0------1-----5---|
|0-0-0-0--8---5---|-0------1---3---|-0------8----5---|-0------1-----3---|
|0-0-0-0--8---5---|-0------1-------|-0------8----5---|-0------1---------|

Better off alone
Guitar One
|----------------------------|-----------------------------|
|----------------------------|-----------------------------|
|----------------------------|-----------------------------|
|0-0---0-0---10-10--5-5------|-0-0---0-0---1-1---5-5-------|
|0-0---0-0---8--8---5-5------|-0-0---0-0---1-1---3-3-------|
|0-0---0-0---8--8---5-5------|-0-0---0-0---1-1-------------|

Guitar Two
|---17----17-----18----20-18-|----17----17-----18----20-18-|
|----------------------------|-----------------------------|
|----------------------------|-----------------------------|
|----------------------------|-----------------------------|
|----------------------------|-----------------------------|
|----------------------------|-----------------------------| (repeat)

Ends with an open D

5.SCARED

Tuning: Drop D

Intro:
E|------------------------------------------------|
G|------------------------------------------------|
B|---3-3--33-3-2----3-3-3-3h5-2-------------------|  X3
D|---5-5--55-5-4----5-5-5-5h7-4-------------------|
A|------------------------------------------------|
D|------------------------------------------------|

Verse:
|------------6-6--6-6-5----|-----6--6--6h8-5-----------|
|--------------------------|---------------------------|
|--------------------------|---------------------------|  X2
|--------------------------|---------------------------|
|--------------------------|---------------------------|
|------------------------X3|---------------------------|

Prechorus:
|---------------------------------------------------------------------------|
|---------------------------------------------------------------------------|
|-------------------------3-3--3-33-2----3-3-3-3h5-2------------------------|
|--------1---------8------5-5--5-55-4----5-5-5-5h7-4-----1---------8------7-|
|--------1---------8-------------------------------------1---------8------7-|
|--------1---------8-------------------------------------1---------8------7-|

Chorus:
|------------------------------|
|------------------------------|
|--------------------5--5------|   X4
|-5----0----1--------5--5--3---|
|-5----0----1--------3--3--3---|
|-5----0----1--------------3---|

Post Chorus:
|------------------------------------|
|------------------------------------|
|---3-3--3-33-2----3-3-3-3h5-2-------|  X 2
|---5-5--5-55-4----5-5-5-5h7 4-------|
|------------------------------------|
|------------------------------------|

Verse

Prechorus

Chorus

Post Chorus

Bridge
|------------------|
|------------------|
|------------------|
|----1--------8----|
|----1--------8----|
|----1--------8----|

|---------------|
|----8~\3~/8----|
|---------------|  X12
|---------------|
|---------------|
|---------------|

|-----------------------------------|
|-----------------------------------|
|-----------------------------------|
|--1-1-1-1-1-1-1-1-8-8-8-8-8-8-8-8--|
|--1-1-1-1-1-1-1-1-8-8-8-8-8-8-8-8--|
|--1-1-1-1-1-1-1-1-8-8-8-8-8-8-8-8--|

chorus X 8

Postchorus

6.LET YOU DOWN

Tuning: Dropped D, 1 step down (C,G,C,F,A,D)
Intro/Verse
|-------------------------------------------------|
|-------------------------------------------------|
|----------2---------2------2--------*2-----------|
|-------0--------0------0---------*0--------------|
|--5---------3------1----------*3-----------------|
|-------------------------------------------------|
  *(play this only the 3rd time through the riff)

Chorus
|--0------------------------------------------|
|--3------------------------------------------|
|--2------------------------------------------|
|--0--0---3-0-3----8-7-10---------------------| (x3)
|--0--0---3-0-3----8-7-10---------------------|
|--0--0---3-0-3----8-7-10---------------------|

|--------------------------------------------|
|--------------------------------------------|
|--10------12--------------------------------|
|--8-------10--------------------------------|
|--8-------10--------------------------------|
|--8-------10--------------------------------|

Verse

Chorus
|--0------------------------------------------|
|--3------------------------------------------|
|--2------------------------------------------|
|--0--0---3-0-3----8-7-10---------------------| (x3)
|--0--0---3-0-3----8-7-10---------------------|
|--0--0---3-0-3----8-7-10---------------------|

|--------------------------------------------|
|--------------------------------------------|
|--10------12--------------------------------|
|--8-------10--------------------------------|
|--8-------10--------------------------------|
|--8-------10--------------------------------|

|--0------------------------------------------|
|--3------------------------------------------|
|--2------------------------------------------|
|--0--0---3-0-3--x-x--x--x---8-7-10-----------| (x3)
|--0--0---3-0-3--x-x--x--x---8-7-10-----------|
|--0--0---3-0-3--x-x--x--x---8-7-10-----------|

|--------------------------------------------|
|--------------------------------------------|
|--10------12--------------------------------|
|--8-------10--------------------------------|
|--8-------10--------------------------------|
|--8-------10--------------------------------|

Bridge
|-------------14-------------------17------------------------21------|
|---12------------------14--------------------15---------------------|
|--------------------------------------------------------------------|
|--------------------------------------------------------------------|
|--------------------------------------------------------------------|
|--------------------------------------------------------------------|
					(x2)
|--------------------------------------------|
|--------------------------------------------|
|--------------------------------------------|
|--0--9--7--5--4--0--------------------------|
|--0--9--7--5--4--0--------------------------|
|--0--9--7--5--4--0--------------------------|

|------------------------------------------------|
|------------------------------------------------|
|--11----6----7----------------------------------|
|--9-----4-----5--------0--9--7--5--4--0---------| (x2)
|--9-----4-----5--------0--9--7--5--4--0---------|
|--9-----4-----5--------0--9--7--5--4--0---------|

|----------------------------------------------|
|----------------------------------------------|
|--11----6-----7-------------------------------|
|--9-----4-----5-------------------------------|
|--9-----4-----5-------------------------------|
|--9-----4-----5-------------------------------|

|--------------------------------------------|
|--------------------------------------------|
|--------------------------------------------|
|--0---------------0---------8--7--10--------|
|--0---------------0---------8--7--10--------|
|--0---------------0---------8--7--10--------|

Chorus

7.NOW OR NEVER

Drop D:
D A D G B E

Intro:

Bsus2                         D5
in this time, are we loving   or do we sit here wondering

Esus2                         G5
why this world isn�t turning �round it�s now or never

  B5    D5     E5         G5          F#5         Asus
e-----------------------------       -------------0----------|
b-----------------------------       -------------0----------|
g-4--4------------------------       -------------2----------|
d-4--4------------------------       -------------2----------|
a-2--2--0----0h2-2----2---5--- (x3)  -4--4--4--4--0----------|
d-------0----0h2-2----2---5---       -4--4--4--4-------------|

Verses:

G5           D5             Esus2        Asus2
we have no use, for the truth, now�s the time for us to lose

G5             D5                         Esus2
who we are and how we tried, taking every step in stride

                  Asus2
it�s now or never to decide

Chorus:

B5      D5    E5     G5         B5    D5    E5       G5
in this time, are we loving ... or do we    sit here wondering

B5       D5      E5    G5       F#5        Asus2
why this world   isn�t turning �round it�s now or never

B5      D5     E5     G5        B5    D5    E5       G5
in this world, are we learning  or do we    sit here yearning

B5       D5      E5      G5       F#5        Asus2
for this world   to stop turning �round it�s now or never

2nd Verse: same

Chorus:

Intro:

Chorus:

Chords used:

e-------------------------------0-----------|
b-------------------------------0-----------|
g-------------------4-----------2-----------|
d-11------5----0----4----4------2------9----|
a--9------5----0----2----2------0------7----|
d--9------5----0---------2-------------7----|
  Bsus2   G5   D5   B5   Esus2  Asus   Asus2

8.BORN LIKE THIS

-------------------------------|
-------------------------------|
-------------------------------|
-------------------------------|  4X
-------------------------------|
-0--0-0-2-2-3-6-6-6-6-5^-------|


-------------------------------|
-------------------------------|
-------------------------------|
-0-2-3-6-6-6-6-5-5-5-----------|  4X
-0-2-3-6-6-6-6-5-5-5-----------|
-0-2-3-6-6-6-6-5-5-5-----------|


---------------------------------------------------------------|
---------------------------------------------------------------|
---------------------------------------------------------------| 3X
-0-0-0---------------------------------------------------------|
-------0--0-------------1-1--0-0-------1---0----------1-1----3-|
------------2-2-2-3--0-----------0-0-0-------3-3-3-5-----------|

PM_____________________________

-------------------------------|
-------------------------------|
-------------------------------|
-------------------------------|
-0-0-0-0------0-0-0-0----------|
-0-0-0-0------0-0-0-0----------|


-------------------------------|
-0-----0----0------------------|
-0-----2----0------------------|
-3-----2----3------------------|
-2-----0----2------------------|
-------------------------------|

--------------------------------------|
--------------------------------------|
--------------------------------------|
-88888888--8--X-3-3---X-X-3-3-3--X--1-|
-88888888--8--X-3-3---X-X-3-3-3--X--1-|
-88888888--8--X-3-3---X-X-3-3-3--X--1-|

9.DROWN

Intro
|-------------------------------------|
|-------------------------------------|
|-------------------------------------|
|-------------------------------------|
|-------------------------------7-7-8-|
|-0-0-3-0-3-0-5-0-2-2-8-8-7-7-8--7----|

|-------------------------------------|
|-------------------------------------|
|-------------------------------------|
|-------------------------------------|
|-------------------------------------|
|-0-0-3-0-3-0-5-0-2-2-8-8-7-7-7-8-8-8-|

PRE-CHORUS
|-------------------------------------|
|-------------------------------------|
|-------------------------------------|
|---0--------------0-------------10---|
|---0--------------0-------------10---|
|---0--------------0-------------10---|

CHORUS
|-------------------------------------|
|-------------------------------------|
|-------------------------------------|
|-2-------0------5------9-----7-7-----|
|-2-------0------5------9-----7-7-----|
|-2-------0------5------9-----7-7-----|

ENDING
|-------------------------------------|
|-------------------------------------|
|-------------------------------------|
|-------------------------------------|
|-----------------7-------------------|
|-------------7-8---7-8---------------|

10.WAKE UP

Intro / Verse:

|-------------------------------|
|-------------------------------|
|-------------------------2---1-|
|-------6---7-----6-----2---2---|
|-----4---4---4-------2---------|
|-2/4-----------4---2-----------|

|-------------------------------|
|-------------------------------|
|-------------------------------|
|-------9---7-9---9---9---7---6-|
|-----7---7-----7---------------|
|-2/7---------------7---7---7---|

Pre-Chorus:


|-----------------------------------------------------|
|-77777777-99999999-1010101010101010-1212121212121212-|
|-----------------------------------------------------|
|-44444444-66666666-7-7-7-7-7-7-7-7--9-9-9-9-9-9-9-9--|
|-----------------------------------------------------|
|-----------------------------------------------------|

|-----------------------------------------------------|
|-77777777-99999999-1010101010101010-1212121212121212-|
|-----------------------------------------------------|
|-44444444-66666666-7-7-7-7-7-7-7-7--9-9-9-9-9-9-9-9--|
|-----------------------------------------------------|
|-----------------------------------------------------|

|------------------|
|-1212121212121212-|
|------------------|
|-9-9-9-9-9-9-9-9--|
|------------------|
|------------------|

Chorus:

|-----------------------------------------------|
|-----------------------------------------------|
|-----------------------------------------------|
|-4-4-4-2-4---4-2--2--2---7-7-7-7-7---7/2--2--2-|
|-4-4-4-2-4---4-2--2--2---7-7-7-7-7---7/2--2--2-|
|-4-4-4-2-4---4-2--2--2---7-7-7-7-7---7/2--2--2-|

|------------------------------------------------|
|------------------------------------------------|
|-------------6-6-6-6-6-6-7--7-7-7-7-------------|
|-4-4-4-2-4---6-6-6-6-6-6-7--7-7-7-7---2-2--2--2-|
|-4-4-4-2-4---4-4-4-4-4-4-5--5-5-5-5---2-2--2--2-|
|-4-4-4-2-4----------------------------2-2--2--2-|

11.TAKE ME UNDER

Tuning: Once again, Dropped D, 1 step down. (C,G,C,F,A,D)

Intro (clean)
|------------------------------------------------|
|------------------------------------------------|
|------------------------------------------------|
|-----0-----0----0------0-------0----0-----------|
|----------------------------5----8--------------|
|--5---5-7---7-8---8-10---10---------------------|
                                                    (x4)
|------------------------------------------------|
|--------10-6-------10-6-------6-----------------|
|------------------------------------------------|
|------------------------------------------------|
|--6-6---------6-6---------6-6-------------------|
|------------------------------------------------|

|------------------------------------------------------------|
|------------------------------------------------------------|
|--------3--2--------2--0--------0--2---------0--0-2-3-------|
|------3-----------1------------3-----------1----------------|
|----3-----------1------------3-----------1------------------|
|--3-----------1------------3-----------1--------------------|


Verse (distorted)
|------------------------------------------------|
|------------------------------------------------|
|------------------------------------------------|
|-----0-----0----0------0-------0----0-----------|
|----------------------------5----8--------------|
|--5---5-7---7-8---8-10---10---------------------|
						(x4)
|------------------------------------------------|
|------------------------------------------------|
|------------------------------------------------|
|------2----------2------------------------------|
|----1----------1--------------------------------|
|--1----------1----------------------------------|


Pre-chorus
|------------------------------------------------------------|
|------------------------------------------------------------|
|--------3--2--------2--0---------0--2--------0--0-2-3-------|
|------3-----------1------------3-----------1----------------|
|----3-----------1------------3-----------1------------------|
|--3-----------1------------3-----------1--------------------|


Chorus
|---------------------------------------------------|
|---------------------------------------------------|
|---------------------------------------------------|
|--5---0---13---12---0------5---0---13---12---0-----|
|--5---0---13---12---0------5---0---13---12---0-----|
|--5---0---13---12---0------5---0---13---12---0-----|
				(x2)
|----------------------------1---1---------------------|
|----------------------------4---4---------------------|
|----------------------------3---3---------------------|
|--3---3---3---3---3---------1---1---1---1---1---------|
|--3---3---3---3---3---------1---1---1---1---1---------|
|--3---3---3---3---3---------1---1---1---1---1---------|


Verse

Chorus

Bridge
|-----------------------------------------------------|
|-----------------------------------------------------|
|-----------------------------------------------------|
|-----------------------------------------------------|
|-----------------------------5-5-8-8-----------------|
|--5-5-5-7-7-7-8-8-8-10-10-10-------------------------|
                                                       (x4)
|-------------------------------------------------------|
|--10--10--10--10------10--10--10--10-----10------------|
|--8---8---8---8-------8---8---8---8------8-------------|
|--8---8---8---8-------8---8---8---8------8-------------|
|--6---6---6---6-------6---6---6---6------6-------------|
|-------------------------------------------------------|


Pre-Chorus
|-------------------------------------------------------------|
|-------------------------------------------------------------|
|--------3--2--------2--0---------0--2------------------------|
|------3-----------1------------3-----------------------------|
|----3-----------1------------3-------------------------------|
|--3-----------1------------3---------------------------------|

|------------------------------------------------|
|------------------------------------------------|
|------------------------------------------------|
|------------------------------------------------|
|--6-6-6-5-5-5-----------------------------------|
|--------------10-10-10-8-8-8-7^-----------------|


Chorus
|-------------------------------------------------------------|
|-------------------------------------------------------------|
|-------------------------------------------------------------|
|--5---0---13---12---0------5---0---13---12----*12-*12-*12----|
|--5---0---13---12---0------5---0---13---12----*12-*12-*12----|
|--5---0---13---12---0------5---0---13---12----*12-*12-*12----|
	                                 pm..........        (x2)
|----------------------------1---1--------------------------|
|----------------------------4---4--------------------------|
|----------------------------3---3--------------------------|
|--3---3---3---3---3---------1---1---1---1---1--------------|
|--3---3---3---3---3---------1---1---1---1---1--------------|
|--3---3---3---3---3---------1---1---1---1---1--------------|

Bridge

Pre-chorus (clean)

12.OVERRATED

Intro
|---------------------------------------------------|
|---------------------------------------------------|
|---------------------------------------------------|
|---------------------------------------------------|
|-----------8-7----10-8-7---------------------------|
|--0-8-7-0------7----------7-10-8-7-8---------------|


Verse (clean)(x5)
Gtr.1
|-----------------------------------------------------------------------------|
|-----------------------------------------------------------------------------|
|-----------------------------------------------------------------------------|
|--7---7---7-----5---5-----------------7---7---7----5--5----------------------|
|--5---5---3-----7---7/-5---------0-3/-7-------3----7--7/-5-------0-3---------|
|--0----------------------------3------0------------------------3-------------|
Gtr.2 (optional)
|--------------------------------------------------|
|--------------------------------------------------|
|--------------------------------------------------|
|--0------------------------------------0----------|
|--0------------------------------------0----------|
|--0------------------------------------0----------|


Chorus
|--------------------------------------------|
|--------------------------------------------|
|--------------------------------------------|
|--0-0---10-10---5-5---3---------------------|
|--0-0---10-10---5-5---3------0-3------------|
|--0-0---10-10---5-5---3----3----------------|


Pre-verse � Gtr. 1
|-------------------------------------------------------------|
|--5-6--5-6--5-6--5-6--5-6--5-6--5-6--5-6---------------------|
|-------------------------------------------------------------|
|-------------------------------------------------------------|
|-------------------------------------------------------------|
|-------------------------------------------------------------|
Gtr. 2
|---------------------------------------------|
|---------------------------------------------|
|---------------------------------------------|
|--0------------------------------------------|
|--0------------------------------------------|
|--0------------------------------------------|


Verse (x4)
Gtr.1
|-----------------------------------------------------------------------------|
|-----------------------------------------------------------------------------|
|-----------------------------------------------------------------------------|
|--7---7---7-----5---5------------------7---7---7----5---5--------------------|
|--5---5---3-----7---7/-5----------0-3/-7-------3----7---7/-5-------0-3-------|
|--0-----------------------------3------0------------------------3------------|
Gtr. 2
|-----------------------------------------------------------------------------|
|--5---------------3-------6------------5--------------3------6---------------|
|-----------------------------------------------------------------------------|
|-----------------------------------------------------------------------------|
|-----------------------------------------------------------------------------|
|-----------------------------------------------------------------------------|


Chorus


Bridge
|---------------------------------------------|
|---------------------------------------------|
|---------------------------------------------|
|--0------------------------------------------|
|--0------------------------------------------|
|--0------------------------------------------|


Intro Riff (palm muted the first two times)


Chorus

End With (and use whammy bar to slowly lower the pitch with each strum)
|---------------------------------------------------------------------------|
|---------------------------------------------------------------------------|
|---------------------------------------------------------------------------|
|--0--0--0--0--0--0--0--0--0--0--0--0--0--0--0--0--0--0--0--0---------------|
|--0--0--0--0--0--0--0--0--0--0--0--0--0--0--0--0--0--0--0--0---------------|
|--0--0--0--0--0--0--0--0--0--0--0--0--0--0--0--0--0--0--0--0---------------|

ENJOY!!!!
10 comments total. Showing first comments. show 1 bad comment
-2 reply
FerriuS wrote on January 5 2005, 12:00 am

This is a stupid compilation of tabs which were made by others.

+1 reply
skatemore777 wrote on February 2 2006, 04:00 pm

Oh well, I'll take what I can get lol

I want to post or [tab]
guest
You may want to rate the tab now too:
select rating
Please do not post tabs as comments. Select "correction" instead!