Oops, an error
Loading. Please wait.

Unbreakable Heart Tab

11,107 views 39 this week
no commentswrite comment
1 2 3 4 5
excellent!
x 5
Autoscroll
+/-
esc
set tempo
stop
Contributor
Difficulty
intermediate
WARNING: You are trying to view
                                    content from Ultimate-Guitar.com
                                    in an unauthorized application,
                                    which is prohibited.

                                    Please use an official Ultimate
                                    Guitar Tabs application for iPhone,
                                    iPad or Android to access legitimate
                                    chords, guitar, bass, and drum tabs
                                    from Ultimate-Guitar.com database.

                                    Type "ultimate guitar tabs" in Apple
                                    App Store's or Android Market's
                                    search to find the application.
----------------------------------------------------------------------------
                           Unbreakable Heart
                           Three Days Grace
----------------------------------------------------------------------------

“Unbreakable Heart” is my personal favorite song off their 2012 album. The whole 
acoustic part is so much fun and catchy. Then when the electric guitars come into play, it just 
kicks me out of my seat. It is just an absolutely beautiful song. Enjoy!

Username: dkm817 (same on X box live)
Youtube Cover: http://www.youtube.com/watch?v=3IPJjN9JaO4
Email: guitardrums@rockfan.com

Guitar 1 Rhythmic (C G C F A D)
Guitar 2 Lead     (C G C F A D)
Guitar 3 Acoustic (E A D G B E)

Tab Guide...
==================================================================
(end of measures)

==================================================================
==================================================================
(end of parts)

==================================================================
==================================================================
==================================================================
(end of song)
(If there is a “continued” it is because the numbers could not
fit on 1 line or connecting times played.)


==================================================================
Guitar 1
==================================================================


Verse 1

==================================================================
Rest
==================================================================

==================================================================
==================================================================


Pre Chorus 1

Guitar 1 (x16)
D----------------------------------------------------------------|
A----------------------------------------------------------------|
F-14-14-14-14-14-14-14-14-14-14-14-14-14-14-14-14-14-14-14-14-14-|
C----------------------------------------------------------------|
G----------------------------------------------------------------|
C----------------------------------------------------------------|
Pm.  .  .  .  .  .  .  .  .  .  .  .  .  .  .  .  .  .  .  .  .

==================================================================
==================================================================


Chorus 1

(x2)

Guitar 1
D-----------------------------------------------------------------|
A-----------------------------------------------------------------|
F-----------------------------------------------------------------|
C-4---4---4---4---4---4---4---4---7---7---7---7---7---7---7---7---|
G-4---4---4---4---4---4---4---4---7---7---7---7---7---7---7---7---|
C-4---4---4---4---4---4---4---4---7---7---7---7---7---7---7---7---|

==================================================================

Guitar 1
D-----------------------------------------------------------------|
A-----------------------------------------------------------------|
F---------------------------------4---4---4---4---4---4---4---4---|
C-0---0---0---0---0---0---0---0---4---4---4---4---4---4---4---4---|
G-0---0---0---0---0---0---0---0---2---2---2---2---2---2---2---2---|
C-0---0---0---0---0---0---0---0-----------------------------------|

==================================================================
==================================================================


Bridge 1

Guitar 1 (Fade In)
D-----------------------------------------------------------------|
A-----------------------------------------------------------------|
F-----------------------------------------------------------------|
C-4~~~~~~~~~~~~~~~~~~~~~~~~~~~~~~---------------------------------|
G-4~~~~~~~~~~~~~~~~~~~~~~~~~~~~~~---------------------------------|
C-4~~~~~~~~~~~~~~~~~~~~~~~~~~~~~~---------------------------------|

==================================================================
==================================================================


Verse 2

==================================================================
Rest
==================================================================


==================================================================
==================================================================


Pre Chorus 2

Guitar 1 (x16)
D----------------------------------------------------------------|
A----------------------------------------------------------------|
F-11-11-11-11-11-11-11-11-11-11-11-11-11-11-11-11-11-11-11-11-11-|
C----------------------------------------------------------------|
G----------------------------------------------------------------|
C----------------------------------------------------------------|

==================================================================
==================================================================


Chorus 2

(x2)

Guitar 1
D-----------------------------------------------------------------|
A-----------------------------------------------------------------|
F-----------------------------------------------------------------|
C-4---4---4---4---4---4---4---4---7---7---7---7---7---7---7---7---|
G-4---4---4---4---4---4---4---4---7---7---7---7---7---7---7---7---|
C-4---4---4---4---4---4---4---4---7---7---7---7---7---7---7---7---|

==================================================================

Guitar 1
D-----------------------------------------------------------------|
A-----------------------------------------------------------------|
F---------------------------------4---4---4---4---4---4---4---4---|
C-0---0---0---0---0---0---0---0---4---4---4---4---4---4---4---4---|
G-0---0---0---0---0---0---0---0---2---2---2---2---2---2---2---2---|
C-0---0---0---0---0---0---0---0-----------------------------------|

==================================================================
==================================================================


Bridge 2

==================================================================
Rest
==================================================================


==================================================================

Guitar 1 (Fade In)
D-----------------------------------------------------------------|
A-----------------------------------------------------------------|
F-----------------------------------------------------------------|
C-4~~~~~~~~~~~~~~~~~~~~~~~~~~~~~~~~~~~~~~~~~~~~~~~~~~~~~~~~~~~~~~-
G-4~~~~~~~~~~~~~~~~~~~~~~~~~~~~~~~~~~~~~~~~~~~~~~~~~~~~~~~~~~~~~~-
C-4~~~~~~~~~~~~~~~~~~~~~~~~~~~~~~~~~~~~~~~~~~~~~~~~~~~~~~~~~~~~~~-

==================================================================
==================================================================


Interlude

(x4)

Guitar 1
D-----------------------------------------------------------------|
A-----------------------------------------------------------------|
F-----------------------------------------------------------------|
C-4---4---4---4---4---4---4---4---7---7---7---7---7---7---7---7---|
G-4---4---4---4---4---4---4---4---7---7---7---7---7---7---7---7---|
C-4---4---4---4---4---4---4---4---7---7---7---7---7---7---7---7---|

==================================================================

Guitar 1
D-----------------------------------------------------------------|
A-----------------------------------------------------------------|
F---------------------------------4---4---4---4---4---4---4---4---|
C-0---0---0---0---0---0---0---0---4---4---4---4---4---4---4---4---|
G-0---0---0---0---0---0---0---0---2---2---2---2---2---2---2---2---|
C-0---0---0---0---0---0---0---0-----------------------------------|

==================================================================
==================================================================


Chorus 2

(x2)

Guitar 1
D-----------------------------------------------------------------|
A-----------------------------------------------------------------|
F-----------------------------------------------------------------|
C-4---4---4---4---4---4---4---4---7---7---7---7---7---7---7---7---|
G-4---4---4---4---4---4---4---4---7---7---7---7---7---7---7---7---|
C-4---4---4---4---4---4---4---4---7---7---7---7---7---7---7---7---|

==================================================================

Guitar 1
D-----------------------------------------------------------------|
A-----------------------------------------------------------------|
F---------------------------------4---4---4---4---4---4---4---4---|
C-0---0---0---0---0---0---0---0---4---4---4---4---4---4---4---4---|
G-0---0---0---0---0---0---0---0---2---2---2---2---2---2---2---2---|
C-0---0---0---0---0---0---0---0-----------------------------------|

==================================================================
==================================================================


Outro

==================================================================
Rest
==================================================================


==================================================================
==================================================================
==================================================================


==================================================================
Guitar 2
==================================================================


Verse 1

==================================================================
Rest
==================================================================

==================================================================
==================================================================


Pre Chorus 1

Guitar 2
D-------------------------------------------------14~~~~~~~~~~~~~--|
A-----------------14~~~~~~~~~~~~~-12~~~~~~~~~~~~~------------------|
F-11~~~~~~~~~-11~~~~~~~~~~~~~-11~~~~~~~~~~~~~-11~~~~~~~~~~~~~-11~~-|
C------------------------------------------------------------------|
G------------------------------------------------------------------|
C------------------------------------------------------------------|

==================================================================

Guitar 2
D-------------------------------------------------14~~~~~~~~~~~~~-|
A-12~~~~~~~~~~~~~-14~~~~~~~~~~~~~-12~~~~~~~~~~~~~-----------------|
F-~~~~~~~~~~~-11~~~~~~~~~~~~~-11~~~~~~~~~~~~~-11~~~~~~~~~~~~~~~~~-|
C-----------------------------------------------------------------|
G-----------------------------------------------------------------|
C-----------------------------------------------------------------|

==================================================================

Guitar 2
D-------------------------------------------------14~~~~~~~~~~~~~--|
A-----------------14~~~~~~~~~~~~~-12~~~~~~~~~~~~~------------------|
F-------------11~~~~~-11~~~~~-11~~~~~-11~~~~~-11~~~~~-11~~~~~-11~~-|
C------------------------------------------------------------------|
G------------------------------------------------------------------|
C------------------------------------------------------------------|

==================================================================

Guitar 2
D-------------------------------------------------14~~~~~~~~~~~~~-|
A-12~~~~~~~~~~~~~-14~~~~~~~~~~~~~-12~~~~~~~~~~~~~-----------------|
F-~~~-11~~~~~-11~~~~~-11~~~~~-11~~~~~-11~~~~~-11~~~~~~~~~~~~~~~~~-|
C-----------------------------------------------------------------|
G-----------------------------------------------------------------|
C-----------------------------------------------------------------|

==================================================================

Guitar 2
D-------------------------------------------------14~~~~~~~~~~~~~--|
A-12~~~~~~~~~-----14~~~~~~~~~~~~~-12~~~~~~~~~~~~~------------------|
F-----11~~~~~-11~~~~~-11~~~~~-11~~~~~-11~~~~~-11~~~~~-11~~~~~-11~~-|
C------------------------------------------------------------------|
G------------------------------------------------------------------|
C------------------------------------------------------------------|

==================================================================

Guitar 2
D-------------------------------------------------14~~~~~~~~~~~~~--|
A-12~~~~~~~~~~~~~-14~~~~~~~~~~~~~-12~~~~~~~~~~~~~------------------|
F-~~~-11~~~~~-11~~~~~-11~~~~~-11~~~~~-11~~~~~-11~~~~~-11~~~~~-11~~-|
C------------------------------------------------------------------|
G------------------------------------------------------------------|
C------------------------------------------------------------------|

==================================================================

Guitar 2
D-------------------------------------------------14~~~~~~~~~~~~~--|
A-12~~~~~~~~~-----14~~~~~~~~~~~~~-12~~~~~~~~~~~~~------------------|
F-----11~~~~~-11~~~~~-11~~~~~-11~~~~~-11~~~~~-11~~~~~-11~~~~~-11~~-|
C------------------------------------------------------------------|
G------------------------------------------------------------------|
C------------------------------------------------------------------|

==================================================================

Guitar 2
D-------------------------------------------------14~~~~~~~~~~~~~-|
A-12~~~~~~~~~~~~~-14~~~~~~~~~~~~~-12~~~~~~~~~~~~~-14~~~~~~~~~~~~~-|
F-~~~-11~~~~~-11~~~~~-11~~~~~-11~~~~~-11~~~~~-11~-11~~~~~~~~~~~~~-|
C-----------------------------------------------------------------|
G-----------------------------------------------------------------|
C-----------------------------------------------------------------|

==================================================================
==================================================================


Chorus 1

(x2)

Guitar 2
D-----------------------------------------------------------------|
A-----------------------------------------------------------------|
F-------------------------6---7-----------------------------------|
C-7---------------9---------------7---------------7-------7---9---|
G-----9---7---9-------9---------------9---7---9-------9-----------|
C-----------------------------------------------------------------|
Pm.   .   .   .       .           .   .   .   .       .

==================================================================

Guitar 2
D-----------------------------------------------------------------|
A-----------------------------------------------------------------|
F-----------------6-------6---7-------7---------------6-----------|
C---------------------------------------------9-----------7---9---|
G-5---9---7---9-------9-----------9-------9-------9---------------|
C-----------------------------------------------------------------|
Pm.   .   .   .       .           .       .       .

==================================================================
==================================================================


Bridge 1

==================================================================
Rest
==================================================================


==================================================================
==================================================================


Verse 2

==================================================================
Rest
==================================================================


==================================================================

Guitar 2 (+1 Octave)
D---------14~~~~~~~~~-14~~~~~~~~~-14~~~~~-14~~~~~-14~~~~~-14~~~~~--|
A-----14~~~~~~~~~-14~~~~~-14~~~~~~~~~-14~~~~~-14~~~~~-14~~~~~-14~~-|
F------------------------------------------------------------------|
C-11~~~~~~~~~-11~~~~~~~~~~~~~-11~----------------------------------|
G------------------------------------------------------------------|
C------------------------------------------------------------------|

==================================================================

Guitar 2
D-14~~~~~-14~~~~~~~~~~~~~~~~~~~~~---------------------------------|
A-~~~-14~~~~~-14~~~~~~~~~~~~~-14~~~~~-14~~~~~~~~~~~~~-14~~--------|
F-----------------13~~~~~-13~~~~~~~~~~~~~~~~~-11~~~~~~~~~-13~-11~-|
C---------------------11~~~~~~~~~-11~~~~~~~~~~~~~~~~~~~~~~~~~~~~~-|
G-----------------------------------------------------------------|
C-----------------------------------------------------------------|

==================================================================

Guitar 2
D-----------------------------------------------------------------|
A-9---9-------9---9---9---9---9---9---9---9---9---9---------------|
F---------11------------------------------------------11--11--11--|
C-----------------------------------------------------------------|
G-----------------------------------------------------------------|
C-----------------------------------------------------------------|

==================================================================

Guitar 2
D-----------------------------------------------------------------|
A-----------------------------------------------------------------|
F-9---9---9---9---9---9---9---9---9---9~~~~~~~~~~~~~~~~~~~~~~~~~~-|
C-----------------------------------------------------------------|
G-----------------------------------------------------------------|
C-----------------------------------------------------------------|

==================================================================
==================================================================


Pre Chorus 2

(x4)

Guitar 2
D-------------------------------------------------14~~~~~~~~~~~~~--|
A-12~~~~~~~~~-----14~~~~~~~~~~~~~-12~~~~~~~~~~~~~------------------|
F-----11~~~~~-11~~~~~-11~~~~~-11~~~~~-11~~~~~-11~~~~~-11~~~~~-11~~-|
C------------------------------------------------------------------|
G------------------------------------------------------------------|
C------------------------------------------------------------------|

==================================================================

Guitar 2
D-------------------------------------------------14~~~~~~~~~~~~~--|
A-12~~~~~~~~~~~~~-14~~~~~~~~~~~~~-12~~~~~~~~~~~~~------------------|
F-~~~-11~~~~~-11~~~~~-11~~~~~-11~~~~~-11~~~~~-11~~~~~-11~~~~~-11~~-|
C------------------------------------------------------------------|
G------------------------------------------------------------------|
C------------------------------------------------------------------|

==================================================================
==================================================================


Chorus 2

(x4)

Guitar 2
D-------------------------------------------------14--14--14--14--|
A-----------------14--14--14--14--12--12--12--12------------------|
F-11--11--11--11--------------------------------------------------|
C-----------------------------------------------------------------|
G-----------------------------------------------------------------|
C-----------------------------------------------------------------|

==================================================================
==================================================================


Bridge 2

Guitar 2
D-------------------------------------------------14~~~~~~~~~~~~~--|
A-----------------14~~~~~~~~~~~~~-12~~~~~~~~~~~~~------------------|
F-11~~~~~~~~~-11~~~~~-11~~~~~-11~~~~~-11~~~~~-11~~~~~-11~~~~~-11~~-|
C------------------------------------------------------------------|
G------------------------------------------------------------------|
C------------------------------------------------------------------|

==================================================================

Guitar 2
D-------------------------------------------------14~~~~~~~~~~~~~-|
A-12~~~~~~~~~~~~~-14~~~~~~~~~~~~~-12~~~~~~~~~~~~~-----------------|
F-~~~-11~~~~~-11~~~~~-11~~~~~-11~~~~~-11~~~~~-11~~~~~~~~~~~~~~~~~-|
C-----------------------------------------------------------------|
G-----------------------------------------------------------------|
C-----------------------------------------------------------------|

==================================================================

Guitar 2
D-------------------------------------------------14~~~~~~~~~~~~~--|
A-----------------14~~~~~~~~~~~~~-12~~~~~~~~~~~~~------------------|
F-11~~~~~~~~~-11~~~~~-11~~~~~-11~~~~~-11~~~~~-11~~~~~-11~~~~~-11~~-|
C------------------------------------------------------------------|
G------------------------------------------------------------------|
C------------------------------------------------------------------|

==================================================================

Guitar 2
D-------------------------------------------------14~~~~~~~~~~~~~--|
A-12~~~~~~~~~~~~~-14~~~~~~~~~~~~~-12~~~~~~~~~~~~~------------------|
F-~~~-11~~~~~-11~~~~~-11~~~~~-11~~~~~-11~~~~~-11~~~~~-11~~~~~-11~~-|
C------------------------------------------------------------------|
G------------------------------------------------------------------|
C------------------------------------------------------------------|

==================================================================
==================================================================


Interlude

(x4)

Guitar 2
D-----------------------------------------------------------------|
A-----------------------------------------------------------------|
F-------------------------6---7-----------------------------------|
C-7---------------9---------------7---------------7-------7---9---|
G-----9---7---9-------9---------------9---7---9-------9-----------|
C-----------------------------------------------------------------|
Pm.   .   .   .       .           .   .   .   .       .

==================================================================

Guitar 2
D-----------------------------------------------------------------|
A-----------------------------------------------------------------|
F-----------------6-------6---7-------7---------------6-----------|
C---------------------------------------------9-----------7---9---|
G-5---9---7---9-------9-----------9-------9-------9---------------|
C-----------------------------------------------------------------|
Pm.   .   .   .       .           .       .       .

==================================================================
==================================================================


Chorus 2

(x4)

Guitar 2
D-------------------------------------------------14--14--14--14--|
A-----------------14--14--14--14--12--12--12--12------------------|
F-11--11--11--11--------------------------------------------------|
C-----------------------------------------------------------------|
G-----------------------------------------------------------------|
C-----------------------------------------------------------------|

==================================================================
==================================================================


Outro

==================================================================
Rest
==================================================================


==================================================================
==================================================================
==================================================================


==================================================================
Guitar 3
==================================================================

(p’s before a number mean pluck string with middle finger)

Verse 1

Guitar 3
E-----3~~~~-2~~~~-0-2-------0~~~~-----3~~~~-2~~~~-0-2-------0~~~~-|
B-------0~~~~-0~~~~~~-0-3~~~~-0~~-------0~~~~-0~~~~~~---3~~~~-0~~-|
G-----------------------------------------------------2~~~~~~-----|
D-2~~~~~~-2~~~~-2~~~~~~~~~~~~~~~~-2~~~~~~-2~~~~-2~~~~~~~~~~~~~~~~-|
A-----------------------------------------------------------------|
E-----------------------------------------------------------------|

==================================================================

Guitar 3
E-----3~~~~-2~~~~-0-2-------0~~~~-----2~~~~-0~~~~~~-0~~~~~~-0~~~~-|
B-------0~~~~-0~~~~~~-0-3~~~~-0~~-------3~~~~-3~~-3~~-0-3~~~~-0~~-|
G-----------------------------------2~~~~~~~~~~-2~~~~~~~~~~~~-----|
D-2~~~~~~-2~~~~-2~~~~~~~~~~~~~~~~-0~~~~~~-0~~~~~~~~~~~~~~~~~~~~~~-|
A-----------------------------------------------------------------|
E-----------------------------------------------------------------|

==================================================================

Guitar 3
E-----3~~~~-2~~~----0-------0~~~~-----2~~~~-0~~~~-------0~~~~~~~~-|
B-------0~~~~-0~-p3---0-3~~~~-0~~-------3~~~~-3~~-----------0~~~~-|
G---------------0-------------------2~~~~~~~~~~-0-----2~~~~~~~~~~-|
D-2~~~~~~-2-----------------------0~~~~~~-0~~~~~~---2~~~~~~~~~~~~-|
A-----------------3~~~~~~~~~~~~~~-0~~~~~~~~~~~~~~-0~~~~~~~~~~~~~~-|
E-----------------------------------------------------------------|

==================================================================

Guitar 3
Ep3-2-0---------2~~~~~-p3~~~~-p3-2-0---------5~~~~~~~~~~~~~~~~~~~-|
B-------0~~~~~~~~~~-0~---------------3~~--------------------------|
G-----------0~~~~~~~--0------------------2~~~~~~~~~~~~~~~~~~~~~~~-|
D-----------------------0~~~~~-0~~~~~~~~~~-0~~~~~~~~~~~~~~~~~~~~~-|
A-3~~~~~~~~~~~~~~~~~~~~-------------------------------------------|
E-----------------------------------------------------------------|

==================================================================
==================================================================


Pre Chorus 1

(x4)

Guitar 3
E---------------------------------2-2-2-2-2-2-2-2-----------------|
B---------------------------------3-3-3-3-3-3-3-3-1-1-1-1-1-1-1-1-|
G-0-0-0-0-0-0-0-0-0-0-0-0-0-0-0-0-2-2-2-2-2-2-2-2-0-0-0-0-0-0-0-0-|
D-2-2-2-2-2-2-2-2-0-0-0-0-0-0-0-0-0-0-0-0-0-0-0-0-2-2-2-2-2-2-2-2-|
A-2-2-2-2-2-2-2-2-2-2-2-2-2-2-2-2-----------------3-3-3-3-3-3-3-3-|
E-0-0-0-0-0-0-0-0-3-3-3-3-3-3-3-3---------------------------------|
Pm. . . . . . . . . . . . . . . . . . . . . . . . . . . . . . . .

==================================================================
==================================================================


Chorus 1

(x2)

Guitar 3
E-0-0-0-0-0-0-0-0-3-3-3-3-3-3-3-3-0-0-0-0-0-0-0-0-0-0-0-0-0-0-0-0-|
B-0-0-0-0-0-0-0-0-0-0-0-0-0-0-0-0-1-1-1-1-1-1-1-1-1-1-1-1-1-1-1-1-|
G-0-0-0-0-0-0-0-0-0-0-0-0-0-0-0-0-0-0-0-0-0-0-0-0-2-2-2-2-2-2-2-2-|
D-2-2-2-2-2-2-2-2-0-0-0-0-0-0-0-0-2-2-2-2-2-2-2-2-2-2-2-2-2-2-2-2-|
A-2-2-2-2-2-2-2-2-2-2-2-2-2-2-2-2-3-3-3-3-3-3-3-3-0-0-0-0-0-0-0-0-|
E-0-0-0-0-0-0-0-0-3-3-3-3-3-3-3-3---------------------------------|

==================================================================
==================================================================


Bridge 1

Guitar 3
E-------------------------------------3~~~~-0~~~~-----3~~~~-0~~~~-|
B-----------------------------------0~~-0~~~~-0~~---0~~-0~~~~-0~~-|
G-----------------------------------------------0---------------0-|
D---------------------------------2~~~~~~~~~~~~~~-2~~~~~~~~~~~~~~-|
A-----------------------------------------------------------------|
E-----------------------------------------------------------------|

==================================================================
==================================================================


Verse 2

Guitar 3
E-----3~~~~-2~~~----0-------0~~~~-----2~~~~-0~~~----0-------0~~~~-|
B-------0~~~~-0~-p3---0-3~~~~-0~~-------3~~~~-3~-p3---0-3~~~~-0~~-|
G---------------0-------------------2~~~~~~~~~~-0-----------------|
D-2~~~~~~-2-----------------------0~~~~~~-0~~~~~------------------|
A-----------------3~~~~~~~~~~~~~~-0~~~~~~~~~~~~~--3~~~~~~~~~~~~~~-|
E-----------------------------------------------------------------|

==================================================================

Guitar 3
E-----3~~~~-2~~~----0-------0~~~~-----2~~~~-0~~~~-----2~~~~-0~~~~-|
B-------0~~~~-0~-p3---0-3~~~~-0~~-------3~~~~-3~~-------3~~~~-3~~-|
G---------------0-------------------2~~~~~~~~~~-0---2~~~~~~~~~~-0-|
D-2~~~~~~-2-----------------------0~~~~~~-0~~~~~~-0~~~~~~-0~~~~~~-|
A-----------------3~~~~~~~~~~~~~~-0~~~~~~~~~~~~~~-0~~~~~~~~~~~~~~-|
E-----------------------------------------------------------------|

==================================================================

Guitar 3
E-----3~~~~-2~~~----0-------0~~~~-----2~~~~-0~~~~-------0~~~~~~~~-|
B-------0~~~~-0~-p3---0-3~~~~-0~~-------3~~~~-3~~-----------0~~~~-|
G---------------0-------------------2~~~~~~~~~~-0-----2~~~~~~~~~~-|
D-2~~~~~~-2-----------------------0~~~~~~-0~~~~~~---2~~~~~~~~~~~~-|
A-----------------3~~~~~~~~~~~~~~-0~~~~~~~~~~~~~~-0~~~~~~~~~~~~~~-|
E-----------------------------------------------------------------|

==================================================================

Guitar 3
Ep3-2-0---------2~~~~~-p3~~~~-p3-2-0---------5~~~~~~~~~~~~~~~~~~~-|
B-------0~~~~~~~~~~-0~---------------3~~--------------------------|
G-----------0~~~~~~~--0------------------2~~~~~~~~~~~~~~~~~~~~~~~-|
D-----------------------0~~~~~-0~~~~~~~~~~-0~~~~~~~~~~~~~~~~~~~~~-|
A-3~~~~~~~~~~~~~~~~~~~~-------------------------------------------|
E-----------------------------------------------------------------|

==================================================================
==================================================================


Pre Chorus 2

(x4)

Guitar 3
E---------------------------------2-2-2-2-2-2-2-2-----------------|
B---------------------------------3-3-3-3-3-3-3-3-1-1-1-1-1-1-1-1-|
G-0-0-0-0-0-0-0-0-0-0-0-0-0-0-0-0-2-2-2-2-2-2-2-2-0-0-0-0-0-0-0-0-|
D-2-2-2-2-2-2-2-2-0-0-0-0-0-0-0-0-0-0-0-0-0-0-0-0-2-2-2-2-2-2-2-2-|
A-2-2-2-2-2-2-2-2-2-2-2-2-2-2-2-2-----------------3-3-3-3-3-3-3-3-|
E-0-0-0-0-0-0-0-0-3-3-3-3-3-3-3-3---------------------------------|
Pm. . . . . . . . . . . . . . . . . . . . . . . . . . . . . . . .

==================================================================
==================================================================


Chorus 2

(x2)

Guitar 3
E-0-0-0-0-0-0-0-0-3-3-3-3-3-3-3-3-0-0-0-0-0-0-0-0-0-0-0-0-0-0-0-0-|
B-0-0-0-0-0-0-0-0-0-0-0-0-0-0-0-0-1-1-1-1-1-1-1-1-1-1-1-1-1-1-1-1-|
G-0-0-0-0-0-0-0-0-0-0-0-0-0-0-0-0-0-0-0-0-0-0-0-0-2-2-2-2-2-2-2-2-|
D-2-2-2-2-2-2-2-2-0-0-0-0-0-0-0-0-2-2-2-2-2-2-2-2-2-2-2-2-2-2-2-2-|
A-2-2-2-2-2-2-2-2-2-2-2-2-2-2-2-2-3-3-3-3-3-3-3-3-0-0-0-0-0-0-0-0-|
E-0-0-0-0-0-0-0-0-3-3-3-3-3-3-3-3---------------------------------|

==================================================================
==================================================================


Bridge 2

Guitar 3
E-0~~~~~~~~~~~~~~-2~~~~~~~~~~~~~~-0~~~~~~~~~~~~~~-2~~~~~~---------|
B-1~~~~~~~~~~~~~~-3~~~~~~~~~~~~~~-1~~~~~~~~~~~~~~-3~~~~~~---------|
G-0~~~~~~~~~~~~~~-2~~~~~~~~~~~~~~-0~~~~~~~~~~~~~~-2~~~~~~---------|
D-2~~~~~~~~~~~~~~-0~~~~~~~~~~~~~~-2~~~~~~~~~~~~~~-0~~~~~~---------|
A-3~~~~~~~~~~~~~~-0~~~~~~~~~~~~~~-3~~~~~~~~~~~~~~-0~~~~~~---------|
E-----------------------------------------------------------------|

==================================================================
==================================================================


Interlude

(x4)

Guitar 3
E-0-0-0-0-0-0-0-0-3-3-3-3-3-3-3-3-0-0-0-0-0-0-0-0-0-0-0-0-0-0-0-0-|
B-0-0-0-0-0-0-0-0-0-0-0-0-0-0-0-0-1-1-1-1-1-1-1-1-1-1-1-1-1-1-1-1-|
G-0-0-0-0-0-0-0-0-0-0-0-0-0-0-0-0-0-0-0-0-0-0-0-0-2-2-2-2-2-2-2-2-|
D-2-2-2-2-2-2-2-2-0-0-0-0-0-0-0-0-2-2-2-2-2-2-2-2-2-2-2-2-2-2-2-2-|
A-2-2-2-2-2-2-2-2-2-2-2-2-2-2-2-2-3-3-3-3-3-3-3-3-0-0-0-0-0-0-0-0-|
E-0-0-0-0-0-0-0-0-3-3-3-3-3-3-3-3---------------------------------|

==================================================================
==================================================================


Chorus 2

(x2)

Guitar 3
E-0-0-0-0-0-0-0-0-3-3-3-3-3-3-3-3-0-0-0-0-0-0-0-0-0-0-0-0-0-0-0-0-|
B-0-0-0-0-0-0-0-0-0-0-0-0-0-0-0-0-1-1-1-1-1-1-1-1-1-1-1-1-1-1-1-1-|
G-0-0-0-0-0-0-0-0-0-0-0-0-0-0-0-0-0-0-0-0-0-0-0-0-2-2-2-2-2-2-2-2-|
D-2-2-2-2-2-2-2-2-0-0-0-0-0-0-0-0-2-2-2-2-2-2-2-2-2-2-2-2-2-2-2-2-|
A-2-2-2-2-2-2-2-2-2-2-2-2-2-2-2-2-3-3-3-3-3-3-3-3-0-0-0-0-0-0-0-0-|
E-0-0-0-0-0-0-0-0-3-3-3-3-3-3-3-3---------------------------------|

==================================================================
==================================================================


Outro

==================================================================
Rest
==================================================================


==================================================================
==================================================================
==================================================================


Tab Legend
h  - hammer-on
p  - pull-off
/  - slide up
\  - slide down
ps/- pickslide up
ps\- pickslide down
~  - let ring
pm.- palm mute
b  - bend
r  - return from bend
t  - finger tapping
*  - harmonic
x  - dead note
^  - Whammy bar
^\ - Whammy bar (hold down)

That is all! I hope this helped, and be sure to check out my cover if you are
having problems with the tab. Thanks, oh and one last thing... ROCK OUT!!!!
comments
print report bad tab
I want to post or [tab]
guest
You may want to rate the tab now too:
select rating
Please do not post tabs as comments. Select "correction" instead!