Oops, an error
Loading. Please wait.

All Thats Left Tab

ver1
ver1

Intro

Whole song

More versions @911Tabs.com
29,881 views 39 this week
11 commentsread comments
1 2 3 4 5
excellent!
x 21
add to favorites launch autoscroll
font size
0
reset
Autoscroll
+/-
esc
set tempo
stop
Contributor
WARNING: You are trying to view
                                    content from Ultimate-Guitar.com
                                    in an unauthorized application,
                                    which is prohibited.

                                    Please use an official Ultimate
                                    Guitar Tabs application for iPhone,
                                    iPad or Android to access legitimate
                                    chords, guitar, bass, and drum tabs
                                    from Ultimate-Guitar.com database.

                                    Type "ultimate guitar tabs" in Apple
                                    App Store's or Android Market's
                                    search to find the application.


Mxtabs [http://www.mxtabs.net]
Song: All That's Left
Artist: Thrice
Album: The Artist In The Ambulance
Transcribed by: Jordan Holt

Tuning: Drop C  (C,G,C,F,A,D)
/     - slide up
\     - slide down
h     - hammer-on
p     - pull-off
PM... - palm-mute
~     - sustain
////  - pick scrape

OK, I looked at a lot of the other tabs people did for this song, and they didn't sound
correct at all. So I decided to make my own. I also watched two different versions of
Thrice playing this song live, and made this tab after them. I am sure this is close to
100%.

Intro
|------------------------------------------------|
|------------------------------------------------|
|------------------------------------------------|
|-------7----------------------------------------|
|---7---------7---10-----7---8---7-7-7-5-7-7-7-5-|
|-7---7-----7---7------7---7-----7-7-7-5-7-7-7-5-|
PM.   .     .   .      .   .     . . . . . . . .

|-------------------------------------------------|
|-------------------------------------------------|
|-------------------------------------------------|
|-------7----------------------------10-------9---|
|---7---------7---10-----7---8-----7----7---7---7-|
|-7---7-----7---7------7---7-----7--------7-------|
PM.   .     .   .      .   .     .        .

Intro 2
|-----------------------------------------------------------------|
|-----------------------------------------------------------------|
|-----------------------------------------------------------------|
|-7-7-7-7-7-7-7-7-5-5-5-5-5-5-5-5-5-5-5-5-5-5-5-5-5-5-5-5-5-5-5-5-|
|-7-7-7-7-7-7-7-7-7-7-7-7-7-7-7-7-3-3-3-3-3-3-3-3-5-5-5-5-5-5-5-5-|
|-7-7-7-7-7-7-7-7-5-5-5-5-5-5-5-5-3-3-3-3-3-3-3-3-5-5-5-5-5-5-5-5-|

Verse - [\"One day the dreamers died within us..\"]
|--------------------------------------------------------------|
|--------------------------------------------------------------|
|------14-14-14-------12-12-12-------10-10-10------------------|
|-7-7---x--x--x--7-7---x--x--x--7-7---x--x--x--7-7-7-5-7-7-7-5-|
|-7-7--12-12-12--7-7--10-10-10--7-7---8--8--8--7-7-7-5-7-7-7-5-|
|-7-7------------7-7------------7-7------------7-7-7-5-7-7-7-5-|

|------------------------------------------------------------------|
|------------------------------------------------------------------|
|------14-14-14-------12-12-12-------10-10-10----------------------|
|-7-7---x--x--x--7-7---x--x--x--7-7---x--x--x--10-10-10-10-9-9-9-9-|
|-7-7--12-12-12--7-7--10-10-10--7-7---8--8--8---8--8--8--8-8-8-8-8-|
|-7-7------------7-7------------7-7-------------7--7--7--7-7-7-7-7-|

|--------------------------------------------------------------|
|--------------------------------------------------------------|
|------14-14-14-------12-12-12-------10-10-10------------------|
|-7-7---x--x--x--7-7---x--x--x--7-7---x--x--x--7-7-7-5-7-7-7-5-|
|-7-7--12-12-12--7-7--10-10-10--7-7---8--8--8--7-7-7-5-7-7-7-5-|
|-7-7------------7-7------------7-7------------7-7-7-5-7-7-7-5-|

|------------------------------------------------------------------|
|------------------------------------------------------------------|
|------14-14-14-------12-12-12-------10-10-10----------------------|
|-7-7---x--x--x--7-7---x--x--x--7-7---x--x--x--10-10-10-10-9-9-9-9-|
|-7-7--12-12-12--7-7--10-10-10--7-7---8--8--8---8--8--8--8-8-8-8-8-|
|-7-7------------7-7------------7-7-------------7--7--7--7-7-7-7-7-|

Chorus - Dustin [\"A ghost is all that\'s left..\"]
|----------------------------------------------------------------|
|----------------------------------------------------------------|
|----------------------------------------------------------------|
|-3--3--3--3-3-3--5--5--5--5-5-5--7--7--7--7-7-7--7--7--7--7-7-7-|
|-3--3--3--3-3-3--5--5--5--5-5-5--7--7--7--7-7-7--7--7--7--7-7-7-|
|-3--3--3--3-3-3--5--5--5--5-5-5--7--7--7--7-7-7--7--7--7--7-7-7-|

|-----------------------------------------------------------------|
|-----------------------------------------------------------------|
|-----------------------------------------------------------------|
|-3--3--3--3-3-3--5--5--5--5-5-5--7-7-7-5-7-7-7-5-7-7-7-5-7-7-7-5-|
|-3--3--3--3-3-3--5--5--5--5-5-5--7-7-7-5-7-7-7-5-7-7-7-5-7-7-7-5-|
|-3--3--3--3-3-3--5--5--5--5-5-5--7-7-7-5-7-7-7-5-7-7-7-5-7-7-7-5-|

Chorus - Teppei
|---7---7-8p7------|
|-5---5-------8-5--|
|------------------|
|------------------|
|------------------|
|------------------|

Chorus cont\'d - Dustin [\"We tried to bleed the sickness..\"]
|----------------------------------------------------------------------------|
|----------------------------------------------------------------------------|
|----------------------------------------------------------------------------|
|-10--10--10--10-10-10--12--12--12--12-12-12--3--3--3--3-3-3--3--3--3--3-3-3-|
|-10--10--10--10-10-10--12--12--12--12-12-12--3--3--3--3-3-3--3--3--3--3-3-3-|
|-10--10--10--10-10-10--12--12--12--12-12-12--3--3--3--3-3-3--3--3--3--3-3-3-|

|--------------------------------|
|--------------------------------|
|--------------------------------|
|-3--3--3--3-3-3--5--5--5--5-5-5-|
|-3--3--3--3-3-3--5--5--5--5-5-5-|
|-3--3--3--3-3-3--5--5--5--5-5-5-|

Chorus cont\'d - Teppei
|----------------------15---15-15---15-15-15------|
|-12h13p12----12h13p12----------------------------|
|-------------------------------------------------|
|-------------------------------------------------|
|-------------------------------------------------|
|-------------------------------------------------|

|----------------------15---15-15--|
|-12h13p12----12h13p12-------------|
|----------------------------------|
|----------------------------------|
|----------------------------------|
|----------------------------------|

|-------------|
|-12h13p12----|
|----------12-|
|-------------|
|-------------|
|-------------|

|---7---7-8p7------|
|-5---5-------8-5--|
|------------------|
|------------------|
|------------------|
|------------------|

Verse 2 - Dustin
|--------------------------------------------------------------|
|--------------------------------------------------------------|
|------14-14-14-------12-12-12-------10-10-10------------------|
|-7-7---x--x--x--7-7---x--x--x--7-7---x--x--x--7-7-7-5-7-7-7-5-|
|-7-7--12-12-12--7-7--10-10-10--7-7---8--8--8--7-7-7-5-7-7-7-5-|
|-7-7------------7-7------------7-7------------7-7-7-5-7-7-7-5-|

|------------------------------------------------------------------|
|------------------------------------------------------------------|
|------14-14-14-------12-12-12-------10-10-10----------------------|
|-7-7---x--x--x--7-7---x--x--x--7-7---x--x--x--10-10-10-10-9-9-9-9-|
|-7-7--12-12-12--7-7--10-10-10--7-7---8--8--8---8--8--8--8-8-8-8-8-|
|-7-7------------7-7------------7-7-------------7--7--7--7-7-7-7-7-|

|--------------------------------------------------------------|
|--------------------------------------------------------------|
|------14-14-14-------12-12-12-------10-10-10------------------|
|-7-7---x--x--x--7-7---x--x--x--7-7---x--x--x--7-7-7-5-7-7-7-5-|
|-7-7--12-12-12--7-7--10-10-10--7-7---8--8--8--7-7-7-5-7-7-7-5-|
|-7-7------------7-7------------7-7------------7-7-7-5-7-7-7-5-|

|------------------------------------------------------------------|
|------------------------------------------------------------------|
|------14-14-14-------12-12-12-------10-10-10----------------------|
|-7-7---x--x--x--7-7---x--x--x--7-7---x--x--x--10-10-10-10-9-9-9-9-|
|-7-7--12-12-12--7-7--10-10-10--7-7---8--8--8---8--8--8--8-8-8-8-8-|
|-7-7------------7-7------------7-7-------------7--7--7--7-7-7-7-7-|

Verse 2 - Teppei 
|--------------------------------------------------------------|
|--------------------------------------------------------------|
|------14-14-14-------12-12-12-------10-10-10------------------|
|-7-7---x--x--x--7-7---x--x--x--7-7---x--x--x--7-7-7-5-7-7-7-5-|
|-7-7--12-12-12--7-7--10-10-10--7-7---8--8--8--7-7-7-5-7-7-7-5-|
|-7-7------------7-7------------7-7------------7-7-7-5-7-7-7-5-|

|------------------------------------------------------------------|
|------------------------------------------------------------------|
|------14-14-14-------12-12-12-------10-10-10----------------------|
|-7-7---x--x--x--7-7---x--x--x--7-7---x--x--x--10-10-10-10-9-9-9-9-|
|-7-7--12-12-12--7-7--10-10-10--7-7---8--8--8---8--8--8--8-8-8-8-8-|
|-7-7------------7-7------------7-7-------------7--7--7--7-7-7-7-7-|

|--------------------------------------------------------------|
|--------------------------------------------------------------|
|------14-14-14-------12-12-12-------10-10-10------------------|
|-7-7---x--x--x--7-7---x--x--x--7-7---x--x--x--7-7-7-5-7-7-7-5-|
|-7-7--12-12-12--7-7--10-10-10--7-7---8--8--8--7-7-7-5-7-7-7-5-|
|-7-7------------7-7------------7-7------------7-7-7-5-7-7-7-5-|

[\"After that we couldn\'t fill our frames..\"]
|----------------------------------------------------------------------|
|----------------------------------------------------------------------|
|------17-17-17-------16-16-16-------14-14-14--17-17-17-17-16-16-16-16-|
|-7-7---x--x--x--7-7---x--x--x--7-7---x--x--x---x--x--x--x--x--x--x--x-|
|-7-7--15-15-15--7-7--14-14-14--7-7--12-12-12--15-15-15-15-14-14-14-14-|
|-7-7------------7-7------------7-7------------------------------------|

Chorus - Dustin [\"A ghost is all that\'s left..\"]
|----------------------------------------------------------------|
|----------------------------------------------------------------|
|----------------------------------------------------------------|
|-3--3--3--3-3-3--5--5--5--5-5-5--7--7--7--7-7-7--7--7--7--7-7-7-|
|-3--3--3--3-3-3--5--5--5--5-5-5--7--7--7--7-7-7--7--7--7--7-7-7-|
|-3--3--3--3-3-3--5--5--5--5-5-5--7--7--7--7-7-7--7--7--7--7-7-7-|

|-----------------------------------------------------------------|
|-----------------------------------------------------------------|
|-----------------------------------------------------------------|
|-3--3--3--3-3-3--5--5--5--5-5-5--7-7-7-5-7-7-7-5-7-7-7-5-7-7-7-5-|
|-3--3--3--3-3-3--5--5--5--5-5-5--7-7-7-5-7-7-7-5-7-7-7-5-7-7-7-5-|
|-3--3--3--3-3-3--5--5--5--5-5-5--7-7-7-5-7-7-7-5-7-7-7-5-7-7-7-5-|

Chorus - Teppei
|---7---7-8p7------|
|-5---5-------8-5--|
|------------------|
|------------------|
|------------------|
|------------------|

Chorus cont\'d - Dustin [\"We tried to bleed the sickness..\"]
|----------------------------------------------------------------------------|
|----------------------------------------------------------------------------|
|----------------------------------------------------------------------------|
|-10--10--10--10-10-10--12--12--12--12-12-12--3--3--3--3-3-3--3--3--3--3-3-3-|
|-10--10--10--10-10-10--12--12--12--12-12-12--3--3--3--3-3-3--3--3--3--3-3-3-|
|-10--10--10--10-10-10--12--12--12--12-12-12--3--3--3--3-3-3--3--3--3--3-3-3-|

Chorus cont\'d - Teppei
|----------------------15---15-15---15-15-15------|
|-12h13p12----12h13p12----------------------------|
|-------------------------------------------------|
|-------------------------------------------------|
|-------------------------------------------------|
|-------------------------------------------------|

|----------------------15---15-15--|
|-12h13p12----12h13p12-------------|
|----------------------------------|
|----------------------------------|
|----------------------------------|
|----------------------------------|

|-------------|
|-12h13p12----|
|----------12-|
|-------------|
|-------------|
|-------------|

|---7---7-8p7------|
|-5---5-------8-5--|
|------------------|
|------------------|
|------------------|
|------------------|

Fill - Dustin [\"We are, we are the dead..\"]
|--------------------------------------------------------------------|
|--------------------------------------------------------------------|
|--------------------------------------------------------------------|
|-3--3--3--3-3-3--5--5--5--5-5-5--6-6-6-6-6-6-6-6-6-6-6-6-6-6-6-6--7-|
|-3--3--3--3-3-3--5--5--5--5-5-5--6-6-6-6-6-6-6-6-6-6-6-6-6-6-6-6--7-|
|-3--3--3--3-3-3--5--5--5--5-5-5--6-6-6-6-6-6-6-6-6-6-6-6-6-6-6-6--7-|

Fill - Teppei
|--------------------------------------------------------------------|
|13-13-13-13-13-13-13-13-13-13-13-13-13-13-13-13--12~----10~----/----|
|--------------------------------------------------------------------|
|--------------------------------------------------------------------|
|--------------------------------------------------------------------|
|--------------------------------------------------------------------|

Bridge
|------------------------------------------------|
|------------------------------------------------|
|------------------------------------------------|
|-------7----------------------------------------|
|---7---------7---10-----7---8---7-7-7-5-7-7-7-5-|
|-7---7-----7---7------7---7-----7-7-7-5-7-7-7-5-|
PM.   .     .   .      .   .     . . . . . . . .

|-------------------------------------|
|-------------------------------------|
|-------------------------------------|
|-------7-----------------------------|
|---7---------7---10-----7---8---////-|
|-7---7-----7---7------7---7-----////-|
PM.   .     .   .      .   .

Verse 3 - Dustin [\"In summers past, we\'d challenge fate..\"]
|--------------------------------------------------------------|
|--------------------------------------------------------------|
|------14-14-14-------12-12-12-------10-10-10------------------|
|-7-7---x--x--x--7-7---x--x--x--7-7---x--x--x--7-7-7-7-7-7-7-7-|
|-7-7--12-12-12--7-7--10-10-10--7-7---8--8--8--7-7-7-7-7-7-7-7-|
|-7-7------------7-7------------7-7------------7-7-7-7-7-7-7-7-|

|--------------------------------------------------------------|
|--------------------------------------------------------------|
|------14-14-14-------12-12-12-------10-10-10------------------|
|-7-7---x--x--x--7-7---x--x--x--7-7---x--x--x--7-7-7-7-7-7-7-7-|
|-7-7--12-12-12--7-7--10-10-10--7-7---8--8--8--7-7-7-7-7-7-7-7-|
|-7-7------------7-7------------7-7------------7-7-7-7-7-7-7-7-|

|--------------------------------------------------------------|
|--------------------------------------------------------------|
|------14-14-14-------12-12-12-------10-10-10------------------|
|-7-7---x--x--x--7-7---x--x--x--7-7---x--x--x--7-7-7-7-7-7-7-7-|
|-7-7--12-12-12--7-7--10-10-10--7-7---8--8--8--7-7-7-7-7-7-7-7-|
|-7-7------------7-7------------7-7------------7-7-7-7-7-7-7-7-|

|---------------------------------------------------------------------------|
|---------------------------------------------------------------------------|
|------14-14-14-------12-12-12-------10-10-10-------------------------------|
|-7-7---x--x--x--7-7---x--x--x--7-7---x--x--x--5--------------5-------5-----|
|-7-7--12-12-12--7-7--10-10-10--7-7---8--8--8--5--5-5-5-5-5-5-5-5-5-5-5-5-5-|
|-7-7------------7-7------------7-7------------5--5-5-5-5-5-5-5-5-5-5-5-5-5-|
                                                  . . . . . .   . . .   . .

Verse 3 - Teppei [\"In summers past, we\'d challenge fate..\"]
|--------------------------------------------------------------|
|--------------------------------------------------------------|
|------14-14-14-------12-12-12-------10-10-10------------------|
|-7-7---x--x--x--5-5---x--x--x--3-3---x--x--x--5-5-5-5-5-5-5-5-|
|-7-7--12-12-12--5-5--10-10-10--3-3---8--8--8--5-5-5-5-5-5-5-5-|
|-7-7------------5-5------------3-3------------5-5-5-5-5-5-5-5-|

|--------------------------------------------------------------|
|--------------------------------------------------------------|
|------14-14-14-------12-12-12-------10-10-10------------------|
|-7-7---x--x--x--5-5---x--x--x--3-3---x--x--x--5-5-5-5-5-5-5-5-|
|-7-7--12-12-12--5-5--10-10-10--3-3---8--8--8--5-5-5-5-5-5-5-5-|
|-7-7------------5-5------------3-3------------5-5-5-5-5-5-5-5-|

|--------------------------------------------------------------|
|--------------------------------------------------------------|
|------14-14-14-------12-12-12-------10-10-10------------------|
|-7-7---x--x--x--5-5---x--x--x--3-3---x--x--x--5-5-5-5-5-5-5-5-|
|-7-7--12-12-12--5-5--10-10-10--3-3---8--8--8--5-5-5-5-5-5-5-5-|
|-7-7------------5-5------------3-3------------5-5-5-5-5-5-5-5-|

|---------------------------------------------------------------------------|
|---------------------------------------------------------------------------|
|------14-14-14-------12-12-12-------10-10-10-------------------------------|
|-7-7---x--x--x--5-5---x--x--x--3-3---x--x--x--5--------------5-------5-----|
|-7-7--12-12-12--5-5--10-10-10--3-3---8--8--8--5--5-5-5-5-5-5-5-5-5-5-5-5-5-|
|-7-7------------5-5------------3-3------------5--5-5-5-5-5-5-5-5-5-5-5-5-5-|
                                                  . . . . . .   . . .   . .

Chorus - Dustin [\"A ghost is all that\'s left..\"]
|----------------------------------------------------------------|
|----------------------------------------------------------------|
|----------------------------------------------------------------|
|-3--3--3--3-3-3--5--5--5--5-5-5--7--7--7--7-7-7--7--7--7--7-7-7-|
|-3--3--3--3-3-3--5--5--5--5-5-5--7--7--7--7-7-7--7--7--7--7-7-7-|
|-3--3--3--3-3-3--5--5--5--5-5-5--7--7--7--7-7-7--7--7--7--7-7-7-|

|-----------------------------------------------------------------|
|-----------------------------------------------------------------|
|-----------------------------------------------------------------|
|-3--3--3--3-3-3--5--5--5--5-5-5--7-7-7-5-7-7-7-5-7-7-7-5-7-7-7-5-|
|-3--3--3--3-3-3--5--5--5--5-5-5--7-7-7-5-7-7-7-5-7-7-7-5-7-7-7-5-|
|-3--3--3--3-3-3--5--5--5--5-5-5--7-7-7-5-7-7-7-5-7-7-7-5-7-7-7-5-|

Chorus - Teppei
|---7---7-8p7------|
|-5---5-------8-5--|
|------------------|
|------------------|
|------------------|
|------------------|

Chorus cont\'d - Dustin [\"We tried to bleed the sickness..\"]
|----------------------------------------------------------------------------|
|----------------------------------------------------------------------------|
|----------------------------------------------------------------------------|
|-10--10--10--10-10-10--12--12--12--12-12-12--3--3--3--3-3-3--3--3--3--3-3-3-|
|-10--10--10--10-10-10--12--12--12--12-12-12--3--3--3--3-3-3--3--3--3--3-3-3-|
|-10--10--10--10-10-10--12--12--12--12-12-12--3--3--3--3-3-3--3--3--3--3-3-3-|

Chorus cont\'d - Teppei
|----------------------15---15-15---15-15-15------|
|-12h13p12----12h13p12----------------------------|
|-------------------------------------------------|
|-------------------------------------------------|
|-------------------------------------------------|
|-------------------------------------------------|

|----------------------15---15-15--|
|-12h13p12----12h13p12-------------|
|----------------------------------|
|----------------------------------|
|----------------------------------|
|----------------------------------|

|-------------|
|-12h13p12----|
|----------12-|
|-------------|
|-------------|
|-------------|

|---7---7-8p7------|
|-5---5-------8-5--|
|------------------|
|------------------|
|------------------|
|------------------|

Chorus/Outro - Dustin
|----------------------------------------------------------------|
|----------------------------------------------------------------|
|----------------------------------------------------------------|
|-3--3--3--3-3-3--5--5--5--5-5-5--7--7--7--7-7-7--7--7--7--7-7-7-|
|-3--3--3--3-3-3--5--5--5--5-5-5--7--7--7--7-7-7--7--7--7--7-7-7-|
|-3--3--3--3-3-3--5--5--5--5-5-5--7--7--7--7-7-7--7--7--7--7-7-7-|

|-----------------------------------------------------------------|
|-----------------------------------------------------------------|
|-----------------------------------------------------------------|
|-3--3--3--3-3-3--5--5--5--5-5-5--7-7-7-5-7-7-7-5-7-7-7-5-7-7-7-5-|
|-3--3--3--3-3-3--5--5--5--5-5-5--7-7-7-5-7-7-7-5-7-7-7-5-7-7-7-5-|
|-3--3--3--3-3-3--5--5--5--5-5-5--7-7-7-5-7-7-7-5-7-7-7-5-7-7-7-5-|

Chorus/Outro - Teppei
|---7---7-8p7------|
|-5---5-------8-5--|
|------------------|
|------------------|
|------------------|
|------------------|

Chorus/Outro cont\'d - Dustin
|----------------------------------------------------------------------------|
|----------------------------------------------------------------------------|
|----------------------------------------------------------------------------|
|-10--10--10--10-10-10--12--12--12--12-12-12--3--3--3--3-3-3--3--3--3--3-3-3-|
|-10--10--10--10-10-10--12--12--12--12-12-12--3--3--3--3-3-3--3--3--3--3-3-3-|
|-10--10--10--10-10-10--12--12--12--12-12-12--3--3--3--3-3-3--3--3--3--3-3-3-|

Chorus/Outro cont\'d - Teppei
|----------------------15---15-15---15-15-15------|
|-12h13p12----12h13p12----------------------------|
|-------------------------------------------------|
|-------------------------------------------------|
|-------------------------------------------------|
|-------------------------------------------------|

|----------------------15---15-15--|
|-12h13p12----12h13p12-------------|
|----------------------------------|
|----------------------------------|
|----------------------------------|
|----------------------------------|

|-------------|
|-12h13p12----|
|----------12-|
|-------------|
|-------------|
|-------------|

|---7---7-8p7------|
|-5---5-------8-5--|
|------------------|
|------------------|
|------------------|
|------------------|

Outro
|-------------------|
|-------------------|
|-------------------|
|-3-3-3-3--5-5-5-5--|
|-3-3-3-3--5-5-5-5--|
|-3-3-3-3--5-5-5-5--|

|-------------------|
|-------------------|
|-------------------|
|-3-3-3-3--5-5-5-5--|
|-3-3-3-3--5-5-5-5--|
|-3-3-3-3--5-5-5-5--|

|------------------------------------|
|------------------------------------|
|------------------------------------|
|-3-3-3-3--6-6-6-6--6-6-6-6--6-6-6-6\|
|-3-3-3-3--6-6-6-6--6-6-6-6--6-6-6-6\|
|-3-3-3-3--6-6-6-6--6-6-6-6--6-6-6-6\|
comments
print report bad tab
11 comments total. Showing first comments.
0 reply
track02 wrote on January 9 2005, 12:00 am

ok if you're going to give me three stars for this at least tell me what i did wrong

0 reply
joshsc63 wrote on January 20 2005, 12:00 am

Its a bit high. Like in the intro its better with 6 instead of 7

+2 reply
track02 wrote on February 7 2005, 12:00 am

i have watched thrice play this song so many times i am 100% sure its on the 7th fret

I want to post or [tab]
guest
You may want to rate the tab now too:
select rating
Please do not post tabs as comments. Select "correction" instead!