Oops, an error
Loading. Please wait.

Artist In The Ambulance Bass Tab

ver1
ver1

Album

Interactive

More versions @911Tabs.com
6,887 views 9 this week
no commentswrite comment
1 2 3 4 5
excellent!
x 6
add to favorites launch autoscroll
font size
0
reset
Autoscroll
+/-
esc
set tempo
stop
Contributor
WARNING: You are trying to view
                                    content from Ultimate-Guitar.com
                                    in an unauthorized application,
                                    which is prohibited.

                                    Please use an official Ultimate
                                    Guitar Tabs application for iPhone,
                                    iPad or Android to access legitimate
                                    chords, guitar, bass, and drum tabs
                                    from Ultimate-Guitar.com database.

                                    Type "ultimate guitar tabs" in Apple
                                    App Store's or Android Market's
                                    search to find the application.
This Is The Full Artist In The Ambulance Album On Bass
All Songs Are In FCGC Tuning
I did not tab all of these songs, i simply made this for convenience
done by:edthebassist

THANKS TO ALL OF THE ORIGIONAL TABBERS


------------------------------------------------------------------------------------
                              1 Colder Cash And Colder Hearts
------------------------------------------------------------------------------------
CGCF

F-------------------------------------------------------------------------------------|
C-------------------------------------------------------------------------------------|
G-3h5---------3h5-----------------------3h5---------3h5-------------------------------|
C-----0-0333h5----0-0333h58-888785-55532----0-0333h5----0-0333h55-555328-88878-5----8-|

F-10-10-10-----10-10-10--------------|
C------------------------------------|
G------------------------------------|
C----------0-0----------0000-5-----8-|

F-----------------------------333333-222222-----------------|
C--------555555-222222-333333---------------222-333---------|
G-555555--------------------------------------------555-----|
C-------------------------------------------------------000-|

F-------------------------------------------------------------------------------------------|
C-------------------------------------------------------------------------------------------|
G-3h5---------3h5-----------------------3h5---------3h5------------------------87-87--------|
C-----0-0333h5----0-0333h58-888885-55555----0-0333h5----0-0333h55-555555-888888--8--5----8--|

F-10-10-10-----10-10-10--------------------|
C------------------------------------------|
G------------------------------------------|
C----------0-0----------0000-5-----8-----5-| (Goes to break)

F-----------------------------333333-222222-----------------|
C--------555555-222222-333333---------------222-333---------|
G-555555--------------------------------------------555-----|
C-------------------------------------------------------000-|

F-------------------------------------------------------|
C-------------------------------------------------------|
G-------------------------------------------------------|
C-000000-555555-772233333-8-888-10-8-7777-222333-000000-|

F-10-10-10-----10-10-10------10-10-10-----10-10-10-----|
C------------------------------------------------------|
G------------------------------------------------------|
C----------0-0----------0000----------0-0---------0000-|

F--9--9--9------9--9--9-------9--9--9------9--9--9-----|
C------------------------------------------------------|
G------------------------------------------------------|
C----------0-0----------0000----------0-0---------0000-|

No bass during outro

------------------------------------------------------------------------------------
                                   2 Under A Killing Moon
------------------------------------------------------------------------------------


Intro
F|-------------------|
C|-------------------|
G|-------------------|
C|--0~---0~------0~--|

Verse
F|------|------------------------------------------------|
C|------|-------------8p7--------------------------------|
G|--5\--|-----------------8-7h8------------------1111/3--|
C|------|-0-0-000-000-----------12\--0-0-000-000---------|

F|------|---------------------------------------------------|
C|------|-------------8p7-----------------------------------|
G|--5\--|-----------------8-7h8------------------1111/3333--|
C|------|-0-0-000-000-----------12\--0-0-000-000------------|

Pre Chrous
F|--------------------|
C|--------------------|
G|--1111111111111111--|
C|--------------------|

F|----------------------------------|
C|----------------5h7p5p0--3h5p3p0--|
G|--555---335-----------------------|
C|------0-----000-------------------| x2

F|------------------------------|
C|------------------------------|
G|--11111111111111111/55555555--|
C|------------------------------|

Chrous
F|---------------------------------------------------------|
C|---------------------------------------------------------|
G|--------------------3h5-3--3-3-3-3-3-3h5-1--1-1-1-1-1-1--|
C|--0-0-0-0-0-0-0-0-0--------------------------------------| x2

F|------------------|
C|------------------|
G|--1-1-1-1-1-1-1/--|
C|------------------|

F|---------|
C|---------|
G|--5-6-5--|
C|---------|

Verse x2

Then:
F|---------------------|
C|---------------------|
G|--1111111111111111/--|
C|---------------------|

Chrous
F|---------------------------------------------------------|
C|---------------------------------------------------------|
G|--------------------3h5-3--3-3-3-3-3-3h5-1--1-1-1-1-1-1--|
C|--0-0-0-0-0-0-0-0-0--------------------------------------| x4

F|----------------------|
C|----------------------|
G|--1h311111111111111/--|
C|----------------------|

F|---------|
C|---------|
G|--5-6-5--|
C|---------| x2

Outro
F|----------------------------------|
C|----------------5h7p5p0--3h5p3p0--|
G|--555---335-----------------------|
C|------0-----000-------------------| Till Last Part

F|---------|
C|---------|
G|--5-6-5--|
C|---------|

------------------------------------------------------------------------------------
                                   3 All That's Left
------------------------------------------------------------------------------------


(0:27)
F------------------------------------------------------------------|
C------------------------------------------------------------------|
G------------------------------------------------------------------|
C-7-7-7-7-7-7-7-7-5-5-5-5-5-5-5-5-3-3-3-3-3-3-3-3-5-5-5-5-5-5-5-5--|

F-----------------------------------------------------------------------|
C-----------------------------------------------------------------------|
G-----------------------------------------------------------------------|
C-7-7-7-7-7-7-7-7-5-5-5-5-5-5-5-5-3-3-3-3-3-3-3-3-5-5--5--5--5-5--5--5--|

1st and 2nd Verses  (0:38, 1:17)
F---------------------------------------------------------------|
C---------------------------------------------------------------|
G------12~-12-12\------10~-10-10\------8~-8-8\------------------|
C-7-7/------------7-7/------------7-7----------7-7-7-5-7-7-7-5--|

F---------------------------------------------------------------|
C---------------------------------------------------------------|
G------12~-12-12\------10~-10-10\------8~-8-8\------------------|
C-7-7/------------7-7/------------7-7----------7-7-7-7-7-7-7-5--|

F---------------------------------------------------------------|
C---------------------------------------------------------------|  X2
G------12~-12-12\------10~-10-10\------8~-8-8\------------------|
C-7-7/------------7-7/------------7-7----------7-7-7-5-7-7-7-5--|

F-------------------|
C-------------------|
G-------------------|
C-7-7-7-7-7-7-7-3~--|

Chorus  (0:59, 1:38, 2:37)
F------------------------------------------------------------|
C------------------------------------------------------------|
G------------------------------------------------------------|
C-3-3---3-3-3-5~-5-5--5-5-5-7~-7-7--7-7-7-5~-7-7-7-7-7-0-3~--|

F------------------------------------------------------------------|
C------------------------------------------------------------------|
G----------------------------------------------------------3~-3-3--|
C-3-3--3-3-3-5~-5-5--5-5-5-7~-7-7-5-7-7-7-5--7-7-7-5-7-7-7---------|

F---------------------------------------------------|
C---------------3-2---------------------------------|
G-3--3--5~-5-5------3-------------------------------|
C---------------------3~-3-3--3-3-3-3~-3-3--3-3-3~--|

F---------------------------|
C---------------------------|
G---------------------------|
C-3-3--3-3-3-5~-5-5--5-5-5--|

Bridge  (1:56)
F-------------------------------------|
C-------------------------------------|
G-------------------------------------|
C-6-6-6-6-6-6-6-6-6-6-6-6-6-6-6-7~~~--|

3rd Verse  (2:15)
F-------------------------------------------------------------------|
C-------------------------------------------------------------------|  X3
G-------------------------------------------------------------------|
C-7-7-7-7~-7-7-0--5-5-5-5~-5-5-0--3-3-3-3-3-3-3-3--5-5-5-5-5-5-5-5--|

4th time:
F-----------------------------------------------------------------|
C-----------------------------------------------------------------|
G-----------------------------------------------------------------|
C-7-7-7-7~-7-7-0--5-5-5-5~-5-5-0--3-3-3-3-3-3-3-3-5--5-5-5-5-5-5--|

F-------------------|
C-------------------|
G-------------------|
C-5-5-5-5-5-5-5-3~--|

(2:53)
F------------------------------------------------------------|
C------------------------------------------------------------|
G------------------------------------------------------------|
C-3-3---3-3-3-5~-5-5--5-5-5-7~-7-7--7-7-7-5~-7-7-7-7-7-0-3~--|

F------------------------------------------------------------------|
C------------------------------------------------------------------|
G----------------------------------------------------------3~-3-3--|
C-3-3--3-3-3-5~-5-5--5-5-5-7~-7-7-5-7-7-7-5--7-7-7-5-7-7-7---------|

F---------------------------------------------------|
C---------------3-2---------------------------------|
G-3--3--5~-5-5------3-------------------------------|
C---------------------3~-3-3--3-3-3-3~-3-3--3-3-3~--|

F-----------------------------------------------------------|
C-----------------------------------------------------------|
G-----------------------------------------------------------|
C-3-3--3-3--5~-5--5--5-5-5-3~--3-3--3-3--5~-5--5--5-5-5-3~--|

F----------------------------------------------|
C----------------------------------------------|
G----------------------------------------------|
C-3-3--3-3--6~-6-6-6-6-6-6-6-6-6-6-6--6-6--6\--|

------------------------------------------------------------------------------------
                                   4 Silhouette
------------------------------------------------------------------------------------

> = play the note continually

Intro/Verse
F------------------------------------------------------|
C------------------------------------------------------|
G------------333---------333-111--111-333-111--111-333-|  x 3
C-000--000------000-000--------------------------------|

Pre-Chrous
F------------------------------------|
C------------------------------------|
G-5>--7>--8>--7>--5>--7>--8>--10>-10-|  x1
C------------------------------------|

Chorus
F----------------------------------------------------------------------------|
C----------------------------------------------------------------------------|
G-?-----3-5----------3------------3-5---------3-----------3-5--------3-------|
C-12/-0-----0-5-3-0---0-3-5-10/-0-----0-5-3-0---0-3-5-8/-0---0-5-3-0---0-3-5-|

chrous continued
F--------------------------|
C--------------------------|
G-?----3-5---------3-------|
C-7/-0-----0-5-3-0---0-3-5-|

Second Verse
F---------------------------|
C---------------------------|
G-111--111-333-111--111-333-|  x 1
C---------------------------|

F-------------------------------------------------------------|
C-------------------------------------------------------------|
G-------------------333---------333-111--111-333-111--111-333-|  x 1
C-0000000--000--000-----000-----------------------------------|

Second Pre Chorus
F----------------------------------------------------------------------------|
C----------------------------------------------------------------------------|
G-?-----3-5----------3------------3-5---------3-----------3-5--------3-------|
C-12/-0-----0-5-3-0---0-3-5-10/-0-----0-5-3-0---0-3-5-8/-0---0-5-3-0---0-3-5-|

Second Pre Chrous continued
F--------------------------|
C--------------------------|
G-?----3-5---------3-------|
C-7/-0-----0-5-3-0---0-3-5-|


Second Pre Chorus Part 2
F----------------------|
C----------------------|
G-5>--7>--8>--10>-10---|  x1
C----------------------|

Chorus
F----------------------------------------------------------------------------|
C----------------------------------------------------------------------------|
G-?-----3-5----------3------------3-5---------3-----------3-5--------3-------|
C-12/-0-----0-5-3-0---0-3-5-10/-0-----0-5-3-0---0-3-5-8/-0---0-5-3-0---0-3-5-|

chrous continued
F--------------------------|
C--------------------------|
G-?----3-5---------3-------|
C-7/-0-----0-5-3-0---0-3-5-|


Bridge
F----------------------------|
C----------------------------|
G----------------------------|  x1
C-0000000----0-0----0-000-8>-|

Chorus
F----------------------------------------------------------------------------|
C----------------------------------------------------------------------------|
G-?-----3-5----------3------------3-5---------3-----------3-5--------3-------|
C-12/-0-----0-5-3-0---0-3-5-10/-0-----0-5-3-0---0-3-5-8/-0---0-5-3-0---0-3-5-|

chrous continued
F--------------------------|
C--------------------------|
G-?----3-5---------3-------|
C-7/-0-----0-5-3-0---0-3-5-|


Outro
F----------------------|
C----------------------|
G-5>--7>--8>--10>-10---|  x1
C----------------------|

End on
C-0-0-0

------------------------------------------------------------------------------------
                                   5 Stare At THe Sun
------------------------------------------------------------------------------------

Intro:
F  :----------------|----------------|-----------------|----------------|
C  :----------------|----------------|-----------------|----------------|
G  :----------------|----------------|-----------------|----------------|
C  :0-0-0-0---0-0---|--0-0-----0-0---|-3-3-3-3---3-3---|--3-3-----3-3---|

F  :----------------|----------------|----------------|----------------|
C  :----------------|----------------|----------------|----------------|
G  :3-3-3-3---3-3---|--3-3-----3-3---|1-1-1-1---1-1---|--1-1-----1-1---|
C  :----------------|----------------|----------------|----------------|

Verse:
F  :10---7-9---10---7-|9-------10---7-9-|10---7-9---10---7-|9-------10---7-9-|
C  :---7-----0----7---|--0--------7-----|---7-----0----7---|--0--------7-----|
G  :------------------|----7-0----------|------------------|----7-0----------|
C  :------------------|-----------------|------------------|-----------------|

F  :10---7-9---10---7-|9-------10---7-9-|10---7-9---10---7-|9-------10---7-9-|
C  :---7-----0----7---|--0--------7-----|---7-----0----7---|--0--------7-----|
G  :------------------|----7-0----------|------------------|----7-0----------|
C  :------------------|-----------------|------------------|-----------------|


F  :10---7-9---10---7-|9-------10---7-9-|10---7-9---10---7-|9-------10---7-9-|
C  :---7-----0----7---|--0--------7-----|---7-----0----7---|--0--------7-----|
G  :------------------|----7-0----------|------------------|----7-0----------|
C  :------------------|-----------------|------------------|-----------------|

F  :10---7-9---10---7-|9-------10---7-9-|10---7-9---10---7-|9-------10---7-9-|
C  :---7-----0----7---|--0--------7-----|---7-----0----7---|--0--------7-----|
G  :------------------|----7-0----------|------------------|----7-0----------|
C  :------------------|-----------------|------------------|-----------------|

Chorus: 2X
F  :------------------------|------------------------|
C  :------------------------|------------------------|
G  :------------------------|------------------------|
C  :-0--0--0--0--0--0--0--0-|-0--0--0--0--0--0--0--0-|

F  :------------------------|------------------------|
C  :------------------------|------------------------|
G  :------------------------|------------------------|
C  :-3--3--3--3--3--3--3--3-|-3--3--3--3--3--3--3--3-|

F  :------------------------|------------------------|
C  :------------------------|------------------------|
G  :-3--3--3--3--3--3--3--3-|-3--3--3--3--3--3--3--3-|
C  :------------------------|------------------------|


F  :------------------------|------------------------|
C  :------------------------|------------------------|
G  :-1--1--1--1--1--1--1--1-|-1--1--1--1--1--1--1--1-|
C  :------------------------|------------------------|

End Chorus:
F  :----------------|----------------|
C  :----------------|----------------|
G  :1-----1-----1---|----------------|
C  :----------------|----------------|

(Verse)
(Chorus 2X)
(End Chorus)

Breakdown 1:
F  :------------------------|------------------------|--------------------------|
C  :------------------------|------------------------|--------------------------|
G  :------------------------|------------------------|--------------------------|
C  :-5--5--5--5--5--5--5--5-|-5--5--5--5--5--5--5--5-|-8--8--8--8--8--8--8--8---|
F  :------------------------|------------------------|--------------------------|
C  :------------------------|------------------------|--------------------------|
G  :------------------------|------------------------|--------------------------|
C  :-8--8--8--8--8--8--8--8-|-3--3--3--3--3--3--3--3-|-3--3--3--3--3--3--3--3---|
F  :------------------------|---------------------------------------------------|
C  :------------------------|---------------------------------------------------|
G  :------------------------|---------------------------------------------------|
C  :-0--0--0--0--0--0--0--0-|-0--0--0--0-12\-----0------------------------------|

Breakdown 2:
F  :------------------------|------------------------|--------------------------|
C  :------------------------|------------------------|--------------------------|
G  :------------------------|------------------------|--------------------------|
C  :-5--5--5--5--5--5--5--5-|-5--5--5--5--5--5--5--5-|-8--8--8--8--8--8--8--8---|
F  :------------------------|------------------------|--------------------------|
C  :------------------------|------------------------|--------------------------|
G  :------------------------|------------------------|--------------------------|
C  :-8--8--8--8--8--8--8--8-|-3--3--3--3--3--3--3--3-|-3--3--3--3--3--3--3--3---|
F  :------------------------|---------------------------------------------------|
C  :------------------------|---------------------------------------------------|
G  :------------------------|---------------------------------------------------|
C  :-7--------7--7--------7-|-7--------7--7--7--7--7----------------------------|

(Breakdown 1)

Breakdown 3:
F  :------------------------|------------------------|
C  :------------------------|------------------------|
G  :------------------------|------------------------|
C  :-5--5--5--5--5--5--5--5-|-5--5--5--5--5--5--5--5-|
F  :------------------------|------------------------|
C  :------------------------|------------------------|
G  :------------------------|------------------------|
C  :-8--8--8--8--8--8--8--8-|-8--8--8--8--8--8--8--8-|
F  :------------------------|------------------------|
C  :------------------------|------------------------|
G  :------------------------|------------------------|
C  :-8--8--8--8--8--8--8--8-|-8--8--8--8--8--8--8--8-|

(Chorus 3X)


End:
F  :------------------|
C  :------------------|
G  :1*----------------|
C  :------------------|

------------------------------------------------------------------------------------
                                   6 Paper Tigers
------------------------------------------------------------------------------------


F |----------------------------------------------------------------------------------------------|
C |--7p0-3h5--7p0-3h5--7p0-3h5--8p0-3h5--8p0-3h5--8p0-3h5----------------------------------------|
G |----------------------------------------------------------------------------------------------|
C |----------------------------------------------------------------------------------------------|

F |----------------------------------------------------------------------------------------------|
C |--7p0-3h5--7p0-3h5--7p0-3h5--8p0-3h5--8p0-3h5--8p0-3h5----------------------------------------|
G |----------------------------------------------------------------------------------------------|
C |---------------------------------------------------------0-0-0-0------------------------------|


F |----------------------------------------------------------------------------------------------|
C |----------------------7p0--------------------------------------------------------7p0----------|
G |--------------------------3-5/6-----------------------55555--------------------------3-5/6----|
C |--00-000--00-000----0-------------00-000--00-000----0--------00-000--00-000----0--------------|

F |----------------------------------------------------------------------------------------------|
C |----------------------------------------------------------------------------------------------|
G |----------------------------------------------------------------------------------------------|
C |--00000--0--0-000--0-0-0----------------------------------------------------------------------|

F |----------------------------------------------------------------------------------------------|
C |----------------------7p0--------------------------------------------------------7p0----------|
G |--------------------------3-5/6-----------------------55555--------------------------3-5/6----|
C |--00-000--00-000----0-------------00-000--00-000----0--------00-000--00-000----0--------------|

F |----------------------------------------------------------------------------------------------|
C |----------------------------------------------------------------------------------------------|
G |----------------------------------------------------------------------------------------------|
C |--00000--0--0-000--0-0-0----------------------------------------------------------------------|


F |----------------------------------------------------------------------------------------------|
C |-------575----------575----------575----------575----------575----------575-------------------|
G |----578---875----578---875----578---875----578---875----578---875----578---875----------------|
C |--07---------7-07---------7-07---------7-07---------7-07---------7-07---------7---------------|

F |----------------------------------------------------------------------------------------------|
C |-------575----------575----------575----------575----------575----------575-------------------|
G |----578---875----578---875----578---875----578---875----578---875----578---875----------------|
C |--07---------7-07---------7-07---------7-07---------7-07---------7-07---------7---------------|

F |----------------------------------------------------------------------------------------------|
C |-------575----------575----------575----------------------------------------------------------|
G |----578---875----578---875----578---875-------------------------------------------------------|
C |--07---------7-07---------7-07---------7-----3-3-3-5-5-5--------------------------------------|


F |----------------------------------------------------------------------------------------------|
C |----------------------7p0--------------------------------------------------------7p0----------|
G |--------------------------3-5/6-----------------------55555--------------------------3-5/6----|
C |--00-000--00-000----0-------------00-000--00-000----0--------00-000--00-000----0--------------|

F |----------------------------------------------------------------------------------------------|
C |----------------------------------------------------------------------------------------------|
G |----------------------------------------------------------------------------------------------|
C |--00000--0--0-000--0-0-0----------------------------------------------------------------------|

F |----------------------------------------------------------------------------------------------|
C |----------------------7p0--------------------------------------------------------7p0----------|
G |--------------------------3-5/6-----------------------55555--------------------------3-5/6----|
C |--00-000--00-000----0-------------00-000--00-000----0--------00-000--00-000----0--------------|

F |----------------------------------------------------------------------------------------------|
C |----------------------------------------------------------------------------------------------|
G |----------------------------------------------------------------------------------------------|
C |--00000--0--0--0------------------------------------------------------------------------------|


F |----------------------------------------------------------------------------------------------|
C |----------------------------------------------------------------------------------------------|
G |--8----7---8---10-----------------------8----7---8---5---------0-3-5-0------------------------|
C |----00---0---0--------0-0-0-000-000-------00---0---0---------0---------3-0--------------------|

F |----------------------------------------------------------------------------------------------|
C |----------------------------------------------------------------------------------------------|
G |--8----7---8---10-----------------------8----7---8---5----------------------------------------|
C |----00---0---0--------0-0-0-000-000-------00---0---0---------00--00000000---------------------|

F |----------------------------------------------------------------------------------------------|
C |----------------------------------------------------------------------------------------------|
G |--8----7---8---10-----------------------8----7---8---5---------0-3-5-0------------------------|
C |----00---0---0--------0-0-0-000-000-------00---0---0---------0---------3-0--------------------|

F |----------------------------------------------------------------------------------------------|
C |----------------------------------------------------------------------------------------------|
G |--8----7---8---10-----------------------------------------------------------------------------|
C |----00---0---0--------0-0-0-000-000-----00000--0-0--000--0--0--0------------------------------|


F |----------------------------------------------------------------------------------------------|
C |-------575----------575----------575----------575----------575----------575-------------------|
G |----578---875----578---875----578---875----578---875----578---875----578---875----------------|
C |--07---------7-07---------7-07---------7-07---------7-07---------7-07---------7---------------|

F |----------------------------------------------------------------------------------------------|
C |-------575----------575----------575----------575----------575----------575-------------------|
G |----578---875----578---875----578---875----578---875----578---875----578---875----------------|
C |--07---------7-07---------7-07---------7-07---------7-07---------7-07---------7---------------|

F |----------------------------------------------------------------------------------------------|
C |-------575----------575----------575----------575----------575----------575-------------------|
G |----578---875----578---875----578---875----578---875----578---875----578---875----------------|
C |--07---------7-07---------7-07---------7-07---------7-07---------7-07---------7---------------|

F |----------------------------------------------------------------------------------------------|
C |-------575----------575----------575----------575----------575----------575-------------------|
G |----578---875----578---875----578---875----578---875----578---875----578---875----------------|
C |--07---------7-07---------7-07---------7-07---------7-07---------7-07---------7---------------|

F |----------------------------------------------------------------------------------------------|
C |-------575----------575----------575----------575----------575----------575-------------------|
G |----578---875----578---875----578---875----578---875----578---875----578---875----------------|
C |--07---------7-07---------7-07---------7-07---------7-07---------7-07---------7---------------|

F |----------------------------------------------------------------------------------------------|
C |----------------------------------------------------------------------------------------------|
G |----------------------------------------------------------------------------------------------|
C |--0----0----0----0----00000---00000---00000---00000---00000---00000---00000---00000-----------|

F |----------------------------------------------------------------------------------------------|
C |----------------------------------------------------------------------------------------------|
G |----------------6----------------6----------------6----------------6-------------6------------|
C |--00000-0--0000----00000-0--0000----00000-0--0000----00000-0--0000----------0000--------------|

F |----------------------------------------------------------------------------------------------|
C |----------------------------------------------------------------------------------------------|
G |----------------6----------------6----------------6----------------6-------------6------------|
C |--00000-0--0000----00000-0--0000----00000-0--0000----00000-0--0000----------0000--------------|

F |----------------------------------------------------------------------------------------------|
C |----------------------------------------------------------------------------------------------|
G |----------------------------------------------------------------------------------------------|
C |--00000---00000-------------------------------------------------------------------------------|


------------------------------------------------------------------------------------
                                   7 Hoods On Peregrine
------------------------------------------------------------------------------------


F|---------------------|
C|---------------------|
G|-3h5-55----3h5-55----|
C|--------00--------00-| play alot

F|----------|
C|----------|
G|-1~-5~-3~-|
C|----------|

F|------------------------------------------------|
C|--------------------33-3-33--55-5-55---0--032---|
G|-3h5-5-55-3h5-5-55-------------------03-03---30-|
C|------------------------------------------------|

F|-5h7-77------------------------------------|
C|--------5h7-77---------------------3-------|
G|---------------3h5-55-5555--3h5-55---5-3-5-|
C|-------------------------------------------|

F|-----------------10--------------------------------|
C|---------9-10-12----12-10----------9-10-12-10-9----|
G|-9-10-12-------------------9-10-12--------------12-|
C|---------------------------------------------------|

F|---------------------|
C|---------------------|
G|-3h5-55----3h5-55----|
C|--------00--------00-|

F|-----------------10--------------------------------|
C|---------9-10-12----12-10----------9-10-12-10-9----|
G|-9-10-12-------------------9-10-12--------------12-|
C|---------------------------------------------------|

F|---------------------|
C|---------------------|
G|-3h5-55----3h5-55----|
C|--------00--------00-|

F|--------------------------------------------|
C|--------------------------------------------|
G|------------------------------------------5-|
C|-00-00-00-00-0-00-07-8-00-00-00--00-7-8-5---|

F|---------------------------------------------------------------------------------|
C|---------------------------------------------------------------------------------|
G|---------------------------------------------------------------------------------|
C|-7-0-7h8-00-7-0-7h8-00-7-0-7h8-77-0-875-7-0-7h8-00-7-0-7h8--00-7-0-7h8--77-0-875-|

F|---------------------------------------------------------------|
C|---------------------------------------------------------------|
G|--------------3h5-55----3h5-55-0-1-3--3h5-55----3h5-55-0--1--3-|
C|0-0-0-0-0-0-0--------00----------------------00----------------| play this a few times.

F|------------------------------------------------|
C|--------------------33-3-33--55-5-55---0--032---|
G|-3h5-5-55-3h5-5-55-------------------03-03---30-|
C|------------------------------------------------|

F|-5h7-77------------------------------------|
C|--------5h7-77---------------------3-------|
G|---------------3h5-55-5555--3h5-55---5-3-5-|
C|-------------------------------------------|

F|-----------------10--------------------------------|
C|---------9-10-12----12-10----------9-10-12-10-9----|
G|-9-10-12-------------------9-10-12--------------12-|
C|---------------------------------------------------|

F|---------------------|
C|---------------------|
G|-3h5-55----3h5-55----|
C|--------00--------00-|

F|-----------------10--------------------------------|
C|---------9-10-12----12-10----------9-10-12-10-9----|
G|-9-10-12-------------------9-10-12--------------12-|
C|---------------------------------------------------|

F|---------------------|
C|---------------------|
G|-3h5-55----3h5-55----|
C|--------00--------00-|

F|----------------------------------------------------------------------|
C|----------------------------------------------------------------------|
G|----1----------------------1------------5-------------1-----------5---|
C|-11--1-11-111-7-8--11-1-11--7-8-5-11-11---1-111-7-8-11-1-11-7-8-5---0-|

F|---------------------|
C|---------------------|
G|-3h5-55----3h5-55----|
C|--------00--------00-| play alot


F|-------------|
C|-------------|
G|-------------|
C|-0-0-0-0-0-0-|

this next part is difficult to make out but he  plays this.

F|-------------|
C|-------------|
G|-------------|
C|-5>-3>-1>-3>-|

then

F|---------------------------------------------------------------------------------|
C|---------------------------------------------------------------------------------|
G|---------------------------------------------------------------------------------|
C|-7-0-7h8-00-7-0-7h8-00-7-0-7h8-77-0-875-7-0-7h8-00-7-0-7h8--00-7-0-7h8--77-0-875-|

Ending with

F|-------|
C|-------|
G|-------|
C|-0>----|


------------------------------------------------------------------------------------
                                   8 The melting point of wax
------------------------------------------------------------------------------------


Intro
F|-------------------------------------|
C|-------------------------------------|
G|-------4h5-5-4-------4h5-5-4---------|
C|-4-44-----------4-44----------000000-| repeat x2

Verse
F|-------------------------------------|
C|---44---4---44---4---00---0---00-----|
G|-------------------------------------|
C|-4----4---4----4---0----0---0--------| play until changes

F|-------------|
C|-------------|
G|-------------|
C|-0-0-0-22222-|

"There's no promice of safety"

F|-------------------------------------|
C|-------------------------------------|
G|-------4h5-5-4-------4h5-5-4---------|
C|-4-44-----------4-44----------000000-|

F|---------------------------------------|
C|-000-444-777-121212--------------------|
G|---------------------4h5-5-4h5-5-4h5-5-|
C|---------------------------------------|

then repeat the verse

1:25 "but how will i"

F|-----------------------------------|
C|------4h7-7-6-------12-10-8--------|
G|-----------------------------------|
C|-0000---------0000-----------00000-|

next bit

F|-------------------------------------|
C|-------------------------------------|
G|-------4h5-5-4-------4h5-5-4---------|
C|-4-44-----------4-44----------000000-|

F|---------------------------------------|
C|-000-444-777-121212--------------------|
G|---------------------4h5-5-4h5-5-4h5-5-|
C|---------------------------------------|  repeat all this x2

F|-----------------|
C|-----------------|
G|-44-55-55-44-3h5-|
C|-----------------| repeat loads

F|--------|
C|--------|
G|--------|
C|-444444-

F|-----------------|
C|-----------------|
G|-44-55-55-44-3h5-|
C|-----------------| repeat loads

F|--------------------------|
C|--------------------------|
G|--333333-777777-555555-5~-|
C|--------------------------|

then

next bit

F|-------------------------------------|
C|-------------------------------------|
G|-------4h5-5-4-------4h5-5-4---------|
C|-4-44-----------4-44----------000000-|

F|---------------------------------------|
C|-000-444-777-121212--------------------|
G|---------------------4h5-5-4h5-5-4h5-5-|
C|---------------------------------------|

ending with

F|-----------------|
C|-----------------|
G|---------------5-|
C|-0-0-0-0-0-0-0-0-|


------------------------------------------------------------------------------------
                                  9 Blood clots and black holes
------------------------------------------------------------------------------------

Intro
F|----------------------------------------------------------------|
C|-----------------5--------------------------------------------0-|
G|-4p0-7p0-6p0-5h7---7-5-6-5-0-35---4p0-7p0-6p0-5-6-5-0-2-3--0----|
C|----------------------------------------------------------------| play x2

verse
F|-------------------------------------------|
C|-------------------------------------------|
G|-------------------------------------------|
C|-0>-888-0>-101010 0>-888-1010101010-777777-|

F|-------------|
C|-------------|
G|----5~----5~-|
C|-8~----8~0---|

(0:48)
F|---------------------------------|
C|---------------------------------|
G|--------5--------5-------5-------|
C|-5>-8>----00000----00000---00000-|

F|--------------------------------------|
C|--------------------------------------|
G|-88888-777-88-1010101010-888-77-------|
C|--------------------------------5>-8>-|


next verse
F|---------------------------|
C|---------------------------|
G|-5>-7>-8>-10>-5>-8>-10-12>-|
C|---------------------------|

F|---------------------------------|
C|---------------------------------|
G|--------5--------5-------5-------|
C|-5>-8>----00000----00000---00000-|

F|--------------------------------------|
C|--------------------------------------|
G|-88888-777-88-1010101010-888-77-------|
C|--------------------------------5>-8>-|

F|--------------------------------------------------------------------------|
C|--------------------------------------------------------------------------|
G|--------------------------5-----5----5----555-666--5----5----5----555-666-|
C|-0~--000-0~--000--0~-000-----0>---0>---0>------------0>---0>---0>---------|


------------------------------------------------------------------------------------
                                   10 The Artist In THe Ambulance
------------------------------------------------------------------------------------

When the bass comes in at 0:22 ...the riff that is played goes like this:
Intro
F|---------------------|
C|---------------------|
G|---5-----------------|  x1
C|-5---5-(5)-5/7-5/8-7-|

F|-------------|
C|-------------|
G|-3-3333p111--|   x3
C|-------------|

then something like this for the verse:
F|-------------------------------|
C|-------------------------------|
G|------------1x-3-33-3p1-1------|
C|-5x--(0)1x-----------------3x--|

Then repeat back to the intro riff again.

Chorus would be this part:
F|--------------------------------------------------------------|
C|--------------------------------------------------------------|
G|-----------------------------------------------5--------------|
C|-(0)-1x-(figure out the rhythem yourself :P)-5---5--3-33-0--0-|

F|------------------------------------|
C|------------------------------------|
G|------------------------------------|
C|-(0)-1x--5-5-5555-3-3-3333-1-1-1111-|

*repeat intro riff

(1:27) (after pause with singer)
F|----------------------------------------------|
C|---------------------------------------7------|
G|------------------1------------------5--(5)3--|
C|-1-1-1-1-1-1-1-1-----(pause)-3-3-3-3----------|

F|----------------------------------------------------|
C|----------------------------------------------------|
G|---5-----------------------1x--/3-3/5-55--3--1--0---|
C|-5---5-(5)-5/7-5/8-7--1x--------------------------3-|

Bridge: (2:07)
F|-------------------------------------------------|
C|-------------------5-5--3------------------------|
G|---5----------------------5-3-------1-3-5-3------|
C|-5---5--5-5--5/(8)-------------3-1x----------3/5-|

F|-----------------------------------------------------|
C|-------------------5-5--3----------------------------|
G|---5----------------------5-5-3--------------5-3-1---|
C|-5---5--5-5--5/(8)--------------3x---0x--1-1-------5-|


------------------------------------------------------------------------------------
                                   11 The Abolition of Man
------------------------------------------------------------------------------------

Intro - Drum & Guitar
---------------------

Bass Enters At Pre Verse:

Pre Verse:  "We laugh at honor..."
F|------------------------|
C|------------------------|
G|------------------------|
C|0--0--0--0--0--0--0--0--|

Verse:  "Find knives..."
F|---------------------------------------------------------------------------|
C|------------------8p7------------------------------------------------------|
G|5-----8p7---5---------8p7h8-8-----7h8-----8h10---8---8p7-------------------|
C|--0-0-----0---0-0-------------0-0-----0-0------0---0------0h1-1-1-1-1-1-1--|

Verse Cont'd:
F|------------------------------------------|
C|------------------------------------------|
G|------------------------------------------|
C|0-0-0-0----0-0-0-0----0-0-0-0----0-0-0-0--|

Verse Cont'd:
F|------------------------------------------------------------------------------------------|
C|------------------8p7---------------------------------------------------------------------|
G|5-----8p7---5---------8p7h8-8-----7h8-----8h10---10---10p8--8/10-10-10-10/12-12-12-12-----|
C|--0-0-----0---0-0-------------0-0-----0-0------0----0----------------------------------0--|


Chorus:  "Reason abandoned..."  (2x)
F|------------------|
C|------------------|
G|5>--0h3>----------|
C|---------/3>--5>--|

:REST:

Repeat Pre Verse

Repeat Verse

End of Verse: (Miss out the "0" on the 2nd Verse Cont'd)
F|---------------------------------------------------------------------------------------|
C|---------------------------------------------------------------------------------------|
G|-8/10-10-10-10/12-12-12-12--8/10-10-10-10/12-12-12-12----------------------------------|
C|-------------------------------------------------------1--1--1--1--0~---0~---0~---0-0--|


Outro:
F|-------------------------------------------------------------------------------------------|
C|-------------------------------------------------------------------------------------------|
G|----------3>/5-5-5-5/7-7-7-7----------------3>/5-5-5-5/7-7-7-7-----------------------------|
C|--0>--1>----------------------1>---0>---1>---------------------1--1--1--1--1--1--1--1--0~--|


------------------------------------------------------------------------------------
                                   12 Don't Tell And We Won't Ask
------------------------------------------------------------------------------------

r- Let note ring

Intro
F|---------------------------------------------------|
C|---------------------------------------------------|
G|---------------------------------------------------|those are 10s
C|-0000-0-0000-00000-10101010-10-10101010-1010101010-|

F|----------------------------------------------------|
C|----------------------------------------------------|
G|----------------------------------------------------|
C|-0000-0-0000-00000-10101010-10-10101010-1010101010--|

F|-----------------------------------------------------|
C|-----------------------------------------------------|
G|-----------------------------------------------------|
C|-10101010-10-10101010-1010101010-8888-8-8888-88888---|

Verse
F|----------------------------------------------------------|
C|----------------------------------------------------------|
G|----------------------------------------------------------|
C|-0---10--8---0--10--8-0000-0-0000-00000--101010-10-8888888|

This Part x2
F|-------------------------------------------|
C|-------------------------------------------|
G|-------------------------------------------|
C|-0000-0-0000-00000--101010-10-88888888-----|

Then (And when it comes to murder...)
F|---------------------|
C|---------------------|
G|---------------------|
C|-5555-5-55557--------|

Chorus
F|---------------------------------------------------|
C|---------------------------------------------------|
G|---------------------------------------------------|
C|-0000-0-0000-00000-10101010-10-10101010-1010101010-|

F|---------------------------------------------------|
C|---------------------------------------------------|
G|---------------------------------------------------|
C|-0000-0-0000-00000-10101010-10-10101010-1010101010-|

F|-------------------------------------|
C|-------------------------------------|
G|-------------------------------------|
C|-5555-5-5555-55555-0000-0-0000-00000-|

F|---------------------------------------------------|
C|---------------------------------------------------|
G|---------------------------------------------------|
C|-10101010-10-10101010-1010101010-8888-8-8888-88888-|

Repeat Verse Minus Last Part With the 5's

Next (Your actions all are justified...)
F|-------------------------------------|
C|-------------------------------------|
G|-------------5-----------------------|
C|-0--7-8--5-7-------------------------|

Repeat Chorus
Repeat Intro

Then x1
F|---------------------------------|
C|---------------------------------|
G|---------------------------------|
C|--8-------10--------0------------|

Bridge (Vocals Stop) x4
F|---------------------------------|
C|---------------------------------|
G|-555-55555-55-333-33333-33-------|
C|---------------------------------|

Keep playing the 3 the last time

Next Part (Dont we all...)
F|----------------------------------------------------------|
C|----------------------------------------------------------|
G|-111-11-11-1-111-11-11-1-111------------------------------|
C|-----------------------------555-55-55-5-555-55-55-5-555--|

These are all 1's.

F|------------------------------------------------------------|
C|------------------------------------------------------------|
G|-111-11-11-1-111-11-11-1-111-333-33-33-3-333-33-33-3-333-5r-|
C|------------------------------------------------------------|

Coda x2
F|---------------------------------------------|
C|---------------------------------------------|
G|-5555555555555555-3333333333333333-----------|
C|---------------------------------------------|

Then
F|-----------------------------------------------|
C|-----------------------------------------------|
G|-1111111111111111-3333333333333333-5r----------|
C|-----------------------------------------------|

_____________________________________________________________________________
Fini
comments
print report bad tab
I want to post or [tab]
guest
You may want to rate the tab now too:
select rating
Please do not post tabs as comments. Select "correction" instead!