Oops, an error
Loading. Please wait.

Artist In The Ambulance Tab

ver1
ver1

Album

Whole song

Interactive

More versions @911Tabs.com
24,670 views 15 this week
10 commentsread comments
1 2 3 4 5
accurate
x 11
Autoscroll
+/-
esc
set tempo
stop
Contributor
WARNING: You are trying to view
                                    content from Ultimate-Guitar.com
                                    in an unauthorized application,
                                    which is prohibited.

                                    Please use an official Ultimate
                                    Guitar Tabs application for iPhone,
                                    iPad or Android to access legitimate
                                    chords, guitar, bass, and drum tabs
                                    from Ultimate-Guitar.com database.

                                    Type "ultimate guitar tabs" in Apple
                                    App Store's or Android Market's
                                    search to find the application.
Tabbed By Logan (A.K.A Volcom_Prophecy)

This has got to be there greatest Album yet.  If you don't have thier album, I recomend you buy it. If you have any questions, you can email me. Volcom_Prophecy@hotmail.com

Have fun with it :)

Song: Cold Cash And Colder Hearts
Band: Thrice
Album: The Artist In The Ambulance


GUITAR 1'S PARTS:
-----------------
d|--------------------------------------------------------------------------|
A|--------------------------------------------------------------------------|
F|5/7-------------------5/7-------------------3-3-3-3-3-3-3-3-3-3-3-3-------|
C|x-x-------3-3-3-3-3-3-x-x-------3-3-3-3-3-3-3-3-3-3-3-3-3-3-3-3-3-3-5-5-5-|
G|3/5-0-0-0-3-3-3-3-3-3-3/5-0-0-0-3-3-3-3-3-3-1-1-1-1-1-1-1-1-1-1-1-1-5-5-5-|
C|----0-0-0-3-3-3-3-3-3-----0-0-0-3-3-3-3-3-3-------------------------5-5-5-|

Verse Cont'd:
d|--------------------------------------------------------------------------|
A|--------------------------------------------------------------------------|
F|-----------------5/7-------------------5/7--------------------------------|
C|55-5-5-5-5-5-5-5-x-x-------3-3-3-3-3-3-x-x-------3-3-3-3-3-3-5-5-5-5-5-5-5|
G|55-5-5-5-5-5-5-5-3/5-0-0-0-3-3-3-3-3-3-3/5-0-0-0-3-3-3-3-3-3-5-5-5-5-5-5-5|
C|55-5-5-5-5-5-5-5-----0-0-0-3-3-3-3-3-3-----0-0-0-3-3-3-3-3-3-5-5-5-5-5-5-5|

Verse Cont'd:
d|--------------------------------------------------------------------------|
A|---------------------------------6-6-6-6-6-6-6-6-6-6-6-6------------------|
F|---------------------------------7-7-7-7-7-7-7-7-7-7-7-7-9-9-9-9-9-9-9-9-9|
C|55-5-5-5-8-8-8-8-8-8-8-8-8-8-8-8-5-5-5-5-5-5-5-5-5-5-5-5-8-8-8-8-8-8-8-8-8|
G|55-5-5-5-8-8-8-8-8-8-8-8-8-8-8-8-5-5-5-5-5-5-5-5-5-5-5-5-8-8-8-8-8-8-8-8-8|
C|55-5-5-5-8-8-8-8-8-8-8-8-8-8-8-8-5-5-5-5-5-5-5-5-5-5-5-5-8-8-8-8-8-8-8-8-8|

Verse Cont'd:
d|------|
A|------|
F|9-9-9-|
C|8-8-8-|
G|8-8-8-|
C|8-8-8-|

d|--------------------------------------------------------------------------|
A|10-10-----10--10---------6-6-6-6-6-6-6-6-6-6-6-6--------------------------|
F|10-10-----10--10---------7-7-7-7-7-7-7-7-7-7-7-7-9-9-9-9-9-9-9-9-9-9-9-9--|
C|-7--7------7---7---------5-5-5-5-5-5-5-5-5-5-5-5-8-8-8-8-8-8-8-8-8-8-8-8--|
G|------0-0--------0-0-0-0-5-5-5-5-5-5-5-5-5-5-5-5-8-8-8-8-8-8-8-8-8-8-8-8--|
C|------0-0--------0-0-0-0-5-5-5-5-5-5-5-5-5-5-5-5-8-8-8-8-8-8-8-8-8-8-8-8--|
         ...        .......

d|--------------------------------------------------------------------------|
A|--------------------------------------------------------------------------|
F|1010-10-10-10-10-10-10-10-10-10-10-9-9-9-9-9-9-9-9-9-9-9-9-6-6-6-6-6-6-6-6|
C|--------------------------------------------------------------------------|
G|--------------------------------------------------------------------------|
C|--------------------------------------------------------------------------|
  ...........................................................................

Bridge Cont'd:
d|--------------------------------------------------------------------------|
A|--------------------------------------------------------------------------|
F|66-6-6-7-7-7-7-7-7-7-7-7-7-7-7-12-12-12-12-12-12-12-12-12-12-12-12-10-10--|
C|--------------------------------------------------------------------------|
G|--------------------------------------------------------------------------|
C|--------------------------------------------------------------------------|
  .........................................................................
Bridge Cont'd:
d|--------------------------------------------------------------------------|
A|--------------------------------------------------------------------------|
F|1010-10-10-10-10-10-10-10-10-9-9-9-9-9-9-10-10-10-10-10-10-7-7-7-7-7-7-7-7|
C|--------------------------------------------------------------------------|
G|--------------------------------------------------------------------------|
C|--------------------------------------------------------------------------|
  .........................................

Bridge Cont'd:
d|-----------|
A|-----------|
F|7-7-7-7----|
C|-----------|
G|-----------|
C|-----------|

Repeat Verse:  (With ring out on chords at end)

Repeat Post Verse

Bridge: 
d|-------6-5---------------6-5----------------------------------------------|
A|---8-------6-6~------8-------6-6~----------6-5-----------------6-5--------|
F|-7---7-------------7---7---------------7-------5-5h7~------7-------5-5h7~-|
C|5----------------5-------------------7---7---------------7---7------------|
G|-----------------------------------5-------------------5------------------|
C|--------------------------------------------------------------------------|

(add filler notes)

Bridge Cont'd:
d|--------6-5---------------6-5---------|
A|----8-------6-6~------8-------6-6~----|
F|--7---7-------------7---7-------------|
C|5-----------------5-------------------|
G|--------------------------------------|
C|--------------------------------------|

Repeat 1st Bridge

Next Part: (You figure out strumming)
d|-------------------------------------------------|
A|-------------------------------------------------|
F|10>---9>---6>---7>---12>---10>---9>---10>---7>---|
C|-x----x----x----x-----x-----x----x-----x----x----|
G|-8>---7>---4>---5>---10>----8>---7>----8>---5>---|
C|-------------------------------------------------|

Rock Out Outro:
d|--------------------------------------------------------------------------|
A|10-10-----10--10---------10--10-----10--10---------10--10-----10--10------|
F|10-10-----10--10---------10--10-----10--10----------9---9------9---9------|
C|-7--7------7---7----------7---7------7---7----------7---7------7---7------|
G|------0-0--------0-0-0-0--------0-0--------0-0-0-0--------0-0--------0-0--|
C|------0-0--------0-0-0-0--------0-0--------0-0-0-0--------0-0--------0-0--|
         ...        .......        ...        .......        ...        ...

Rock Out Outro Cont'd:
d|--------------------------------------------------------------------------|
A|---10--10-----10--10----------10---10---10---10---10---10---10---10-------|
F|----9---9------9---9----------10---10---10---10---10---10---10---10-------|
C|----7---7------7---7-----------7----7----7----7----7----7----7----7-------|
G|00--------0-0--------0-0-0-0-----0----0----0----0----0----0----0----0-----|
C|00--------0-0--------0-0-0-0-----0----0----0----0----0----0----0----0-----|
  ...        ...        .......     .    .    .    .    .    .    .    .

Rock Out Outro Cont'd:
d|-------------------------------------------------------|
A|10--10-----10--10---------10--10-----10--10------------|
F|-9---9------9---9----------9---9------9---9------------|
C|-7---7------7---7----------7---7------7---7------------|
G|-------0-0--------0-0-0-0--------0-0--------0-0-0-0----|
C|-------0-0--------0-0-0-0--------0-0--------0-0-0-0----|
         ...        .......        ...        .......

Ending:  (Play til the strings come in)
d|--12>---|
A|--13>---|
F|--------|
C|--------|
G|--------|
C|--------|


GUITAR 2'S PARTS:
-----------------
Verse:  (Same as Guitar 1)

Post Verse:  (Same as Guitar 1)

Bridge: 
d|--------------------------------------------------------------------------|
A|--------------------------------------------------------------------------|
F|--------------------------------------------------------------------------|
C|--------------------------------------------------------------------------|
G|55-5-5-5-5-5-5-5-5-5-5-10-10-10-10-10-10-10-10-10-10-10-10-7-7-7-7-7-7-7-7|
C|--------------------------------------------------------------------------|
  ...........................................................................

Bridge Cont'd:
d|--------------------------------------------------------------------------|
A|--------------------------------------------------------------------------|
F|--------------------------------------------------------------------------|
C|-------------------------------8-8-8-8-8-8-8-8-8-8-8-8-7-7-7-7-7-7-7-7-7-7|
G|7-7-7-7-8-8-8-8-8-8-8-8-8-8-8-8-------------------------------------------|
C|--------------------------------------------------------------------------|
  ...........................................................................

Bridge Cont'd:
d|---------------------------------------------------------|
A|---------------------------------------------------------|
F|---------------------------------------------------------|
C|7-7------------------------------------------------------|
G|----7-7-7-7-7-7-8-8-8-8-8-8-5-5-5-5-5-5-5-5-5-5-5-5------|
C|---------------------------------------------------------|
  ...

Repeat Verse

Repeat Post Verse

Bridge:  (Only Guitar 1)

Repeat 1st Bridge

Next Part:  (You figure out strumming)
d|----------------------------------------------|
A|----------------------------------------------|
F|----------------------------------------------|
C|0>---5>---7>---0>---8>--------2>--3>--0>------|
G|0>---5>---7>---0>---8>---8>---2>--3>--0>------|
C|0>---5>---7>---0>---8>---7>---2>--3>--0>------|

Outro:  (Same as guitar 1)

Ending:  (Only guitar 1)
============================================================================
============================================================================
============================================================================
============================================================================

Song: Under a Killing Moon
Band: Thrice
Album: The Artist In The Ambulance

PM - Palm mute
\ - Slide down
/ - Slide up
h - Hammer on
p - Pull off


Tuning: C G C F A D



Intro/verse
|-----------------------------------------------------------|
|-----------------------------------------------------------|
|---------------------------------------------3-3-3-3/5-----|
|------------------7--------------------------3-3-3-3/5-----|
|--------------------8-7h8-8\-----------------1-1-1-1/3--8\-|
|-000-0-000-000-0--------------0-0-000-000-0----------------|
PM--- - --- --- -              - - --- --- -


|------------------------------------------------------------|
|------------------------------------------------------------|
|---------------------------------------------3-3-3-3/5--10--|
|------------------7-----------------------------------------|
|--------------------8-7h8-8\-----------------1-1-1-1/3---8\-|
|-000-0-000-000-0--------------0-0-000-000-0-----------------|
PM--- - --- --- -              - - --- --- -


|-----------------------------------------------------------------|
|-----------------------------------------------------------------|
|------------------14-10-9/10--10\-----------------3-3-3-3/5--10\-|
|-----------------------------------------------------------------|
|------------------12--8-7/-8---8\-----------------1-1-1-1/3---8\-|
|-000-0-000-000-0-------------------0-0-000-000-0-----------------|
PM--- - --- --- -                   - - --- --- -


Pre-chorus
|-------------------------|
|-------------------------|
|-------------------------|
|-8-8-8-8-8-8-8-8-8-8-8-8-|
|-8-8-8-8-8-8-8-8-8-8-8-8-|
|-8-8-8-8-8-8-8-8-8-8-8-8-|


|-----------------------------------------|
|-----------------------------------------|
|-7-7-7-7--5-5--7-------------------------|
|-7-7-7-7--5-5--7--------0h5h7p5--0h3h5p3-|
|-5-5-5-5--3-3--5-------------------------|
|-0-0-0-0--0-0--0--0-0-0------------------|
PM  - -


Pre-chorus
|-------------------------|
|-------------------------|
|-------------------------|
|-8-8-8-8-8-8-8-8-8-8-8-8-|
|-8-8-8-8-8-8-8-8-8-8-8-8-|
|-8-8-8-8-8-8-8-8-8-8-8-8-|


Chorus
|---------------------------------10-10-10---------------------------------------------|
|--------10-10-10-10-10-10-10-10-----------10-10-10-10-10-10-10------------------------|
|--------10-10-10-10-10-10-10-10-------------------------------------------------------|
|-0-0-0-----------------------------------------------------------5-5-5-5-5-5-5-5-5-5--|
|-0-0-0--------------------------------------------------------------------------------|
|-0-0-0--------------------------------------------------------------------------------|
PM                                                                - - - - -   - - - -


Fill
|----------------------------------|
|----------------------------------|
|----------------------------------|
|-----------------0h5h7p5--0h3h5p3-|
|----------------------------------|
|-0---1-0--3-3-3-------------------|


Verse
|-----------------------------------------------------------------|
|-----------------------------------------------------------------|
|------------------14-10-9/10--10\-----------------3-3-3-3/5--10\-|
|-----------------------------------------------------------------|
|------------------12--8-7/-8---8\-----------------1-1-1-1/3---8\-|
|-000-0-000-000-0-------------------0-0-000-000-0-----------------|
PM--- - --- --- -                   - - --- --- -


Pre-chorus
|-------------------------------------------|
|-------------------------------------------|
|-10-10-10-10-10-10-\-9-9-9-9-/-12-12-12-12-|
|-------------------------------------------|
|--8--8--8--8--8--8-\-7-7-7-7-/-10-10-10-10-|
|-------------------------------------------|


Chorus
|---------------------------------10-10-10---------------------------------------------|
|--------10-10-10-10-10-10-10-10-----------10-10-10-10-10-10-10------------------------|
|--------10-10-10-10-10-10-10-10-------------------------------------------------------|
|-0-0-0-----------------------------------------------------------5-5-5-5-5-5-5-5-5-5--|
|-0-0-0--------------------------------------------------------------------------------|
|-0-0-0--------------------------------------------------------------------------------|
PM                                                                - - - - -   - - - -


Breakdown
|--------------------------------------------------------------------|
|--------------------------------------------------------------------|
|--------------------------------------------------------------------|
|-----------------0h5h7p5--0h3h5p3------------------0h5h7p5--0h3h5p3-|
|--------------------------------------------------------------------|
|-0---1-0--3-3-3--------------------0---1-0--2-2-2-------------------|


|------------------------------------------------------------------------------------|
|------------------------------------------------------------------------------------|
|-7-7-7-7--5-5--7---------------------------7-7-7-7--5-5--7--------------------------|
|-7-7-7-7--5-5--7---------0h5h7p5--0h3h5p3--7-7-7-7--5-5--7---------0h5h7p5--0h3h5p3-|
|-5-5-5-5--3-3--5---------------------------5-5-5-5--3-3--5--------------------------|
|-0-0-0-0--0-0--0--3-3-3--------------------0-0-0-0--0-0--0--2-2-2-------------------|
PM  - -                                       - -


|-----------------------------------------------------------|
|-----------------------------------------------------------|
|-7-7-7-7--5-5--7---------------------------7-7-7-7--5-5--7-|
|-7-7-7-7--5-5--7---------0h5h7p5--0h3h5p3--7-7-7-7--5-5--7-|
|-5-5-5-5--3-3--5---------------------------5-5-5-5--3-3--5-|
|-0-0-0-0--0-0--0--3-3-3--------------------0-0-0-0--0-0--0-|
PM  - -                                       - -


|----------------------------------------|
|----------------------------------------|
|----------------------------------------|
|-0-0-0--0-------0-0-0--0h5h7p5--0h3h5p3-|
|-0-0-0--0-------0-0-0-------------------|
|-0-0-0--0--1-0--0-0-0-------------------|
PM- - -          - - -


End
|---------|
|---------|
|---------|
|---------|
|---------|
|-0---1-0-|
============================================================================
============================================================================
============================================================================
============================================================================

Song: All Thats Left
Band: Thrice
Album: The Artist In The Ambulance

| /  slide up
| \  slide down
| h  hammer-on
| p  pull-off
| ~  vibrato
| +  harmonic
| x  Mute note

Tuning:dropped d
Intro- 2 times
e|---------------------------------------------------------------------------|
B|---------------------------------------------------------------------------|
G|---------------------------------------------------------------------------|
D|------5--------3----------55-33-55-33-------5-------3------------8----7----|
A|--5--------5--------5---6-55-33-55-33---5-------5-------5---8--------------|
E|5---5----5---5----5---5---55-33-55-33-5---5---5---5---5---5---55---55------|
2 times
e|---------------------------------------------------------------------------|
B|---------------------------------------------------------------------------|
G|---------------------------------------------------------------------------|
D|55555555333333331111111133333333-------------------------------------------|
A|55555555333333331111111133333333-------------------------------------------|
E|55555555333333331111111133333333-------------------------------------------|
Verse- 4 times
e|---------------------------------------------------------------------------|
B|---------------------------------------------------------------------------|
G|---12----10----8-----------------------------------------------------------|
D|55----55----55----55-33-55-33----------------------------------------------|
A|55-10-55-8--55-6--55-33-55-33----------------------------------------------|
E|55----55----55----55-33-55-33----------------------------------------------|
Chorus
e|---------------------------------------------------------------------------|
B|---------------------------------------------------------------------------|
G|---------------------------------------------------------------------------|
D|111133333355555555111133333355-33-55-33111133333355555555111133333355555555|
A|111133333355555555111133333355-33-55-33111133333355555555111133333355555555|
E|111133333355555555111133333355-33-55-33111133333355555555111133333355555555|

Verse- 4 times
e|---------------------------------------------------------------------------|
B|---------------------------------------------------------------------------|
G|---12----10----8-----------------------------------------------------------|
D|55----55----55----55-33-55-33----------------------------------------------|
A|55-10-55-8--55-6--55-33-55-33----------------------------------------------|
E|55----55----55----55-33-55-33----------------------------------------------|

Chorus
e|---------------------------------------------------------------------------|
B|---------------------------------------------------------------------------|
G|---------------------------------------------------------------------------|
D|111133333355555555111133333355-33-55-33111133333355555555111133333355555555|
A|111133333355555555111133333355-33-55-33111133333355555555111133333355555555|
E|111133333355555555111133333355-33-55-33111133333355555555111133333355555555|
Only one time 
e|---------------------------------------------------------------------------|
B|---------------------------------------------------------------------------|
G|---------------------------------------------------------------------------|
D|------5--------3----------55-33-55-33-------5-------3------------8----7----|
A|--5--------5--------5---6-55-33-55-33---5-------5-------5---8--------------|
E|5---5----5---5----5---5---55-33-55-33-5---5---5---5---5---5---55---55------|

2 times
e|---------------------------------------------------------------------------|
B|---------------------------------------------------------------------------|
G|---------------------------------------------------------------------------|
D|55555555333333331111111133333333-------------------------------------------|
A|55555555333333331111111133333333-------------------------------------------|
E|55555555333333331111111133333333-------------------------------------------|

Chorus- 4 times
e|---------------------------------------------------------------------------|
B|---------------------------------------------------------------------------|
G|---------------------------------------------------------------------------|
D|111133333355555555111133333355-33-55-33111133333355555555111133333355555555|
A|111133333355555555111133333355-33-55-33111133333355555555111133333355555555|
E|111133333355555555111133333355-33-55-33111133333355555555111133333355555555|
============================================================================
============================================================================
============================================================================
============================================================================

Song: Silhouette
Band: Thrice
Album: The Artist In The Ambulance

PM - Palm mute
/ - Slide up
\ - Slide down

Tuning: C G C F A D



Intro/Verse - Both Guitars
|---------------------------------------------------------------------------------------------|
|---------------------------------------------------------------------------------------------|
|---------------------------------------------------------------------------------------------|
|-0-0-0---0-0-0-10-10-10-0-0-0---0-0-0-10-10-10-8-8-8---8-8-8-10-10-10-8-8-8---8-8-8-10-10-10-|
|-0-0-0---0-0-0-10-10-10-0-0-0---0-0-0-10-10-10-8-8-8---8-8-8-10-10-10-8-8-8---8-8-8-10-10-10-|
|-0-0-0---0-0-0-10-10-10-0-0-0---0-0-0-10-10-10-8-8-8---8-8-8-10-10-10-8-8-8---8-8-8-10-10-10-|


Guitar 2
|-----9-----9-----9-|
|---7-----7-----7---|
|-7-----7-----7-----|
|-------------------|
|-------------------|
|-------------------|


Guitar 2
|-----------------------------|
|-8/10---8-10-8-6---5-6-5-----|
|-------------------------6-4-|
|-----------------------------|
|-----------------------------|
|-----------------------------|


Chorus - Both Guitars
|------------------------------|
|------------------------------|
|------------------------------|
|-10\1-0--7-9-7-5-3-1--5-3-5-6-|
|-10\1-0--7-9-7-5-3-1--5-3-5-6-|
|-10\1-0--7-9-7-5-3-1--5-3-5-6-|


Verse - Both Guitars
|---------------------------------------------------------|
|---------------------------------------------------------|
|---------------------------------------------------------|
|-8-8-8---8-8-8-10-10-10-8-8-8---8-8-8-10-10-10--00000000-|
|-8-8-8---8-8-8-10-10-10-8-8-8---8-8-8-10-10-10--00000000-|
|-8-8-8---8-8-8-10-10-10-8-8-8---8-8-8-10-10-10--00000000-|
PM                                               --------


Verse - Both Guitars
|---------------------------------------------------------------------------------------------|
|---------------------------------------------------------------------------------------------|
|---------------------------------------------------------------------------------------------|
|-0-0-0---0-0-0-10-10-10-0-0-0---0-0-0-10-10-10-8-8-8---8-8-8-10-10-10-8-8-8---8-8-8-10-10-10-|
|-0-0-0---0-0-0-10-10-10-0-0-0---0-0-0-10-10-10-8-8-8---8-8-8-10-10-10-8-8-8---8-8-8-10-10-10-|
|-0-0-0---0-0-0-10-10-10-0-0-0---0-0-0-10-10-10-8-8-8---8-8-8-10-10-10-8-8-8---8-8-8-10-10-10-|


Guitar 2
|-----9-----9-----9-|
|---7-----7-----7---|
|-7-----7-----7-----|
|-------------------|
|-------------------|
|-------------------|


Guitar 2
|-----------------|
|-10---8---13---8-|
|-----------------|
|-----------------|
|-----------------|
|-----------------|


Guitar 2
|-----------------------------|
|-8/10---8-10-8-6---5-6-5-----|
|-------------------------6-4-|
|-----------------------------|
|-----------------------------|
|-----------------------------|


Chorus - Both Guitars
|------------------------------|
|------------------------------|
|------------------------------|
|-10\1-0--7-9-7-5-3-1--5-3-5-6-|
|-10\1-0--7-9-7-5-3-1--5-3-5-6-|
|-10\1-0--7-9-7-5-3-1--5-3-5-6-|


Bridge - Guitar 1
|--------------------------------------------|
|--------------------------------------------|
|--------------------------------------------|
|-00000000---0-0-0-0-0---8-8-8-8-8-8-8-8-8-8-|
|-00000000---0-0-0-0-0---8-8-8-8-8-8-8-8-8-8-|
|-00000000---0-0-0-0-0---8-8-8-8-8-8-8-8-8-8-|
PM--------


Bridge - Guitar 2
|-----------------------------------------------------------------------------------------------------------------|
|-----------------------------------------------------------------------------------------------------------------|
|7-7-7-7-7-7-9-9-9-9-9-9-10-10-10-10-10-10-12-12-12-12-12-12-10-10-10-10-10-10-14-14-14-14-14-14-12-12-12-12-12-12|
|-----------------------------------------------------------------------------------------------------------------|
|5-5-5-5-5-5-7-7-7-7-7-7--8--8--8--8--8--8-10-10-10-10-10-10--8--8--8--8--8--8-12-12-12-12-12-12-10-10-10-10-10-10|
|-----------------------------------------------------------------------------------------------------------------|


|-------------------------------------------------------------|
|-------------------------------------------------------------|
|-9-9-9-9-9-9-7-7-7-7-7-7-14-14-14-14-14-14-14-14-14-14-14-14-|
|-------------------------------------------------------------|
|-7-7-7-7-7-7-5-5-5-5-5-5-12-12-12-12-12-12-12-12-12-12-12-12-|
|-------------------------------------------------------------|


Chorus - Both Guitars
|------------------------------|
|------------------------------|
|------------------------------|
|-10\1-0--7-9-7-5-3-1--5-3-5-6-|
|-10\1-0--7-9-7-5-3-1--5-3-5-6-|
|-10\1-0--7-9-7-5-3-1--5-3-5-6-|


Both Guitars
|------------------------------|
|------------------------------|
|------------------------------|
|------------------------------|
|------------------------------|
|-10\1-0--7-9-7-5-3-1--5-3-5-6-|


End
|-------|
|-------|
|-------|
|-0-0-0-|
|-0-0-0-|
|-0-0-0-|
============================================================================
============================================================================
============================================================================
============================================================================

Song: Stare at the Sun
Band: Thrice
Album: The Artist In The Ambulance

| /  slide up
| \  slide down
| h  hammer-on
| p  pull-off
| ~  vibrato
| +  harmonic
| x  Mute note

Intro/verse- 5 times
e|1~--------5~--------3~---------1~------------------------------------------|
B|---------------------------------------------------------------------------|
G|---------------------------------------------------------------------------|
D|---------------------------------------------------------------------------|
A|---------------------------------------------------------------------------|
E|---------------------------------------------------------------------------|
chorus- 2 times
e|---------------------------------------------------------------------------|
B|---------------------------------------------------------------------------|
G|----------------5555555533333333-------------------------------------------|
D|00000000333333335555555533333333-------------------------------------------|
A|00000000333333333333333311111111-------------------------------------------|
E|0000000033333333-----------------------------------------------------------|
Verse- 3 times
e|1~-------5~--------3~---------1~-------------------------------------------|
B|---------------------------------------------------------------------------|
G|---------------------------------------------------------------------------|
D|---------------------------------------------------------------------------|
A|---------------------------------------------------------------------------|
E|---------------------------------------------------------------------------|
Chorus- 2 times
e|---------------------------------------------------------------------------|
B|---------------------------------------------------------------------------|
G|----------------5555555533333333-------------------------------------------|
D|00000000333333335555555533333333-------------------------------------------|
A|00000000333333333333333311111111-------------------------------------------|
E|0000000033333333-----------------------------------------------------------|
Figure out the strumming and you'll be fine
e|---------------------------------------------------------------------------|
B|---------------------------------------------------------------------------|
G|---------------------------------------------------------------------------|
D|5>---8>---3>---0>---5>---8>---3>---7>--------------------------------------|
A|5>---8>---3>---0>---5>---8>---3>---7>--------------------------------------|
E|5>---8>---3>---0>---5>---8>---3>---7>--------------------------------------|
Then there's the chorus again.
At the end is clean
e|---------------------------------------------------------------------------|
B|---------------------------------------------------------------------------|
G|--------------5~-----3~----------------------------------------------------|
D|0~-----3~-----5~-----3~----------------------------------------------------|
A|0~-----3~-----3~-----1~----------------------------------------------------|
E|0~-----3~------------------------------------------------------------------|
============================================================================
============================================================================
============================================================================
============================================================================


Song: Paper Tigers
Band: Thrice
Album: The Artist In The Ambulance

Tuning: C G C F A D

|8x - Mute string after playing
|h - Hammer on
|p - Pull off
|\ - Slide down
|PM - Palm mute

Intro
|-------------|
|-------------|
|-------------|
|-------------|
|-8x-8x-8x-8x-|
|-------------|


Verse
|-----------------------------------------------------------|
|-----------------------------------------------------------|
|----------------------------------------------7--8h9p8-8---|
|-0-0000-0-0000--7------------0-0000-0-0000--0------------7-|
|-0-0000-0-0000----5--3--5h6--0-0000-0-0000-----------------|
|-0-0000-0-0000---------------0-0000-0-0000-----------------|
PM- ---- - ----               - ---- - ----  -


|------------------------------------------------|
|------------------------------------------------|
|------------------------------------------------|
|-0-0000-0-0000--7------------0000--0-0-0000-0-0-|
|-0-0000-0-0000----5--3--5h6--0000--0-0-0000-0-0-|
|-0-0000-0-0000---------------0000--0-0-0000-0-0-|
PM- ---- - ----               ----  - - ---- - -


|------------------------------------------------------------|
|--------------------------------------------------------8---|
|----------------------------------------------7--9h10p9---7-|
|-0-0000-0-0000--7------------0-0000-0-0000--0---------------|
|-0-0000-0-0000----5--3--5h6--0-0000-0-0000------------------|
|-0-0000-0-0000---------------0-0000-0-0000------------------|
PM- ---- - ----               - ---- - ----  -


|------------------------------------------------|
|------------------------------------------------|
|------------------------------------------------|
|-0-0000-0-0000--7------------0000--0-0-0000-0-0-|
|-0-0000-0-0000----5--3--5h6--0000--0-0-0000-0-0-|
|-0-0000-0-0000---------------0000--0-0-0000-0-0-|
PM- ---- - ----               ----  - - ---- - -


Bridge - Bass only


|----------------------|
|----------------------|
|----------------------|
|----------------------|
|-8x-8x-8x-10x-10x-12\-|
|----------------------|


Verse
|-----------------------------------------------------------|
|-----------------------------------------------------------|
|----------------------------------------------7--8h9p8-8---|
|-0-0000-0-0000--7------------0-0000-0-0000--0------------7-|
|-0-0000-0-0000----5--3--5h6--0-0000-0-0000-----------------|
|-0-0000-0-0000---------------0-0000-0-0000-----------------|
PM- ---- - ----               - ---- - ----  -


|-------------------------------------------------|
|-------------------------------------------------|
|-------------------------------------------------|
|-0-0000-0-0000--7------------000-0--0-0-0000-0-0-|
|-0-0000-0-0000----5--3--5h6--000-0--0-0-0000-0-0-|
|-0-0000-0-0000---------------000-0--0-0-0000-0-0-|
PM- ---- - ----               --- -  - - ---- - -


|------------------------------------------------------------|
|--------------------------------------------------------8---|
|----------------------------------------------7--9h10p9---7-|
|-0-0000-0-0000--7------------0-0000-0-0000--0---------------|
|-0-0000-0-0000----5--3--5h6--0-0000-0-0000------------------|
|-0-0000-0-0000---------------0-0000-0-0000------------------|
PM- ---- - ----               - ---- - ----  -


|------------------------------------------|
|------------------------------------------|
|------------------------------------------|
|-0-0000-0-0000--7------------0000--0-0-0~-|
|-0-0000-0-0000----5--3--5h6--0000--0-0-0~-|
|-0-0000-0-0000---------------0000--0-0-0~-|
PM- ---- - ----               ----  - - 


Chorus
|---------------------------------------------------------|
|---------------------------------------------------------|
|---------------------------------------------------------|
|-------------0-0-0-000-000-------------------------------|
|-8---7-8-10--0-0-0-000-000--8---7-8-5--------3h5p3-------|
|---0---------0-0-0-000-000----0--------0-3-5-------5p3p0-|
PM  -         - - - --- ---    -


|-------------------------------------------------------|
|---------------------------------------------------8---|
|-----------------------------------------7--9h10p9---7-|
|-------------0-0-0-000-000-------------0---------------|
|-8---7-8-10--0-0-0-000-000--8---7-8-5------------------|
|---0---------0-0-0-000-000----0------------------------|
PM  -         - - - --- ---    -        -


|---------------------------------------------------------|
|---------------------------------------------------------|
|---------------------------------------------------------|
|-------------0-0-0-000-000-------------------------------|
|-8---7-8-10--0-0-0-000-000--8---7-8-5--------3h5p3-------|
|---0---------0-0-0-000-000----0--------0-3-5-------5p3p0-|
PM  -         - - - --- ---    -  


|------------------------------------------------|
|------------------------------------------------|
|------------------------------------------------|
|-------------0-0-0-000-000--000-0--0-0-0000-0-0-|
|-8---7-8-10--0-0-0-000-000--000-0--0-0-0000-0-0-|
|---0---------0-0-0-000-000--000-0--0-0-0000-0-0-|
PM  -         - - - --- ---  --- -  - - ---- - -


Bridge 
|-----------------|
|-----------------|
|-10~----9~----7~-|
|-----------------|
|--8~----7~----5~-|
|-----------------|


|------------------------|
|------------------------|
|------------------------|
|-0~---0~---0~---0~------|
|-0~---0~---0~---0~------|
|-0~---0~---0~---0~------|


|-----------------------------------------|
|-----------------------------------------|
|-----------------------------------------|
|-0000-0000-0000-0000-0000-0000-0000-0000-|
|-0000-0000-0000-0000-0000-0000-0000-0000-|
|-0000-0000-0000-0000-0000-0000-0000-0000-|
PM---- ---- ---- ---- ---- ---- ---- ----


|----------------|
|----------------|
|----------------|
|-0000-0--0000-8-|
|-0000-0--0000-8-|
|-0000-0--0000-8-|
PM----    ----


End
|------------|
|------------|
|------------|
|-0000--0000-|
|-0000--0000-|
|-0000--0000-|
PM----  ----
============================================================================
============================================================================
============================================================================
============================================================================

Song: Hoods of Peregrine
Band: Thrice
Album: The Artist In The Ambulance

Tuning (low to high: CGCFAD)


Intro
Gtr.1          Gtrs. 1 and 2
|-------------|---------------------------------------------------------
|-------------|-------8-8-8-6~--------5-5-5-3~--------------------------
|--7~---------|-------7-7-7-7~--------7-7-7-7~--------------------------
|-------------|-------0-----0~--------0-----0~--------------------------
|-------------|-0-0-0-----------0-0-0------------8~----/5-3-------------
|-------------|-0-0-0-----------0-0-0------------8~---------------------
(Volume swell
with feedback)

Verses
Gtr. 1
|----------------------------------------------------------
|----------------------------------------------------------
|----------------------------------------------------------
|--10h12-12-12---------------------------------------------
|--------------10h12-12-12---------------------------------
|--------------------------10h12-12-12-10h12-12-12---------

Gtr. 2
|----------------------------------------------------------
|----------------------------------------------------------
|----------------------------------------------------------
|--10h12~--------------------------------------------------
|--------------10h12~--------------------------------------
|--------------------------10h12~--------------------------

Gtr. 1
|----------------------------------------------------------
|----------------------------------------------------------
|----------------------------------------------------------
|--10h12-12-12---------------------------------------------
|--------------10h12-12-12---------------------------------
|--------------------------10h12-12-12-10h12-12-12---------

Gtr. 2
|----------------------------------------------------------
|----------------------------------------------------------
|----------------------------------------------------------
|----------------------------------------------------------
|--8h10~---------------------------------------------------
|--------------------------3h5~----------------------------

Gtr. 1
|-------------------------------------------------------------------
|-------------------------------------------------------------------
|-------------------------------------------------------------------
|--------------10----------10h12--12-12-----------------------------
|--------10h12----12-10h12--------------10h12-12-12-----------------
|--10h12--------------------------------------------10h12-12-12-----

Gtr. 2
|-------------------------------------------------------------------
|-------------------------------------------------------------------
|----------5-------5h7-7-7------------------------------------------
|------5h7---7-5h7---------5h7-7-7----------------------------------
|--3h5-----------------------------3h5-5-5--------------------------
|-------------------------------------------------------------------

Pre-chorus

Gtr. 1

|--------------------------------------------------------
|--------------------------------------------------------
|----------------10-9--------------------10-9------------
|----------10h12------10-----------10h12------10---------
|----10h12-------------------10h12-----------------------
|-8~----------------------8~-----------------------------

Gtr. 2
|--------------------------------------------------------
|--------------------------------------------------------
|--------------------------------------------------------
|--------------------------------------------------------
|-8~--8-8-8-8-8~--8-8-8-8-8~--8-8-8-8-8~--8-8-8-8--------
|-8~--8-8-8-8-8~--8-8-8-8-8~--8-8-8-8-8~--8-8-8-8--------

Gtrs. 1 and 2
|---------------------------------------------------------
|-------8-8-8-6~--------5-5-5-3~--------------------------
|-------7-7-7-7~--------7-7-7-7~--------------------------
|-------0-----0~--------0-----0~--------------------------
|-0-0-0-----------0-0-0-----------------------------------
|-0-0-0-----------0-0-0-----------------------------------

|--------------------------------------------------------
|--------------------------------------------------------
|----------------10-9--------------------10-9------------
|----------10h12------10-----------10h12------10---------
|----10h12-------------------10h12-----------------------
|-8~----------------------8~-----------------------------

Gtr. 2
|--------------------------------------------------------
|--------------------------------------------------------
|--------------------------------------------------------
|--------------------------------------------------------
|-8~--8-8-8-8-8~--8-8-8-8-8~--8-8-8-8-8~--8-8-8-8--------
|-8~--8-8-8-8-8~--8-8-8-8-8~--8-8-8-8-8~--8-8-8-8--------

Gtrs. 1 and 2
|--------------------------------------------------------
|-------8-8-8-7~--------8-8-8-15-15-15-15----------------
|-------7-7-7-7~--------7-7-7-15-15-15-15----------------
|-------0-----0~--------0--------------------------------
|-0-0-0-----------0-0-0----------------------------------
|-0-0-0-----------0-0-0----------------------------------

Chorus

Gtr. 1
|--------------------------------------------------------
|--------------------------------------------------------
|--------------------------------------------------------
|--------------------------------------------------------
|-1-1-1-1-1-1------1-1-1-1--------6----------------------
|-1-1-1-1-1-1-/7-8-1-1-1-1-/7-8-5------------------------

Gtr. 2
|--------------------------------------------------------
|--------------------------------------------------------
|-------------10h12-12-12--------------------------------
|-10h12-12-12-------------10h12-12-12------10h12-12-12---
|--------------------------------------------------------
|-------------------------------------/7-8---------------

|--------------------------------------------------------
|--------------------------------------------------------
|--10h12-12-12-------------------------------------------
|--------------------------------------------------------
|----------------------6---------------------------------
|---------------/7-8-5-----------------------------------

Gtrs. 1 and 2
|------------------------------------------------------------------
|------------------------------------------------------------------
|------------------------------------------------------------------
|------------------------------------------------------------------
|----------0-12-13---------0-12-13---------0-12-13---------13-12-0-
|--0-13-12---------0-13-12---------0-13-12---------0-12-13---------

Gtr. 1
|------------------------------------------------------------------
|------------------------------------------------------------------
|------------------------------------------------------------------
|------------------------------------------------------------------
|--0---------------0---------------0--------------1-1-1------------
|--0---------------0---------------0--------------1-1-1------------

Gtr.2
|------------------------------------------------------------------
|------------------------------------------------------------------
|------------------------------------------------------------------
|------------------------------------------------------------------
|----------0-12-13---------0-12-13---------0-12-13---------0-12-13-
|--0-13-12---------0-13-12---------0-13-12---------0-13-12---------

After the chorus

Gtrs. 1 and 2
|------------------------------------------------------------------
|------------------------------------------------------------------
|------------------------------------------------------------------
|----7-------7---------7-------7-----------------------------------
|--0-5-0-0-0-5-------0-5-0-0-0-5-----------------------------------
|--0---0-0-0---5-7-8-0---0-0-0---5~-7~-8~--------------------------

Gtr. 1
|--------------------------------------------------------------------------
|--------------------------------------------------------------------------
|--------------------------------------------------------------------------
|--------------------------------------------------------------------------
|--5-5-5-5-5-5-5-5-5-5-5-5-0-0-0-0-0-0-0-0-0-0-0-0-1-1-1-1-1-1-1-1-1-1-1-1-
|--5-5-5-5-5-5-5-5-5-5-5-5-3-3-3-3-3-3-3-3-3-3-3-3-1-1-1-1-1-1-1-1-1-1-1-1-

|--------------------------------------------------------------------------
|--------------------------------------------------------------------------
|--------------------------------------------------------------------------
|--------------------------------------------------------------------------
|--0-0-0-0-0-0-0-0-0-0-0-0-------------------------------------------------
|--3-3-3-3-3-3-3-3-3-3-3-3-------------------------------------------------

Gtr. 2- plays this throughout the outro chorus
|---------------------------------------------
|---------------------------------------------
|---------------------------------------------
|---------------------------------------------
|---------12-13-12----------------------------
|-0-12-13-------------------------------------
============================================================================
============================================================================
============================================================================
============================================================================

Song: Melting Point of Wax
Band: Thrice
Album: The Artist In The Ambulance

| h - hammer on
| p - pull-off
| x - muted note
| / - slide

Intro Guitar 2

D|--4----5--|
A|--6----6--|
F|--7----7--|
C|--4----0--|
G|--4----0--|
C|--4----0--|

Intro Guitar 1

D|--17p14----------------------------|
A|--------14--------15p14------------|
F|-----------14--14-------14---------|
C|---------------------------16--16--|
G|-----------------------------------|
C|-----------------------------------|

---

Verse 1 Guitar 2

D|------------------------------------------------------------|
A|------------------------------------------------------------|
F|------------------------------------------------------------|
C|------7-7----77-----7-7----77------6-6----66-----6-6----66--|
G|------------------------------------------------------------|
C|--444-----44----444-----44-----000-----00----000-----00-----|
    ...     ..    ...     ..     ...     ..    ...     ..

D|------------------------------------------------------------|
A|------------------------------------------------------------|
F|------6-6----66-----6-6----66------4-4----44-----4-4----44--|
C|------------------------------------------------------------|
G|------------------------------------------------------------|
C|--444-----44----444-----44-----000-----00----000-----00-----|
    ...     ..    ...     ..     ...     ..    ...     ..

---

Verse 1 Guitar 1

D|------------------------------|
A|--9-10-9---------9h10p9-------|
F|---------9--------------9-----|
C|-----------11-11----------11--|
G|------------------------------|
C|------------------------------|

---

Pre-Chorus Guitar 2 

D|----------------------------|
A|----------------------------|
F|----------------------------|
C|----------------------------|
G|--0---0--00-0--2---2--22-2--|
C|--0---0--00-0--2---2--22-2--|

---

Chorus (Guitar 2 - Dustin)

D|--4----5----10-----9--|
A|--7----6----12----10--|
F|--6----7----11-----9--|
C|--4----0-----9-----7--|
G|--4----0-----9-----7--|
C|--4----0-----9-----7--|

Verse 2 Riff A - Guitars 1 and 2

D|-------|
A|-------|
F|-------|
C|--(4)--|
G|-------|
C|--(4)--|

---

Verse 2 Riff B - Guitar 2

D|----------------------------|
A|----------------------------|
F|----------------------------|
C|----------------------------|
G|--0---0--00-0--2---2--22-2--|
C|--0---0--00-0--2---2--22-2--|

---

Verse 2 Riff C - Guitar 2

D|--------------|--------------|
A|--------------|--------------|
F|--------------|--------------|
C|-----6--------|-----7--------|
G|--------7--4--|--------6--7--|
C|--4-----------|--0-----------|

---

Verse 2 Riff D - Guitar 1

D|------------------------------|
A|--9-10-9---------9h10p9-------|
F|---------9--------------9-----|
C|-----------11-11----------11--|
G|------------------------------|
C|------------------------------|


Pre-Chorus 2 - Guitar 2

D|---------------------------------|
A|---------------------------------|
F|---------------------------------|
C|---------------------------------|
G|--2----4----0----2----4----0--/--|
C|--2----4----0----2----4----0--/--|


Bridge - Guitar 2

D|---0--|
A|--10--|
F|---9--|
C|---7--|
G|---7--|
C|---7--|

D|--------|
A|--------|
F|--------|
C|--4--0--|
G|--4--0--|  
C|--4--0--|

---

Bridge - Guitar 1

D|--------------------------------------|
A|--------------------------------------|
F|--11-11-11-11---9-9-9-9---9/14-14-14--|
C|---x--x--x--x---x-x-x-x---x--x--x--x--|
G|---9--9--9--9---7-7-7-7---7/12-12-12--|
C|--------------------------------------|

---

D|-----------------------------------|
A|-----------------------------------|
F|--11-9-11----9-11-11-9-11----9-11--|
C|----------11--------------11-------|
G|-----------------------------------|
C|-----------------------------------|

---

Outro - Guitar 2

D|-----|
A|-----|
F|-----|
C|--0--|
G|--0--|
C|--0--|

---

Outro - Guitar 1

D|-----------------------------------|
A|-----------------------------------|
F|--11----9----14----13----14----11--|
C|---x----x-----x-----x-----x-----x--|
G|---9----7----12----11----12-----9--|
C|-----------------------------------|
============================================================================
============================================================================
============================================================================
============================================================================

Song: Blood Clots and Black Holes
Band: Thrice
Album: The Artist In The Ambulance

Intro, pt. 1 (x4)
-------------------------------------------------------------------------------
-------------------------------------------------------------------------------
-------------------------------------------------------------------------------
-------------------------------------------------------------------------------
-----8-0-7-0-7-8-10-0-8-0-7h8p7p0-5-7-----8-0-7-0-7-8-----8-7---8-7------------
-0h7----------------------------------0h7-------------0h7-----6----------------

Intro, pt. 2
-------------------------------------------------------------------------------
-------------------------------------------------------------------------------
-------------------------------------------------------------------------------
-0-000-000-000-000-000-888-0-000-000-000-000-000-101010-0----------------------
-0-000-000-000-000-000-888-0-000-000-000-000-000-101010-0----------------------
-0-000-000-000-000-000-888-0-000-000-000-000-000-101010-0----------------------
   xxx xxx xxx xxx xxx       xxx xxx xxx xxx xxx

-------------------------------------------------------------------------------
-------------------------------------------------------------------------------
-------------------------------------------------------------------------------
-000-000-000-000-000-8-7-8-10-101010-101010-101010-7-7777777-------------------
-000-000-000-000-000-8-7-8-10-101010-101010-101010-7-7777777-------------------
-000-000-000-000-000-8-7-8-10-101010-101010-101010-7-7777777-------------------
 xxx xxx xxx xxx xxx           x x x  x x x  x x x

Verse (x4)
-------------------------------------------------------------------------------
-------------------------------------------------------------------------------
-------------------------------------------------------------------------------
-------------------------------------------------------------------------------
-----8-0-7-0-7-8-10-0-8-0-7h8p7p0-5-7-----8-0-7-0-7-8-----8-7---8-7------------
-7h8----------------------------------7h8-------------7h8-----8----------------

Chorus
-------------------------------------------------------------------------------
-------------------------------------------------------------------------------
-15-9-10-12-10-9-15-9-10-12-10-9-14--------14--------14--------14----14--------
-------------------------------------------------------------------------------
-13-7--8-10--8-7-13-7--8-10--8-7-12-000000-12-000000-12-000000-12-00-12--------
------------------------------------000000----000000----000000----00-----------
                                    xxxxxx    xxxxxx    xxxxxx    xx

-------------------------------------------------------------------------------
-------------------------------------------------------------------------------
-14-9-10-12-10-9-15-9-10-12-10-9-15-9-10-12-10-9-------------------------------
-------------------------------------------------------------------------------
-12-7--8-10--8-7-13-7--8-10--8-7-13-7--8-10--8-7-------------------------------
-------------------------------------------------------------------------------

Bridge, pt. 1 (fill 1)
-------------------------------------------------------------------------------
-------------------------------------------------------------------------------
-------------------------------------------------------------------------------
-------------------------------------------------------------------------------
-----8-----10-----8-----12-----8-----10-0h10-8h10p8\7/8\7----------------------
-007---007----007---007----007---007----------------------8-10-----------------
 xxx   xxx    xxx   xxx    xxx   xxx

Bridge, pt. 2 (x7)
-------------------------------------------------------------------------------
-------------------------------------------------------------------------------
-------------------------------------------------------------------------------
-------------------------------------------------------------------------------
-----8-----10-----8-----12-----------------------------------------------------
-007---007----007---007--------------------------------------------------------
 xxx   xxx    xxx   xxx

Bridge, pt. 3 (fill 2)
-------------------------------------------------------------------------------
-------------------------------------------------------------------------------
-------------------------------------------------------------------------------
-----------------------10h12p10------------------------------------------------
-----8-----10-----8h10---------------------------------------------------------
-007---007----0h7--------------------------------------------------------------
 xxx   xxx

Chorus

Outro, pt. 1 (x2)
-------------------------------------------------------------------------------
-------------------------------------------------------------------------------
-------------------------------------------------------------------------------
-------------------------------------------------------------------------------
-----8-0-7-0-7-8-10-0-8-0-7h8p7p0-5-7-----8-0-7-0-7-8-----8-7------------------
-0h7----------------------------------0h7-------------0h7----------------------

Outro, pt. 2 (x2)
-------------------------------------------------------------------------------
-------------------------------------------------------------------------------
-------------------------------------------------------------------------------
-------------------------------------------------------------------------------
-----8-0-7-0-7-8-10-0-8-0-7h8p7p0-5-7-----8-0-7-0-7-8-----8-7---8-7------------
-0h7----------------------------------0h7-------------0h7-----6----------------

Outro, pt. 3 (x4)                       -slight variation on last part of song-
-------------------------------------------|-----------------------------------
-------------------------------------------|-----------------------------------
-14--------14--------14--------14----14/15-|------14------14/15-14-------------
-------------------------------------------|-----------------------------------
-12-000000-12-000000-12-000000-12-00-12/13-|-0000-12-0000-12/13-12-------------
----000000----000000----000000----00-------|-0000----0000----------------------
    xxxxxx    xxxxxx    xxxxxx    xx         xxxx    xxxx
============================================================================
============================================================================
============================================================================
============================================================================

Song: The Artist In The Ambulance
Band: Thrice
Album: The Artist In The Ambulance

| / - slide up
| \ - slide down
| x - mute string


Tuning: C G C F A D


Intro (palm mute)
|-------------------------------------------------------------|
|-------------------------------------------------------------|
|-------------------------------------------------------------|
|-------------------------------------------------------------|
|-55555555555555-11111111111111-88888888888888-33333333333333-|
|-55555555555555-11111111111111-88888888888888-33333333333333-|


No Palm mute
|-------------------------------------------------------------|
|-------------------------------------------------------------|
|-------------------------------------------------------------|
|-55555555555555-11111111111111-88888888888888-33333333333333-|
|-55555555555555-11111111111111-88888888888888-55555555555555-|
|-55555555555555-11111111111111-88888888888888-33333333333333-|


Lead
|------------------------------------------------------------------------------------------------------|
|----15----------15----15-15----13-15----15-----------15----------15----15--15h16-15h16p15-13h15-11/13-|
|-15----12-15-12----12-------12-------15----14h15--15----12-15-12----12--------------------------------|
|------------------------------------------------------------------------------------------------------|
|------------------------------------------------------------------------------------------------------|
|------------------------------------------------------------------------------------------------------|


|---------13--------------------------------------------------------------------------------------------|
|13h15----------15----15-13h15----13-15p13h15----13--16p15-16p15--13-x-13----15----------13h15----------|
|------15----15----15----------15-------------15--------------------------15----15-14h15-------14h15-15~|
|-------------------------------------------------------------------------------------------------------|
|-------------------------------------------------------------------------------------------------------|
|-------------------------------------------------------------------------------------------------------|


Verse
|---------------------|
|---------------------|
|---------------------|
|---------------------|
|---------------------|
|-5----\1----/8----\3-|


Palm mute
|---------------------------------------------------------------|
|---------------------------------------------------------------|
|---------------------------------------------------------------|
|-5----------------------------------------------33333333333333-|
|-5-55555555555555-11111111111111-88888888888888-55555555555555-|
|-5-55555555555555-11111111111111-88888888888888-33333333333333-|


Chorus
|------------------------------|
|------------------------------|
|------------------------------|
|-1-1--1-1-1-1--1-1-1--1-1-1-1-|
|-1-1--1-1-1-1--1-1-1--1-1-1-1-|
|-1-1--1-1-1-1--1-1-1--1-1-1-1-|
PM- -           - - -
 

Fill
|-----------------------------|
|-----------------------------|
|-----------------------------|
|-----------------------------|
|----------5---------5--------|
|-x-x-5--5---0-/3--3---0--0-0-|



Chorus
|------------------------------|
|------------------------------|
|------------------------------|
|-1-1--1-1-1-1--1-1-1--1-1-1-1-|
|-1-1--1-1-1-1--1-1-1--1-1-1-1-|
|-1-1--1-1-1-1--1-1-1--1-1-1-1-|
PM- -           - - -

|----------------------|
|----------------------|
|----------------------|
|-55555555-33333333-1~-|
|-55555555-33333333-1~-|
|-55555555-33333333-1~-|


Lead
|------------------------------------------------------------------------------------------------------|
|----15----------15----15-15----13-15----15-----------15----------15----15--15h16-15h16p15-13h15-11/13-|
|-15----12-15-12----12-------12-------15----14h15--15----12-15-12----12--------------------------------|
|------------------------------------------------------------------------------------------------------|
|------------------------------------------------------------------------------------------------------|
|------------------------------------------------------------------------------------------------------|


|---------13--------------------------------------------------------------------------------------------|
|13h15----------15----15-13h15----13-15p13h15----13--16p15-16p15--13-x-13----15----------13h15----------|
|------15----15----15----------15-------------15--------------------------15----15-14h15-------14h15-15~|
|-------------------------------------------------------------------------------------------------------|
|-------------------------------------------------------------------------------------------------------|
|-------------------------------------------------------------------------------------------------------|

|-------------------------------------------------------------|
|-------------------------------------------------------------|
|-------------------------------------------------------------|
|-55555555555555-11111111111111-88888888888888-33333333333333-|
|-55555555555555-11111111111111-88888888888888-55555555555555-|
|-55555555555555-11111111111111-88888888888888-33333333333333-|


|-------------------------------|
|-------------------------------|
|-------------------------------|
|-5\---11111111---8\---33333333-|
|-5\---11111111---8\---55555555-|
|-5\---11111111---8\---33333333-|


|-------------------------------------------------------------|
|-------------------------------------------------------------|
|-------------------------------------------------------------|
|-55555555555555-11111111111111-88888888888888-33333333333333-|
|-55555555555555-11111111111111-88888888888888-33333333333333-|
|-55555555555555-11111111111111-88888888888888-33333333333333-|


Lead
|------------------------------------------------------------------------------------------------------|
|----15----------15----15-15----13-15----15-----------15----------15----15--15h16-15h16p15-13h15-11/13-|
|-15----12-15-12----12-------12-------15----14h15--15----12-15-12----12--------------------------------|
|------------------------------------------------------------------------------------------------------|
|------------------------------------------------------------------------------------------------------|
|------------------------------------------------------------------------------------------------------|


|---------13--------------------------------------------------------------------------------------------|
|13h15----------15----15-13h15----13-15p13h15----13--16p15-16p15--13-x-13----15----------13h15----------|
|------15----15----15----------15-------------15--------------------------15----15-14h15-------14h15-15~|
|-------------------------------------------------------------------------------------------------------|
|-------------------------------------------------------------------------------------------------------|
|-------------------------------------------------------------------------------------------------------|


Chorus
|------------------------------|
|------------------------------|
|------------------------------|
|-1-1--1-1-1-1--1-1-1--1-1-1-1-|
|-1-1--1-1-1-1--1-1-1--1-1-1-1-|
|-1-1--1-1-1-1--1-1-1--1-1-1-1-|
PM- -           - - -



Fill
|-----------------------------|
|-----------------------------|
|-----------------------------|
|-----------------------------|
|----------5---------5--------|
|-x-x-5--5---0-/3--3---0--0-0-|


Chorus
|------------------------------|
|------------------------------|
|------------------------------|
|-1-1--1-1-1-1--1-1-1--1-1-1-1-|
|-1-1--1-1-1-1--1-1-1--1-1-1-1-|
|-1-1--1-1-1-1--1-1-1--1-1-1-1-|
PM- -           - - -


|----------------------|
|----------------------|
|----------------------|
|-55555555-33333333-1~-|
|-55555555-33333333-1~-|
|-55555555-33333333-1~-|


|----------------------------|
|----------------------------|
|----------------------------|
|-5-5--5-5-5-5--1-1--1-1-1-1-|
|-5-5--5-5-5-5--1-1--1-1-1-1-|
|-5-5--5-5-5-5--1-1--1-1-1-1-|
PM- -           - -


|-----------------------------|
|-----------------------------|
|-----------------------------|
|-0-0--0-0-0-0--0-0-0--0~--8\-|
|-0-0--0-0-0-0--0-0-0--0~--8\-|
|-0-0--0-0-0-0--0-0-0--0~--8\-|
PM--            - - -

Palm mute
|-------------------------------------------------------------|
|-------------------------------------------------------------|
|-------------------------------------------------------------|
|-------------------------------------------------------------|
|-55555555555555-11111111111111-88888888888888-33333333333333-|
|-55555555555555-11111111111111-88888888888888-33333333333333-|


Lead
|------------------------------------------------------------------------------------------------------|
|----15----------15----15-15----13-15----15-----------15----------15----15--15h16-15h16p15-13h15-11/13-|
|-15----12-15-12----12-------12-------15----14h15--15----12-15-12----12--------------------------------|
|------------------------------------------------------------------------------------------------------|
|------------------------------------------------------------------------------------------------------|
|------------------------------------------------------------------------------------------------------|


|---------13--------------------------------------------------------------------------------------------|
|13h15----------15----15-13h15----13-15p13h15----13--16p15-16p15--13-x-13----15----------13h15----------|
|------15----15----15----------15-------------15--------------------------15----15-14h15-------14h15-15~|
|-------------------------------------------------------------------------------------------------------|
|-------------------------------------------------------------------------------------------------------|
|-------------------------------------------------------------------------------------------------------|

|-------------------------------------------------------------|
|-------------------------------------------------------------|
|-------------------------------------------------------------|
|-55555555555555-11111111111111-88888888888888-33333333333333-|
|-55555555555555-11111111111111-88888888888888-33333333333333-|
|-55555555555555-11111111111111-88888888888888-33333333333333-|


|------------------------------|
|------------------------------|
|------------------------------|
|-1-1--1-1-1-1--1-1-1--1-1-1-1-|
|-1-1--1-1-1-1--1-1-1--1-1-1-1-|
|-1-1--1-1-1-1--1-1-1--1-1-1-1-|
PM- -           - - -



Fill
|-----------------------------|
|-----------------------------|
|-----------------------------|
|-----------------------------|
|----------5---------5--------|
|-x-x-5--5---0-/3--3---0--0-0-|


|------------------------------|
|------------------------------|
|------------------------------|
|-1-1--1-1-1-1--1-1-1--1-1-1-1-|
|-1-1--1-1-1-1--1-1-1--1-1-1-1-|
|-1-1--1-1-1-1--1-1-1--1-1-1-1-|
PM- -           - - -


|----------------------|
|----------------------|
|----------------------|
|-55555555-33333333-1~-|
|-55555555-33333333-1~-|
|-55555555-33333333-1~-|


Ending
|------------------------------|
|------------------------------|
|------------------------------|
|-1-1--1-1-1-1--1-1-1--1-1-1-1-|
|-1-1--1-1-1-1--1-1-1--1-1-1-1-|
|-1-1--1-1-1-1--1-1-1--1-1-1-1-|
PM- -           - - -
============================================================================
============================================================================
============================================================================
============================================================================

Song: The Abolition of Man
Band: Thrice
Album: The Artist In The Ambulance

GUITAR 1'S PARTS:
-----------------
Intro:  (All 2x) "Wake up everyone..."
D|5-5-5-5-5-5-5-5-5-6-5-5-6-5-5-5-5-5-5-5-5-5-5-5-5-6-5-5-6-5-5-5-5-5-5-5-5-5|
A|3-3-3-3-3-3-3-3-3-3-3-3-3-3-3-3-6-6-6-6-6-6-6-6-6-6-6-6-6-6-6-6-x-x-x-x-x-x|
F|----------------------------------------------------------------5-5-5-5-5-5|
C|---------------------------------------------------------------------------|
G|---------------------------------------------------------------------------|
C|---------------------------------------------------------------------------|

D|5-5-5-6-5-5-6-5-5-5-5-5-5-5-5-5-5-5-5-6-5-5-6-5-5-5------------------------|
A|x-x-x-x-x-x-x-x-x-x-x-x-x-x-x-x-x-x-x-x-x-x-x-x-x-x------------------------|
F|5-5-5-5-5-5-5-5-5-5-3-3-3-3-3-3-3-3-3-3-3-3-3-3-3-3------------------------|
C|---------------------------------------------------------------------------|
G|---------------------------------------------------------------------------|
C|---------------------------------------------------------------------------|

Pre Verse:  "We laugh at honor..."
D|---------------------------------------------------------------------------|
A|---------------------------------------------------------------------------|
F|---------------------------------------------------------------------------|
C|0--0--0--0--0--0--0--0-----------------------------------------------------|
G|0--0--0--0--0--0--0--0-----------------------------------------------------|
C|0--0--0--0--0--0--0--0-----------------------------------------------------|

Verse:  "Find knives..."
D|---------------------------------------------------------------------------|
A|---------------------------------------------------------------------------|
F|---------------------------------------------------------------------------|
C|------------------8p7-------------------------------------0h1-1-1-1-1-1-1--|
G|5-----8p7---5---------8p7h8-8-----7h8-----8h10---8---8p7--0h1-1-1-1-1-1-1--|
C|--0-0-----0---0-0-------------0-0-----0-0------0---0------0h1-1-1-1-1-1-1--|
    ...     .   ...             ...     ...      .   .

Verse Cont'd:
D|--------10-10-10-10---------10-10-10-10---------10-10-10-10---------10-10--|
A|--------10-10-10-10---------10-10-10-10---------10-10-10-10---------10-10--|
F|---------7--7--7--7----------7--7--7--7----------7--7--7--7----------7--7--|
C|---------------------------------------------------------------------------|
G|---------------------------------------------------------------------------|
C|0-0-0-0-------------0-0-0-0-------------0-0-0-0-------------0-0-0-0--------|
  .......             .......             .......             .......

Verse Cont'd:
D|-10-10---------------------------------------------------------------------|
A|-10-10---------------------------------------------------------------------|
F|--7--7---------------------------------------------------------------------|
C|---------------------------------------------------------------------------|
G|---------------------------------------------------------------------------|
C|---------------------------------------------------------------------------|

Verse Cont'd:
D|----------------------------------------------------------------------------|
A|----------------------------------------------------------------------------|
F|-----------------------------------------------------------10/12-12-12-12/14|
C|------------------8p7---------------------------------------x--x--x--x--x--x|
G|5-----8p7---5---------8p7h8-8-----7h8-----8h10---10---10p8--8/10-10-10-10/12|
C|--0-0-----0---0-0-------------0-0-----0-0------0----0-----------------------|
    ...     .   ...             ...     ...      .    .

Verse Cont'd:
D|---------------------------------------------------------------------------|
A|----------------------------------------------------15---------------------|
F|14-14-14-14-----14h15p14-14----14----14h15p14-14-------15-14-15-14---------|
C|-x--x--x--x-----------------12----12-------------12------------------------|
G|12-12-12-12----------------------------------------------------------------|
C|---------------------------------------------------------------------------|

Chorus:  "Reason abandoned..."  (2x)  (You figure out strumming)
D|---------------------------------------------------------------------------|
A|---------------------------------------------------------------------------|
F|7>----5>-------------------------------------------------------------------|
C|7>----5>----3>----5>-------------------------------------------------------|
G|5>----3>----3>----5>-------------------------------------------------------|
C|------------3>----5>-------------------------------------------------------|

Repeat Intro

Repeat Pre Verse

Repeat Verse

End of Verse:  (You figure out strumming)
D|---------------------------------------------------------------------------|
A|---------------------------------------------------------------------------|
F|-10--12--14--15--10--12--15--17--10--12--14--12----------------------------|
C|--x---x---x---x---x---x---x---x---x---x---x---x-1--1--1--1--0~-------------|
G|--8--10--12--13---8--10--13--15---8--10--12--10-1--1--1--1--0~-------------|
C|------------------------------------------------1--1--1--1--0~-------------|

Outro:  "The abolition..."  (Repeat a lot)
D|---------------------------------------------------------------------------|
A|-15------------------------------------------------------------------------|
F|-------15----14h15p14-12-14b15b14-12-14-14-11-11b12b11---------------------|
C|----12----12-------------------------------------------12------------------|
G|---------------------------------------------------------------------------|
C|---------------------------------------------------------------------------|

D|---------------------------------------------------------------------------|
A|---------------------------------------------------------------------------|
F|---------------------------------------------------------------------------|
C|-1--1--1--1--1--1--1--1--0~------------------------------------------------|
G|-1--1--1--1--1--1--1--1--0~------------------------------------------------|
C|-1--1--1--1--1--1--1--1--0~------------------------------------------------|

GUITAR 2'S PARTS:
-----------------
Intro:  (Only guitar 1)

Pre Verse:  "We laugh at honor..."
D|---------------------------------------------------------------------------|
A|---------------------------------------------------------------------------|
F|---------------------------------------------------------------------------|
C|0--0--0--0--0--0--0--0-----------------------------------------------------|
G|0--0--0--0--0--0--0--0-----------------------------------------------------|
C|0--0--0--0--0--0--0--0-----------------------------------------------------|

Verse:  "Find knives..."
D|---------------------------------------------------------------------------|
A|---------------------------------------------------------------------------|
F|---------------------------------------------------------------------------|
C|------------------8p7-------7-----5h7-----7h8---7---5h7---0h1-1-1-1-1-1-1--|
G|5-----8p7---5---------8p7h8-------------------------------0h1-1-1-1-1-1-1--|
C|--0-0-----0---0-0-------------0-0-----0-0-----0---0-------0h1-1-1-1-1-1-1--|
    ...     .   ...             ...     ...     .   .

Verse Cont'd:
D|--------10-10-10-10---------10-10-10-10---------10-10-10-10---------10-10--|
A|--------10-10-10-10---------10-10-10-10---------10-10-10-10---------10-10--|
F|---------7--7--7--7----------7--7--7--7----------7--7--7--7----------7--7--|
C|---------------------------------------------------------------------------|
G|---------------------------------------------------------------------------|
C|0-0-0-0-------------0-0-0-0-------------0-0-0-0-------------0-0-0-0--------|
  .......             .......             .......             .......

Verse Cont'd:
D|-10-10---------------------------------------------------------------------|
A|-10-10---------------------------------------------------------------------|
F|--7--7---------------------------------------------------------------------|
C|---------------------------------------------------------------------------|
G|---------------------------------------------------------------------------|
C|---------------------------------------------------------------------------|

Verse Cont'd:
D|---------------------------------------------------------------------------|
A|---------------------------------------------------------------------------|
F|---------------------------------------------------------------------------|
C|------------------8p7-------7-----5h7-----7h8---8---8h7---0h1-1-1-1-1-1-1--|
G|5-----8p7---5---------8p7h8-------------------------------0h1-1-1-1-1-1-1--|
C|--0-0-----0---0-0-------------0-0-----0-0-----0---0-------0h1-1-1-1-1-1-1--|
    ...     .   ...             ...     ...     .   .

Chorus:  (Repeat lots)
D|---------------------------------------------------------------------------|
A|-------------------------------------15------------------------------------|
F|-14h15p14-14----14----14h15p14-14-------15-14-15-14------------------------|
C|-------------12----12-------------12---------------------------------------|
G|---------------------------------------------------------------------------|
C|---------------------------------------------------------------------------|

Repeat Intro

Repeat Pre Verse

Repeat Verse

End of Verse:
D|---------------------------------------------------------------------------|
A|---------------------------------------------------------------------------|
F|---------------------------------------------------------------------------|
C|---1>-----0~---0~---0-0x---------------------------------------------------|
G|---1>-----0~---0~---0-0x---------------------------------------------------|
C|---1>-----0~---0~---0-0x---------------------------------------------------|

Outro:
D|---------------------------------------------------------------------------|
A|---------------------------------------------------------------------------|
F|--------------5>----------------------5>-----------------------------------|
C|--0>----1>----5>----1>----0>----1>----5>---1--1--1--1--1--1--1--1--0~------|
G|--0>----1>----3>----1>----0>----1>----3>---1--1--1--1--1--1--1--1--0~------|
C|--0>----1>----------1>----0>----1>---------1--1--1--1--1--1--1--1--0~------|
============================================================================
============================================================================
============================================================================
============================================================================

Song: Don't Tell an We Won't Ask
Artist: Thrice
Album: The Artist in the Ambulance

 
Intro
D|----------X3-------------|------------------------|
A|-------------------------|------------------------|
F|-----14>-15>-----14>-12>-|----12>-10>-----14>-12>-|
C|-12>---------10>---------|-8>---------10>---------|
G|-12>-12>-13>-10>-12>-10>-|-8>-10>--8>-10>-12>-10>-|
C|-12>---------10>---------|-8>---------10>---------|

Verse x8
D|----------------------------------------|
A|---------------------------/--faster--\-|
F|-0h9h10-0h5h7-0h9h10-0h5h7-0h9h10-0h5h7-|
C|----------------------------------------|
G|----------------------------------------|
C|----------------------------------------|

Bridge 1
D|---------------------|
A|----10--11-----10--8-|
F|-7----------9--------|
C|---------------------|
G|---------------------|
C|---------------------|

Chorus
D|----------------------------|
A|----------------------------|
F|----------------------------|
C|-0>-10>-0>-10>-5>-3>-10>-8>-|
G|-0>-10>-0>-10>-5>-3>-10>-8>-|
C|-0>-10>-0>-10>-5>-3>-10>-8>-|

Verse x8 with a slide at the end of the last "7"

Bridge 2 x2
D|------------------------------|
A|------------------------------|
F|-----10-----9-----10---101010-|
C|-0-7--8-0-7-7-0-7--8-0--8-8-8-|
G|-0-7--8-0-7-7-0-7--8-0--8-8-8-|
C|-0-7----0-7---0-7----0--------|

Bridge 1

Chorus

Intro

End of the intro
D|-----------------|
A|-----------------|
F|---12------14----|
C|-----------------|
G|---10------12----|
C|-8----8-10----10-|

Bridge 3 clean (listen for the palm mutes)
D|-------------------------------------------------------
A|-------5566565-------------5566565-------------5566565-
F|-------------------------------------------------------
C|----777-------77755-----777-------77755-----777--------
G|-555---------------77555---------------77555-----------
C|-------------------------------------------------------

D|----------------------------------------------------
A|--------------5566565-------------5566565-----------
F|----------------------------------------------------
C|-77755-----777-------77755-----777-------77755------
G|------77555---------------77555---------------77555-
C|----------------------------------------------------

D|----------------------------------------------
A|----5566565----------------------5566565------
F|--------------------5h7p5-0-------------------
C|-777-------777-0h5h7----------777-------77755-
G|---------------------------555----------------
C|----------------------------------------------

D|------------------------------|
A|---------5566565--------------|
F|------------------------------|
C|------777-------777555--------|
G|-77555----------------7775555-|
C|------------------------------|

Outro 1
D|--------------|
A|--------------|
F|--------------|
C|-8>-5>-8>-10>-|
G|-8>-5>-8>-10>-|
C|-8>-5>-8>-10>-|

Outro 2 clean
D|----------x3-------------|--------------------------|
A|-------------------------|--------------------------|
F|-------------------------|--------------------------|
C|----15----------14-------|---12---------14-------0~-|
G|-------12/13-------10/12-|------8/10-------10/12-0~-|
C|-12----------10----------|-8---------10----------0~-|

-----------------------------------------------------------

Guitar 2

Intro
D|---------x3------|----------------|
A|-----18>-----17>-|----15>-----17>-|
F|-----------------|----------------|
C|-12>-15>-10>-14>-|-8>-12>-10>-14>-|
G|-12>-----10>-----|-8>-----10>-----|
C|-12>-----10>-----|-8>-----10>-----|

Verse
D|-------------------------------------|
A|-------------------------------------|
F|-------------------------------------|
C|-0-10-8-0-10-8-3-0>-10>-8>-0>-10>-8>-|
G|-0-10-8-0-10-8-3-0>-10>-8>-0>-10>-8>-|
C|-0-10-8-0-10-8-3-0>-10>-8>-0>-10>-8>-|

Bridge 1
D|--------------------|
A|--------------------|
F|-----9--10-----9--7-|
C|------------8-------|
G|-10-----------------|
C|--------------------|

Chorus x4
D|-------------131313------12121212-|
A|-------101010------101010---------|
F|----------------------------------|
C|-121212---------------------------|
G|----------------------------------|
C|----------------------------------|

Chorus 2
D|-------------131313------12121212-
A|-------101010------101010---------
F|-121212---------------------------
C|----------------------------------
G|----------------------------------
C|----------------------------------

D|-------------131313------12121212-
A|-------101010------101010---------
F|-101010---------------------------
C|----------------------------------
G|----------------------------------
C|----------------------------------

D|-------------131313------12121212-
A|-------101010------101010---------
F|----------------------------------
C|-101010---------------------------
G|----------------------------------
C|----------------------------------

D|----------131313------12121212-|
A|----101010------101010---------|
F|-------------------------------|
C|-888---------------------------|
G|-------------------------------|
C|-------------------------------|

Verse

Bridge 2 same as guitar 1

Bridge 1

Chorus

Chorus 2

Intro

End of the intro
D|-----------------|
A|---15------17----|
F|-----------------|
C|---12------14----|
G|-----------------|
C|-8----8-10----10-|

Bridge 3
D|-------------------------------------------------------
A|-------------------------------------------------------
F|-7>-5>-------------------------------------------------
C|-------7>-5>-3>-2>-0>----0>----0>-2>-0>----222-333-555-
G|----------------------3>----3>----------3>-------------
C|-------------------------------------------------------

D|----------|
A|----------|
F|----------|
C|-777-8888-|
G|----------|
C|----------|

Outro 1 x8
D|--------171717-151515-131313-1212------|
A|-151515---------------------------1313-|
F|---------------------------------------|
C|---------------------------------------|
G|---------------------------------------|
C|---------------------------------------|

Outro 2 x8
D|-13--12----0~------------------------|
A|---10--10-10b11r10-------------------|
F|------------------10--10--10b12r10---|
C|--------------------12--12--------12-|
G|-------------------------------------|
C|-------------------------------------|

Last note
D|--0~-|
A|-10~-|
F|-10~-|
C|--0~-|
G|-----|
C|-----|
comments
print report bad tab
10 comments total. Showing first comments.
-1 reply
varialflip0590 wrote on July 9 2004, 12:00 am

Wow

0 reply
Craigm1841 wrote on September 18 2004, 12:00 am

Um... Holy Crap. 1 problem... you have this MASSIVE tab, unlike any ive ever seen before... but you left out the tuning.

0 reply
Ncsk8erdude wrote on December 23 2004, 12:00 am

Where is the lead part for Stare at The Sun? All you have is the rythm.

I want to post or [tab]
guest
You may want to rate the tab now too:
select rating
Please do not post tabs as comments. Select "correction" instead!