Oops, an error
Loading. Please wait.

The Illusion Of Safety Bass Tab

1,353 views 1 this week
1 commentread comment
1 2 3 4 5
excellent!
x 1
add to favorites launch autoscroll
font size
0
reset
Autoscroll
+/-
esc
set tempo
stop
Contributor
WARNING: You are trying to view
                                    content from Ultimate-Guitar.com
                                    in an unauthorized application,
                                    which is prohibited.

                                    Please use an official Ultimate
                                    Guitar Tabs application for iPhone,
                                    iPad or Android to access legitimate
                                    chords, guitar, bass, and drum tabs
                                    from Ultimate-Guitar.com database.

                                    Type "ultimate guitar tabs" in Apple
                                    App Store's or Android Market's
                                    search to find the application.
The Illusion Of Safety (Full Album)
BASS
by edthebassist
As In my version of TAITA, I did not tab all of these songs,
it is simply for your convenience

THANK YOU TO ALL THE ORIGIONAL TABBERS

All songs are in Gb Db Ab Db tuning

(sorry but i could not find a bass tab for #8- a living dance upon dead minds)
--------------------------------------------------
01 Kill me quickly
--------------------------------------------------

00:14
Gb|---------------------------------------------------------------------------| 
Db|---------------------------------------------------------------------------| 
Ab|---------------------------------------------------------------------------| 
Db|-22--22-2-2-22-22--22-2-2-22-22--22-2-2-22-22--22-2-2-22-------------------| 

00:28
Gb|---------------------------------------------------------------------------| 
Db|---------------------------------------------------------------------------| 
Ab|-3333333333333333-5555555555555555------------------------------44-4--4444-| 
Db|------------------------------------22-2--2222--22-2--22-2--222------------| 

Gb|---------------------------------------------------------------------------| 
Db|---------------------------------------------------------------------------| 
Ab|-44-4--44-4--444--55-5--5555--55-5--55-5-555--00-0--0000--00-0--00-0--000--| 
Db|---------------------------------------------------------------------------| 

00:47
Gb|---------------------------------------------------------------------------| 
Db|---------------------------------------------------------------------------| 
Ab|-3333333333333333-5555555555555555---22-2-2--222-2-2-----------------------| 
Db|---------------------------------------------------------------------------| 

Gb|---------------------------------------------------------------------------| 
Db|---------------------------------------------------------------------------| 
Ab|-3333333333333333-5555555555555555---22-2-2--222-2-2-----------------------| 
Db|---------------------------------------------------------------------------| 

Gb|---------------------------------------------------------------------------| 
Db|---------------------------------------------------------------------------| 
Ab|-3333333333333333-5555555555555555-7777777777777777-7777777777777777-------| 
Db|---------------------------------------------------------------------------| 

Gb|---------------------------------------------------------------------------| 
Db|---------------------------------------------------------------------------| 
Ab|-3333333333333333-5555555555555555-7---------------------------------------| 
Db|---------------------------------------------------------------------------|

01:16
Gb|---------------------------------------------------------------------------| 
Db|---------------------------------------------------------------------------| 
Ab|---------------------------------------------------------------------------| 
Db|-22-2--2222--22-2--22-2--222---22-2--2222--22-2--22-2--222--0-----0-0----2-| 

01:37
Gb|-------------------------------12---------------12-------------------------| 
Db|----------------------------------14---------------14----------------------| 
Ab|-------------------------------------14---------------14-------------------| 
Db|----------------------------------------14---------------14----------------| 

Solo (Apparently you need to tap, but it sounds fine without tapping)
Gb|---------------------------------------------------------------------------| 
Db|----------14-17-14----14--------------14-17-14----14---(plAy this 4 times)-| 
Ab|-14-12-14----------14--------14-12-14----------14--------------------------| 
Db|---------------------------------------------------------------------------| 

Gb|---------------------------------------------------------------------------| 
Db|-17-14----16-14----17-14----16-14----17-14---------------------------------| 
Ab|-------14-------14-------14-------14-------14-19---------------------------| 
Db|---------------------------------------------------------------------------| 

Gb|---------------------------------------------------------------------------| 
Db|-17-14----16-14----17-14----19-14----17-14---------------------------------| 
Ab|-------14-------14-------14-------14-------14-19---------------------------| 
Db|---------------------------------------------------------------------------| 

Gb|---------------------------------------------------------------------------| 
Db|-17-14----16-14----17-14----19-14----19-14---------------------------------| 
Ab|-------14-------14-------14-------14-------14-19---------------------------| 
Db|---------------------------------------------------------------------------| 

Gb|---------------------------------------------------------------------------|
Db|---------------------------------------------------------------------------| 
Ab|---------------------------------------------------------------------------| 
Db|-2-2-2-2-2-2-2-2--2-2-2-2-2-2----------------------------------------------| 

02:11 
Gb|---------------------------------------------| 
Db|---------------------------------------------| 
Ab|--------7777----7777--------222-2222---------| 
Db|-14\222-----222-----555-5555-----------------| 

Gb|---------------------------------------------------------------------------| 
Db|---------------------------------------------------------------------------| 
Ab|-----7777----7777--------222-2222---------7777--------7777--------222-2222-| 
Db|-222-----222-----555-5555---------22222222----22222222----555-5555---------| 

Gb|------------------------------------------------| 
Db|------------------------------------------------| 
Ab|-----7777----7777--------222-2h3-2--------------| 
Db|-222-----222-----555-5555----------h5-2---------| 


--------------------------------------------------
02 A Subtle Dagger
--------------------------------------------------
Intro
Gb|-----------------------------------------------|
Db|----------8-------8-5-----------8------8-xxx-5-|
Ab|------5h7-------------------5h7----------------|
Db|-2222--------2222------2222--------222---------|

Gb|----------------------|
Db|----------------------|
Ab|----------------------|
Db|-2222-2222-2222-222---|

verse
Gb|--------------------------------|
Db|--------------------555----77-8-|
Ab|-7>-5-3>-3h5h7-0>---------------|
Db|------------------55----77------|


Gb|--------------------------------|
Db|--------------------555----77-8-|
Ab|-7>-5-3>-3h5h7-0>---------------|
Db|------------------55----77------|

then back to intro,then verse again

1:04
Gb|----------------------|
Db|----------------------|
Ab|-7~-3~-7~-3~-7-7-7~---|
Db|----------------------|

1:20
Gb|-------------------------|
Db|-------------------------|
Ab|-2>-3>-5>-6>-7>-7-777-77-|
Db|-------------------------|

Gb|-----------------------------------|
Db|---------------------55-44-55-7777-|
Ab|-7777-7777-7777-7777---------------|
Db|-----------------------------------|

--------------------------------------------------
03 See You In THe Shallows
--------------------------------------------------

   INTRO
Gb|-------------------------------------------------------------------------------|
Db|-------------------------------------------------------------------------------|
Ab|----------------------------33333333111111333333335555555333333331111113333333-|
Db|-0~~~~~~~~~-0x-------0000000---------------------------------------------------|

   1ST VERSE
Gb|----|----------------------------------------------------------------------|
Db|----|----------------------------------------------------------------------|
Ab|----|-----------------00000000000000001111111111111111---------------------|
Db|-0x-|-0000000000000000-----------------------------------------------------|

   1ST VERSE (Continued)
Gb|---------------------------------------------------------------------------|
Db|-3333333333333333----------------------------------------------------------|
Ab|---------------------------------0000000000000000111111111111111-----------|
Db|-----------------0000000000000000------------------------------------------|
   
   CHORUS
Gb|---------------------------------------------------------------------------|
Db|---------------------------------------------------------------------------|
Ab|----------------1-1-111---------------3-33-333-1-1-100---------------------|
Db|1-1-111-4-4-4444-------3-3-4-3-1-1-111----------------4-4-444--------------|

   CHORUS (CONTINUED)
Gb|---------------------------------------------------------------------------|
Db|---------------------------------------------------------------------------|
Ab|----------------1-1-111----------------3-33-333-0000100--------------------|
Db|-1-1-111-4-4-444-------3-3-4-3-1-1-1111----------------4~------------------|

   2ND VERSE
Gb|---------------------------------------------------------------------------|
Db|---------------------------------------------------------------------------|
Ab|-1-1X-----------------0-0-0-0-0-0-0-0-1-1-1-1-1-1-1-1----------------------|
Db|------0-0-0-0-0-0-0-0------------------------------------------------------|

   2ND VERSE (CONTINUED)
Gb|---------------------------------------------------------------------------|
Db|---------------------------------------------------------------------------|
Ab|-1-1X--13-----------------00000000000000001111111111111111-----------------|
Db|----------0000000000000000-------------------------------------------------|
   
   BRIDGE ( AFTER 2ND VERSE )
Gb|---------------------------------------------------------------------------|
Db|---------------------------------------------------------------------------|
Ab|-3-3-333-3-33-333-5-5-555-1-11-111-3-33-333-3-33-333--5-55-555-1-11-111----|
Db|---------------------------------------------------------------------------|

Gb|----------------------------------------------------------------------------|
Db|----------------------------------------------------------------------------|
Ab|-0-00-000-0-00-000-5-55-555-3-33-333-1-11-111-1-11-111-1-11-11-1-11-111-5X/-|
Db|----------------------------------------------------------------------------|
   
   BRIDGE ( DONT PLAY UNTIL FULL BAND COMES IN )
Gb|---------------------------------------------------------------------------|
Db|---------------------------------------------------------------------------|
Ab|---------------------------------------------------------------------------|
Db|-0~-0~-0-00-0-00-0000-0X---------------------------------------------------|
          ^ PLAY THIS PART REALLY FAST 
   
   ENDING CHORUS
Gb|---------------------------------------------------------------------------|
Db|---------------------------------------------------------------------------|
Ab|-2-2-222-0-00-000----------------2-2-222-0-00-000--------------------------|
Db|-----------------6-6-666-0-00-000----------------7-7-777-6-66-6666---------|

Gb|---------------------------------------------------------------------------|
Db|---------------------------------------------------------------------------|
Ab|-2-2-222-0-00-000-----------------2-2-222-0-0-000--------------------------|
Db|-----------------6-6-666-0-00-0000---------------6-66-66-66666666----------|

Gb|---------------------------------------------------------------------------|
Db|---------------------------------------------------------------------------|
Ab|-2-2-222-0-00-000----------------2-2-222-0-0-000---------------------------|
Db|-----------------6-6-666-0-00-000---------------7-7-777-6-66-666-----------|

Gb|---------------------------------------------------------------------------|
Db|---------------------------------------------------------------------------|
Ab|-2-2-222-0-00-000------------------2-2-22-0-00-0000-4P2-20-----------------|
Db|-----------------6-6-666-0-00-0000------------------------6~---------------|

--------------------------------------------------
04 Betrayal Is A Symptom
--------------------------------------------------


Intro:          x7             x1
Gb|-------------------------|---|
Db|-------------------------|---|
Ab|-------------------------|---|
Db|-5-6-5-0-5-5-5-6-0-5-0-5-|-2-| 

verse:
Gb|------------------------------------------------------------------|
Db|------------------------------------------------------------------|
Ab|----------------------------------------3---3--3-3-3--------------|
Db|-2-xxxxxx---x2--xxxxxx---2-2--xxxxxx---x------------3---3--3-3-3--|

Gb|------------------------------------------------------------------|
Db|------------------------------------------------------------------|
Ab|----------------------------------------3---3--3-3-3--------------|
Db|-2-xxxxxx---x2--xxxxxx---2-2--xxxxxx---x------------5---5--5-5-5--|

Chorus:
Gb|--------------------------------------------------------|
Db|--------------------------------------------------------|
Ab|------5-5-5-5-3>-------------------------3-3-3-3-2>-----|
Db|--2>-------------2-2-2-2-2-2-2-2-4-4-4-4------------2>--|

Gb|--------------------------------|
Db|--------------------------------|
Ab|--5>--2-2-2-2--3>--0-0-0-0--2>--|
Db|--------------------------------|


Interlude:
Gb|-----------------------------------------------------------|
Db|-----------------------------------------------------------| x3
Ab|--7-7*-7*-7-7-7-5-5*-5*-5-5-5-3-3*-3*-3-3-3-5-5*-5*-5-5-5--|
Db|-----------------------------------------------------------|

Gb|-----------------------------------------------------------------|
Db|-----------------------------------------------------------------|
Ab|--7-7*-7*-7-7-7-5-5*-5*-5-5-5-3-3-3-3-3-3-3-3-6-6-6-6-6-6-6-6-6--|
Db|-----------------------------------------------------------------|


Bridge:
Gb|-----------------------------------|
Db|-----------------------------------| x4
Ab|-----------------------------------|
Db|--2-6-5-2-5-2-2-6-2-5-2-2-5-2-5-5--|

Chorus 2:
Gb|--------------------------------------------------------|
Db|--------------------------------------------------------|
Ab|------5-5-5-5-3>-------------------------3-3-3-3-2>-----|
Db|--2>-------------2-2-2-2-2-2-2-2-4-4-4-4------------2>--|

Gb|----------------------------------------|
Db|---------------------------------1-1-1--|
Ab|--5>--2-2-2-2--3>--0-0-0-0--2>>---------|
Db|----------------------------------------|

Then:
Gb|------------------------------------------|
Db|------------------------------------------| x4
Ab|------------------------------------------|
Db|--2-2>--5--5-5-5-5-5-5-5-7-7-7-7-7-7-7-7--|

Bridge:		   x4			 x1
Gb|-----------------------------------|------|
Db|-----------------------------------|------|
Ab|-----------------------------------|------|
Db|--3-6-5-3-5-3-3-6-3-5-3-3-5-3-5-5--|--3>--|

Then:          
Gb|-------------------------------------------------------------------|
Db|-------------------------------------------------------------------| 
Ab|--6-6*--6-6*--6-6*--6-6*--6-6*--6-6*--6-6*--6-6*--6-6-----7-6------|
Db|------------------------------------------------------8-8-----9-6--|

Gb|-------------------------------------------------------------------|
Db|-------------------------------------------------------------------| 
Ab|--6-6*--6-6*--6-6*--6-6*--6-6*--6-6*--6-6*--6-6*--6-6-----7-6------|
Db|------------------------------------------------------8-8-----9-8--|

Outro:
Gb|---------------------------|
Db|---------------------------| Play Till End
Ab|---------------------------|
Db|--3-6-3-6-6-3-3-6-3-6-6-3--|

--------------------------------------------------
05 Deadbolt
--------------------------------------------------

Intro X2
Gb|-------------------|
Db|-------------------| 
Ab|---------1>>--3>>--|
Db|--0>>>-------------|

Verse (When deadbolts awake...)
Gb|-----------------------------------------------------------------|
Db|-------2h3p2----------2h3p2---------2h3p2---------2h3p2----------|
Ab|-------------3p0------------3p0-----------3p0-----------3p0------|  
Db|--8>>>-----------00-------------00------------00-----------------|

Gb|-----------------------------------------------------------------|
Db|-------0h2p0----------0h2p0---------0h2p0---------0h2p0----------|
Ab|-------------3p0------------3p0-----------3p0-----------3p0------|  
Db|--8>>>-----------00-------------00------------00-----------------|

Then
Gb|--------------|
Db|--------------| 
Ab|--------------|
Db|--8>>--5>-7>--|

Gb|-----------------------------------------------------------------|
Db|-0-0-2-0-3-0-0-5-0-3-0-0-2-3-2-0-0-0-2-0-3-0-0-5-0-3-0-0-2-3-2-0-| 
Ab|-----------------------------------------------------------------|
Db|-----------------------------------------------------------------|

Gb|--------------|
Db|--------------| 
Ab|--------------|
Db|--8>>--5>-7>--|

Chorus (I just close my eyes...) X1
Gb|-----------------------------------------|
Db|-----------------------------------------|
Ab|------3-3--------------------------------|
Db|--0-0------3-3--8-8-----5-5--5-5---------|

I know it's nothing...
Gb|------------------|
Db|-------------8-7--|
Ab|-------3/5--------|
Db|--0-0-------------|

Gb|------------------------------|
Db|------------------------------|
Ab|------------------------------|
Db|--3-3--3-3--8-8-----5-5--5-5--|

Gb|-----------------|
Db|-----------------| X2
Ab|------3>>--------|
Db|--0>>-----8>>-5>-|


Bridge
Gb|-----------------------|
Db|-----------------------|
Ab|-----------------------|
Db|--5>>--8>>--5>>>--7>>--|

Interlude1 X4
Gb|-------------------------------------------|
Db|-------------------------------------------|
Ab|-------------------5-5-5--3-3-3------------|
Db|--0-0-0-0-0-0-0--0---------------3-3-3-3---|

Gb|----------------------------------------|
Db|----------------------------------------|
Ab|-------------------8-8-8----------------|
Db|--8-8-8-8-8-8-8--8-------8-8-8--7-7-7-7-|

Outro:             
Gb|-------------------|
Db|-------------------| X2
Ab|-2~----------------|
Db|--------0~-----5~--|

Gb|-------------------------------|
Db|-------------------------------|  X1
Ab|-------------------------------|
Db|-55-5-5-5-5-5-5-5-5-5-5-5-5-5--|

Gb|--------------------|
Db|--------------------| X1
Ab|-2~-----------------|
Db|--------0~-----5~---|

Gb|------------------------------------------------|
Db|------------------------------------------------|  X1
Ab|---2~-------------------------------------------|
Db|----------0~-----2~----1-1-1-1-1-1-1-1-1-1-1-1--|

Extended Ending 
Gb|--------------|
Db|--------------| X4
Ab|-2>-----------|
Db|-----0>--5>>--|

Gb|--------------------------|
Db|--------------------------|  X1
Ab|--------------------------|
Db|-1-1-1-1-1-1-1-1-1-1-1-1--|


--------------------------------------------------
06 In Years To Come
--------------------------------------------------

Intro
Gb :--------------------|----------------|----------------|
Db :--------------------|----------------|----------------|
Ab :--------------------|6-8-8-8-8-9-9-9-|----------------|
Db :1-1-1-1-1-----1---1-|----------------|4-4-4-4-4-4-4-4-|

Gb :----------------|--------------------|----------------|
Db :----------------|--------------------|----------------|
Ab :----------------|--------------------|6-8-8-8-8-9-9-9-|
Db :4-4-4-4-4-4-4-4-|1-1-1-1-1-----1---1-|----------------|

Gb :----------------|----------------|--------------------|
Db :----------------|----------------|--------------------|
Ab :----------------|----------------|--------------------|
Db :4-4-*-4-4-*-4-4-|*-4-4-*-4-4-*-4-|1-1-1-1-1-----1---1-|

Gb :----------------|--------------------|----------------|
Db :----------------|--------------------|----------------|
Ab :6-8-8-8-8-9-9-9-|--------------------|----------------|
Db :----------------|4-4-4-4-4-----4-4-4-|--4-4-4---4-4-4-|

Gb :----------------|----------------|----------------|----------------|
Db :----------------|----------------|----------------|----------------|
Ab :----------------|6-8-8-8-8-9-9-9-|--------0-0-0-0-|----------------|
Db :1---------------|----------------|4-4-4-4---------|*---------------|


Verse
Gb :----------------|----------------|----------------|----------------|
Db :----------------|----------------|----------------|----------------|
Ab :----------------|----------------|6-6-6-6-6-6-6-6-|6-6-6-6-6-6-6-6-|
Db :4-4-4-4-4-4-4-4-|4-4-4-4-4-4-4-4-|----------------|----------------|

Gb :----------------|----------------|----------------|----------------|
Db :----------------|----------------|----------------|----------------|
Ab :----------------|----------------|2-2-2-2-2-2-2-2-|2-2-2-2-2-2-2-2-|
Db :4-4-4-4-4-4-4-4-|4-4-4-4-4-4-4-4-|----------------|----------------|

Gb :----------------|----------------|----------------|----------------|
Db :----------------|----------------|----------------|----------------|
Ab :6-6-6-6-6-6-6-6-|6-6-6-6-6-6-6-6-|4-4-4-4-4-4-4-4-|4-4-4-4-4-4-4-4-|
Db :----------------|----------------|----------------|----------------|

Gb :----------------|----------------|----------------|----------------|
Db :----------------|----------------|----------------|----------------|
Ab :----------------|----------------|6-6-6-6-6-6-6-6-|6-6-6-6-6-6-6-6-|
Db :4-4-4-4-4-4-4-4-|4-4-4-4-4-4-4-4-|----------------|----------------|

Gb :----------------|----------------|----------------|----------------|
Db :----------------|----------------|----------------|----------------|
Ab :----------------|----------------|2-2-2-2-2-2-2-2-|2-2-2-2-2-2-2-2-|
Db :4-4-4-4-4-4-4-4-|4-4-4-4-4-4-4-4-|----------------|----------------|

Gb :----------------|----------------|----------------|----------------|
Db :----------------|----------------|----------------|----------------|
Ab :6-6-6-6-6-6-6-6-|6-6-6-6-6-6-6-6-|4-4-4-4-4-4-4-4-|4-4-4-4-4-4-4-4-|
Db :----------------|----------------|----------------|----------------|

Gb :----------------|----------------|----------------|----------------|
Db :----------------|----------------|----------------|----------------|
Ab :2-2-2-2-2-2-2-2-|2-2-2-2-2-2-2-2-|1---------------|----------------|
Db :----------------|----------------|----------------|----------------|


Verse 2
Gb :------------------------|------------------------|
Db :----------------7-6-6-7-|----------------7-6-6-7-|
Ab :------------------------|------------------------|
Db :4-4-4-4-4-4-4-4---------|4-4-4-4-4-4-4-4---------|

Gb :------------------------|------------------------|
Db :----------------7-6-6-7-|----------------7-6-6-7-|
Ab :------------------------|------------------------|
Db :0-0-0-0-0-0-0-0---------|0-0-0-0-0-0-0-0---------|

Gb :------------------------|------------------------|
Db :----------------7-6-6-7-|----------------7-6-6-7-|
Ab :------------------------|------------------------|
Db :4-4-4-4-4-4-4-4---------|4-4-4-4-4-4-4-4---------|

Gb :------------------------|------------------------|
Db :----------------7-6-6-7-|----------------7-6-6-7-|
Ab :------------------------|------------------------|
Db :0-0-0-0-0-0-0-0---------|0-0-0-0-0-0-0-0---------|


Breakdown
Gb :----------------|----------------|----------------|----------------|
Db :----------------|----------------|----------------|----------------|
Ab :----------------|----------------|----------------|----------------|
Db :4---------------|----------------|4---------------|----------------|

Gb :----------------|----------------|----------------|----------------|
Db :----------------|----------------|----------------|----------------|
Ab :----------------|----------------|----------------|----------------|
Db :4---------------|----------------|5---------------|----------------|

Gb :----------------|----------------|----------------|----------------|
Db :----------------|----------------|----------------|----------------|
Ab :----------------|----------------|----------------|----------------|
Db :4-4-4-4-4-4-4-4-|4-4-4-4-4-4-4-4-|0-0-0-0-0-0-0-0-|0-0-0-0-0-0-0-0-|

Gb :----------------|----------------|----------------|----------------|
Db :----------------|----------------|----------------|----------------|
Ab :----------------|----------------|5-5-5-5-5-5-5-5-|7-7-7-7-7-*-----|
Db :4-4-4-4-4-4-4-4-|4-4-4-4-4-4-4-4-|----------------|----------------|


Verse2 again
Gb :------------------------|------------------------|
Db :----------------7-6-6-7-|----------------7-6-6-7-|
Ab :------------------------|------------------------|
Db :4-4-4-4-4-4-4-4---------|4-4-4-4-4-4-4-4---------|

Gb :------------------------|------------------------|
Db :----------------7-6-6-7-|----------------7-6-6-7-|
Ab :------------------------|------------------------|
Db :0-0-0-0-0-0-0-0---------|0-0-0-0-0-0-0-0---------|

Gb :------------------------|------------------------|
Db :----------------7-6-6-7-|----------------7-6-6-7-|
Ab :------------------------|------------------------|
Db :4-4-4-4-4-4-4-4---------|4-4-4-4-4-4-4-4---------|

Gb :------------------------|------------------------|
Db :----------------7-6-6-7-|----------------7-6-6-7-|
Ab :------------------------|------------------------|
Db :0-0-0-0-0-0-0-0---------|0-0-0-0-0-0-0-0---------|


Chorus
Gb :----------------|----------------|----------------|----------------|
Db :--------7-6-6-7-|--------7-6-6-7-|--------7-6-6-7-|--------7-6-6-7-|
Ab :----------------|----------------|----------------|----------------|
Db :7---------------|7---------------|0---------------|0---------------|

Gb :----------------|----------------|----------------|----------------|
Db :--------7-6-6-7-|--------7-6-6-7-|--------7-6-6-7-|--------7-6-6-7-|
Ab :----------------|----------------|----------------|----------------|
Db :7---------------|7---------------|0---------------|0---------------|

rest

Outro
Gb :----------------|----------------|----------------|----------------|
Db :----------------|----------------|----------------|----------------|
Ab :----------------|----------------|----------------|----------------|
Db :4---4---4-4-4-2-|--2-2---2-2-2-0-|--0-0---0-0-0---|7-9-9-9-9-7-7-7-|

Gb :----------------|----------------|----------------|----------------|
Db :----------------|----------------|----------------|----------------|
Ab :----------------|----------------|----------------|----------------|
Db :4---4---4-4-4-2-|--2-2---2-2-2-0-|0-0-*-0-0-*-0-0-|*-0-0-*-0-*-0---|

Gb :----------------|----------------|----------------|----------------|
Db :----------------|----------------|----------------|----------------|
Ab :----------------|----------------|----------------|----------------|
Db :4---4---4-4-4-2-|--2-2---2-2-2-0-|--0-0---0-0-0---|7-9-9-9-9-7-7-7-|

Gb :----------------|----------------|----------------|
Db :----------------|----------------|----------------|
Ab :----------------|----------------|----------------|
Db :4---4---4-4-4-2-|--2-2---2-2-2-0-|0-0-*-0-0-*-0-0-|

Gb :*---------------|
Db :*---------------|
Ab :*---------------|
Db :*---------------|

--------------------------------------------------
07 The Red Death
--------------------------------------------------

h - hammer 
p - pull off 

Gb|---------------------------------------------------------------------------| 
Db|---------------------------------------------------------------------------| 
Ab|-00--00--00-00--00--00-33--33--33-33--33--33-------------------------------| 
Db|---------------------------------------------------------------------------| 

Gb|---------------------------------------------------------------------------| 
Db|---------------------------------------------------------------------------| 
Ab|-55--55--55-55--55--55-00--00--00-00--00-----------------------------------| 
Db|---------------------------------------------------------------------------| 

Gb|---------------------------------------------------------------------------| 
Db|---------------------------------------------------------------------------| 
Ab|-0-0-000-0-00-0000--3-3-333-3-33-3333--5-5-555-6-66-6666--0-0-000-0-00-0000| 
Db|---------------------------------------------------------------------------| 

Gb|---------------------------------------------------------------------------| 
Db|---------------------------------------------------------------------------| 
Ab|-0-0-000-0-00-0000--3-3-333-3-33-3333--5-5-555-6-66-6666--0-0-000-0-00-0000| 
Db|---------------------------------------------------------------------------| 

Gb|---------------------------------------------------------------------------| 
Db|---------------------------------------------------------------------------| 
Ab|---------------------------------------------------------------------------| 
Db|-5555555555555555-3333333333333333-1111111111111111-3333333333333333-------| 

Gb|---------------------------------------------------------------------------| 
Db|---------------------------------------------------------------------------| 
Ab|---------------------------------------------------------------------------| 
Db|-5555555555555555-3333333333333333-1111111111111111-3333333333333333-------| 

Gb|---------------------------------------------------------------------------| 
Db|-----------000--333333--------------000--333322----------------------------| 
Ab|-000000-------------------000000-------------------------------------------| 
Db|---------------------------------------------------------------------------| 

Gb|---------------------------------------------------------------------------| 
Db|-----------000--333333----22222222--2h3-2p0-2h3-2--------------------------| 
Ab|-000000-------------------------------------------h3-----------------------| 
Db|---------------------------------------------------------------------------| 

Gb|---------------------------------------------------------------------------| 
Db|-----------------------------------3-2-0-2---------------------------------| 
Ab|-----5-3-2-3------3---5-------------------------3---5----------------------| 
Db|-5-3------------5---3---5-----5--3------------5---3---5--------------------| 

Gb|---------------------------------------------------------------------------| 
Db|-----------------------------------3-2-3-5---------------------------------| 
Ab|-----5-3-2-3------3---5-------------------------3---5----------------------| 
Db|-5-3------------5---3---5-----5--3------------5---3---5--------------------| 

Gb|---------------------------------------------------------------------------| 
Db|---------------------------------------------------------------------------| 
Ab|---------------------------------------------------------------------------| 
Db|-1-1-111-1-11-1111-0-0-000--3-3--3--33-------------------------------------| 

Gb|-(Guitar Solo)-------------------------------------------------------------| 
Db|---------------------------------------------------------------------------| 
Ab|-0-0-000-7-77-7777-8-8-888-8-88-8888---------------------------------------| 
Db|-------------------------------------5-5-555-3-33-3333-1-1-111-1-11-1111---| 

Gb|---------------------------------------------------------------------------| 
Db|-2-2-222-3-33-3333-0-0-000-0-00-0000---------------------------------------| 
Ab|-------------------------------------0-0-000-7-77-7777-8-8-888-8-88-8888---| 
Db|---------------------------------------------------------------------------| 

Gb|---------------------------------------------------------------------------| 
Db|---------------------------------------------------------------------------| 
Ab|-0000-22-2h3---00-22-2h3---00-22-2h3---00-22-2h3---00-22-2h3p0-------------| 
Db|---------------------------------------------------------------------------| 

Gb|---------------------------------------------------------------------------| 
Db|-(guitar comes in)---------------------------------------------------------| 
Ab|-0000-22-2h3---00-22-2h3---00-22-2h3---00-22-2h3---00-22-2h3p0-------------| 
Db|---------------------------------------------------------------------------| 

Gb|---------------------------------------------------------------------------| 
Db|-(other guitar comes in)---------------------------------------------------| 
Ab|-0000-22-2h3---00-22-2h3---00-22-2h3---00-22-2h3---00-22-2h3p0-------------| 
Db|---------------------------------------------------------------------------| 

Gb|---------------------------------------------------------------------------| 
Db|---------------------------------------------------------------------------| 
Ab|-0000-22-2h3---00-22-2h3---00-22-2h3---00-22-2h3---00-22-2h3p0-------------| 
Db|---------------------------------------------------------------------------| 

Gb|---------------------------------------------------------------------------| 
Db|---------------------------------------------------------------------------| 
Ab|-0---0---0---0---0---0---0-0-----------------------------------------------| 
Db|---------------------------------------------------------------------------| 

Gb|---------------------------------------------------------------------------| 
Db|--------000-333333--------000-333322--------000-333333----------000-333322-| 
Ab|-000000------------000000------------000000------------000000--------------| 
Db|---------------------------------------------------------------------------| 

Gb|---------------------------------------------------------------------------| 
Db|---------000-333333------------000-333322----------------------------------| 
Ab|-000-333---------------000-333---------------------------------------------| 
Db|---------------------------------------------------------------------------| 

Gb|---------------------------------------------------------------------------| 
Db|---------000-333333----22222222--2h3-2p0-2h3-2-----------------------------| 
Ab|-000-333---------------------------------------h3-0----------End-----------| 
Db|---------------------------------------------------------------------------| 

--------------------------------------------------
09 Where Idols Once Stood
--------------------------------------------------

Intro
Gb :---
Db :---
Ab :---
Db :2-- <--hit that note a lot

Verse (x4)
Gb :----------------|----------------|--------------------|
Db :----4-----2-----|0-----5-----4---|--------------------|
Ab :--2-----3-----2-|----3-----2---2-|--------------------|
Db :2-----2-----2---|--2-----2-------|2-2-2-2-2-2-2-2-2-2-|

Breakdown
Gb :----------------------------------------------------
Db :----------------------------------------------------
Ab :------2~-----3~----2~----------2~----3~-------------
Db :2~-----------------------2~----------------12/4~----

Verse again with...
Verse variation
Gb :----------------|----------------|
Db :----------------|----------------|
Ab :----------------|----------------|
Db :2---*---2---*---|2---*---2---*---|
End on Db: 2

Then
Gb :---
Db :---
Ab :---
Db :2-- <--hit that note a lot

Breakdown
Gb :-------------------------------------------------------
Db :-------------------------------------------------------
Ab :----2-2-2-2-2-3-2----2-2-2-2-2-3-2-3--3-3-*-3-3-3-*-3--
Db :2->----------------------------------------------------

Gb :-----------------------------------------------------
Db :-----------------------------------------------------
Ab :3-3-*-3-3-3-*-3----------3~----3- 3-*----------------
Db :----------------2~----4----------------2~~-----2-2-*-

Verse3
Gb :----------------------------------------
Db :----------------------------------------
Ab :-----3>--------3>-------3>---2>---3>-5>-
Db :2>--------2>--------2>------------------

Breakdown
Gb :----------------|----------------|----------------|
Db :----------------|----------------|----------------|
Ab :--2-2-2-2-3-3---|2-2-2-2-2-3-3-3-|--2-2-2-2-3-3---|
Db :2-------------2-|----------------|2-------------2-|

Gb :----------------|----------------|----------------|----------------|
Db :----------------|----------------|----------------|----------------|
Ab :2-2-2-2-2-3-3-3-|--2-2-2-2-3-3---|2-2-2-2-2-3-3-3-|--2-2-2-2-3-3---|
Db :----------------|2-------------2-|----------------|2-------------2-|

Verse4 + Outro
Gb :----------------|----------------|----------------|----------------|
Db :----------------|----------------|----------------|----------------|
Ab :2-2-2-2-2-3-3-3-|2-3-3-3-3-2-2---|----------------|3-5-5-5-5-3-3---|
Db :----------------|--------------2-|----------------|--------------2-|

Gb :----------------|----------------|----------------|----------------|
Db :----------------|----------------|----------------|----------------|
Ab :----------------|2-3-3-3-3-2-2---|----------------|2-3-3-3-3-3-3-3-|
Db :----------------|--------------2-|----------------|----------------|

Gb :----------------|----------------|----------------|----------------|
Db :----------------|2-2-2-2-2-2-2-2-|2-2-2-2-2-2-2-2-|----------------|
Ab :3-5-5-5-5-5-5-5-|----------------|----------------|2-2-2-2-2-2-2-2-|
Db :----------------|----------------|----------------|----------------|

Gb :----------------|----------------|----------------|----------------|
Db :----------------|----------------|----------------|----------------|
Ab :2-2-2-2-2-2-2-2-|0-0-0-0-0-0-0-0-|0-0-0-0-0-0-0-0-|3-3-3-3-3-3-3-3-|
Db :----------------|----------------|----------------|----------------|

Gb :----------------|----------------|----------------|----------------|
Db :----------------|2-2-2-2-2-2-2-2-|2-2-2-2-2-2-2-2-|----------------|
Ab :3-3-3-3-3-3-3-3-|----------------|----------------|2-2-2-2-2-2-2-2-|
Db :----------------|----------------|----------------|----------------|

Gb :----------------|----------------|----------------|----------------|
Db :----------------|----------------|----------------|----------------|
Ab :2-2-2-2-2-2-2-2-|0-0-0-0-0-0-0-0-|0-0-0-0-0-0-0-0-|3-3-3-3-3-3-3-3-|
Db :----------------|----------------|----------------|----------------|

Gb :----------------|
Db :----------------|
Ab :3-3-3-3-3-3-3-3-|
Db :----------------|

Gb :4~--------------4~--------------4~--
Db :5~------2~------5~------2~------5~--
Ab :3~------2~------3~------2~------3~--
Db :--------2~--------------2~----------

--------------------------------------------------
10 Trust
--------------------------------------------------

Intro
Gb-------------------------------------
Db-------------------------------------
Ab-------------------------------------
Db-6*-6*-6*-6s2(24x)-6p-6p-6p-6*-s2(48x)

Verse-(2x)                             |----(add on second verse)
Gb-------------------------------------|-------------------------------------
Db----8----8--8-----8---------4-44s6-4-|s13-13-13-13s15-15-15-15
Ab----------8--8-8---8-----------------|-------------------------------------
Db-6-----6------6--------2-------------|-------------------------------------

Chorus-(2x)
Gb-------------------------------------
Db------88------888------88------888---
Ab-------------------------------------
Db-66666---66666----66666---66666------2(24x)

Bridge--(1x)----(--">"=-about-24-times)
Gb-------------------------------------
Db-------------------------------------
Ab-4>----------------------------------
Db---------6>------2>------6>----------

Outro-(3x)-("11"-is-eleven,-not-one-one)
Gb-------------------------------------
Db-------------------------------------
Ab-------------------------------------
Db-444s11-11-11s444s999s444s888s444s666  (finish-song-on-4)


--------------------------------------------------
11 To Awake And Avenge The Dead
--------------------------------------------------

Gb :----------------|----------------|----------------|----------------|
Db :----------------|----------------|----------------|----------------|
Ab :----------------|----------------|----------------|----------------|
Db :0---------------|----------------|----------------|----------------|

Gb :----------------|----------------|----------------|----------------|
Db :----------------|----------------|----------------|----------------|
Ab :----------------|----------------|3---------------|----------------|
Db :3---------------|----------------|----------------|----------------|

Gb :----------------|----------------|----------------|----------------|
Db :----------------|----------------|----------------|----------------|
Ab :1-1-1-1-1-1-1-1-|1-1-1-1-1-1-1-1-|----------------|----------------|
Db :----------------|----------------|5-5-5-5-5-5-5-5-|5-5-5-5-5-5-5-5-|

Gb :----------------|----------------|----------------|----------------|
Db :----------------|----------------|----------------|----------------|
Ab :----------------|----------------|----------------|----------------|
Db :0-0-0-0-0-0-0-0-|0-0-0-0-0-0-0-0-|0-0-0-0-0-0-0-0-|3-3-3-3-3-3-3-3-|

Gb :----------------|----------------|----------------|----------------|
Db :----------------|----------------|----------------|----------------|
Ab :1-1-1-1-1-1-1-1-|1-1-1-1-1-1-1-1-|----------------|----------------|
Db :----------------|----------------|5-5-5-5-5-5-5-5-|5-5-5-5-5-5-5-5-|

Gb :----------------|----------------|----------------|----------------|
Db :----------------|----------------|----------------|----------------|
Ab :----------------|----------------|0-0-0-0-0-0-0-0-|0-0-0-0-0-0-0-0-|
Db :3-3-3-3-3-3-3-3-|3-3-3-3-3-3-3-3-|----------------|----------------|

Gb :----------------|----------------|----------------|----------------|
Db :----------------|----------------|----------------|----------------|
Ab :1-1-1-1-1-1-1-1-|1-1-1-1-1-1-1-1-|1-1-1-1-1-1-1-1-|1-1-1-1-1-1-1-1-|
Db :----------------|----------------|----------------|----------------|

Gb :----------------|----------------|----------------|----------------|
Db :----------------|----------------|----------------|----------------|
Ab :5-5-5-5-5-5-5-5-|5-5-5-5-5-5-5-5-|5-5-5-5-5-5-5-5-|5-5-5-5-5-5-5-5-|
Db :----------------|----------------|----------------|----------------|

Gb :----------------|----------------|----------------|----------------|
Db :----------------|----------------|----------------|----------------|
Ab :1-1-1-1-1-1-1-1-|1-1-1-1-1-1-1-1-|1-1-1-1-1-1-1-1-|1-1-1-1-1-1-1-1-|
Db :----------------|----------------|----------------|----------------|

Gb :----------------|----------------|----------------|----------------|
Db :----------------|----------------|----------------|----------------|
Ab :5-5-5-5-5-5-5-5-|5-5-5-5-5-5-5-5-|5-5-5-5-5-5-5-5-|5-5-5-5-5-5-5-5-|
Db :----------------|----------------|----------------|----------------|

Gb :----------------|----------------|----------------------|
Db :----------------|----------------|----------------------|
Ab :----------------|----------------|----------------------|
Db :0---*-----------|----------------|0-0-0-0-0-0-0-0-0-0-0-|

Gb :------------------|----------------------|------------------|
Db :------------------|----------------------|------------------|
Ab :------------------|----------------------|------------------|
Db :0-0-0-0-0-7-8-7-10|0-0-0-0-0-0-0-0-0-0-0-|0-0-0-0-0-*-------|

Gb :----------------------|------------------|----------------------|
Db :----------------------|------------------|----------------------|
Ab :----------------------|------------------|----------------------|
Db :0-0-0-0-0-0-0-0-0-0-0-|0-0-0-0-0-7-8-7-10|0-0-0-0-0-0-0-0-0-0-0-|

Gb :------------------|----------------------|------------------|
Db :------------------|----------------------|------------------|
Ab :------------------|----------------------|------------------|
Db :0-0-0-0-0-*-------|0-0-0-0-0-0-0-0-0-0-0-|0-0-0-0-0-7-8-7-10|

Gb :----------------------|------------------|----------------------|
Db :----------------------|------------------|----------------------|
Ab :----------------------|------------------|----------------------|
Db :0-0-0-0-0-0-0-0-0-0-0-|0-0-0-0-0-*-------|0-0-0-0-0-0-0-0-0-0-0-|

Gb :------------------|----------------|----------------|
Db :------------------|----------------|----------------|
Ab :------------------|1---1-1-1-1-1---|----------------|
Db :0-0-0-0-0-7-8-7-10|--------------5-|--5-5-5-5-5-5-5-|

Gb :----------------|----------------|----------------|----------------|
Db :----------------|----------------|----------------|----------------|
Ab :5---5-5-5-5-5-5-|5-5-5-5-5-5-5-5-|1---1-1-1-1-1---|----------------|
Db :----------------|----------------|--------------5-|--5-5-5-5-5-5-5-|

Gb :----------------|----------------|----------------|----------------|
Db :----------------|----------------|----------------|----------------|
Ab :----------------|----------------|1---1-1-1-1-1---|----------------|
Db :0---0-0-0-0-0-0-|0-0-0-0-0-0-0-0-|--------------5-|--5-5-5-5-5-5-5-|

Gb :----------------|----------------|----------------|----------------|
Db :----------------|----------------|----------------|----------------|
Ab :5---5-5-5-5-5-5-|5-5-5-5-5-5-5-5-|1---1-1-1-1-1---|----------------|
Db :----------------|----------------|--------------5-|--5-5-5-5-5-5-5-|

Gb :----------------|----------------|----------------|----------------|
Db :----------------|----------------|----------------|----------------|
Ab :0---0-0-0-0-0-0-|--0-0-0-0-0-0-0-|1-1-1-1-1-1-1-1-|1-1-1-1-1-1-1-1-|
Db :----------------|----------------|----------------|----------------|

Gb :----------------|----------------|----------------|----------------|
Db :----------------|----------------|----------------|----------------|
Ab :1-1-1-1-1-1-1-1-|1-1-1-1-1-1-1-1-|5-5-5-5-5-5-5-5-|5-5-5-5-5-5-5-5-|
Db :----------------|----------------|----------------|----------------|

Gb :----------------|----------------|----------------|----------------|
Db :----------------|----------------|----------------|----------------|
Ab :5-5-5-5-5-5-5-5-|5-5-5-5-5-5-5-5-|1-1-1-1-1-1-1-1-|1-1-1-1-1-1-1-1-|
Db :----------------|----------------|----------------|----------------|



Gb :----------------|----------------|----------------|----------------|
Db :----------------|----------------|----------------|----------------|
Ab :1-1-1-1-1-1-1-1-|1-1-1-1-1-1-1-1-|5-5-5-5-5-5-5-5-|5-5-5-5-5-5-5-5-|
Db :----------------|----------------|----------------|----------------|

Gb :----------------|----------------|----------------|----------------|
Db :----------------|----------------|----------------|----------------|
Ab :5-5-5-5-5-5-5-5-|5-5-5-5-5-5-5-5-|----------------|----------------|
Db :----------------|----------------|8-8-8-8-8-8-8-8-|8-8-8-8-8-8-8-8-|

Gb :----------------|----------------|----------------|----------------|
Db :----------------|----------------|----------------|----------------|
Ab :----------------|----------------|----------------|----------------|
Db :8-8-8-8-8-8-8-8-|8-8-8-8-8-8-8-8-|0-0-0-0-0-0-0-0-|0-0-0-0-0-0-0-0-|

Gb :----------------|----------------|----------------|----------------|
Db :----------------|----------------|----------------|----------------|
Ab :----------------|----------------|----------------|----------------|
Db :0-0-0-0-0-0-0-0-|0-0-0-0-0-0-0-0-|8-8-8-8-8-8-8-8-|8-8-8-8-8-8-8-8-|

Gb :----------------|----------------|------------------------|
Db :----------------|----------------|------------------------|
Ab :----------------|----------------|------------------------|
Db :8-8-8-8-8-8-8-8-|8-8-8-8-8-8-8-8-|10-10-10-10-10-10-10-10-|

Gb :------------------------|------------------------|
Db :------------------------|------------------------|
Ab :------------------------|------------------------|
Db :10-10-10-10-10-10-10-10-|10-10-10-10-10-10-10-10-|

Gb :-----------------------|----------------|----------------|
Db :-----------------------|----------------|----------------|
Ab :-----------------------|--------5p3-*-3-|1-*-1-*-1p0-*---|
Db :10-10-10-10-10-10-10-0-|--0-3h5---------|--------------0-|

Gb :----------------|----------------|----------------|----------------|
Db :----------------|----------------|----------------|----------------|
Ab :--------5p3-*-3-|1-*-1-*-1p0-----|--------5p3-*-3-|1-*-1-*-1p0-*---|
Db :--0-3h5---------|------------5p0-|--0-3h5---------|--------------0-|

Gb :----------------|----------------|----------------|----------------|
Db :----------------|----------------|----------------|----------------|
Ab :--------5p3-*-3-|1-*-1-*---------|--------5p3-*-3-|1-*-1-*-1p0-*---|
Db :--0-3h5---------|--------3h5p3-0-|--0-3h5---------|--------------0-|

Gb :----------------|----------------|----------------|----------------|
Db :----------------|----------------|----------------|----------------|
Ab :--------5p3-*-3-|1-*-1-*-1p0-----|--------5p3-*-3-|1-*-1-*-1p0-*---|
Db :--0-3h5---------|------------5p0-|--0-3h5---------|--------------0-|

Gb :----------------|----------------|----------------|----------------|
Db :----------------|----------------|----------------|----------------|
Ab :--------5p3-*-3-|1-*-1-*---------|----------------|----------------|
Db :--0-3h5---------|--------5--3-2-*|0---------------|----------------|



Gb :----------------|----------------|----------------|----------------|
Db :----------------|----------------|----------------|----------------|
Ab :----------------|----------------|----------------|----------------|
Db :----------------|----------------|----------------|----------------|

Gb :----------------|----------------|----------------|----------------|
Db :----------------|----------------|----------------|----------------|
Ab :----------------|----------------|----------------|----------------|
Db :----------------|----------------|----------------|----------------|

Gb :----------------|----------------|----------------|----------------|
Db :----------------|----------------|----------------|----------------|
Ab :----------------|----------------|----------------|1---------------|
Db :----------------|----------------|----------------|----------------|

Gb :----------------|----------------|----------------|----------------|
Db :----------------|----------------|----------------|----------------|
Ab :----------------|----------------|----------------|3---------------|
Db :----------------|----------------|----------------|----------------|

Gb :----------------|----------------|----------------|----------------|
Db :----------------|----------------|----------------|----------------|
Ab :----------------|----------------|----------------|----------------|
Db :----------------|----------------|----------------|0-0-0-0-0-0-0---|

Gb :----------------|----------------|----------------|----------------|
Db :----------------|----------------|----------------|----------------|
Ab :----------------|----------------|----------------|----------------|
Db :*---0-0-0-0-0-0-|0---0---0---*---|----------------|0-0-0-0-0-0-0---|

Gb :----------------|----------------|----------------|----------------|
Db :----------------|----------------|----------------|----------------|
Ab :----------------|----------------|----------------|1-1-1-1-1-1-1---|
Db :*---0-0-0-0-0-0-|0---0---0---*---|----------------|----------------|

Gb :----------------|----------------|----------------|----------------|
Db :----------------|----------------|----------------|----------------|
Ab :*---1-1-1-1-1-1-|1---1---1---*---|----------------|3-3-3-3-3-3-3---|
Db :----------------|----------------|----------------|----------------|

Gb :----------------|----------------|----------------|----------------|
Db :----------------|----------------|----------------|----------------|
Ab :*---3-3-3-3-3-3-|3---3---3---*---|----------------|----------------|
Db :----------------|----------------|----------------|0-0-0-0-0-0-0---|

Gb :----------------|----------------|----------------|----------------|
Db :----------------|----------------|----------------|----------------|
Ab :----------------|----------------|----------------|----------------|
Db :*---0-0-0-0-0-0-|0---0---0---*---|----------------|0-0-0-0-0-0-0---|

Gb :----------------|----------------|----------------|----------------|
Db :----------------|----------------|----------------|----------------|
Ab :----------------|----------------|----------------|1-1-1-1-1-1-1---|
Db :*---0-0-0-0-0-0-|0---0---0---*---|----------------|----------------|



Gb :----------------|----------------|----------------|----------------|
Db :----------------|----------------|----------------|----------------|
Ab :*---1-1-1-1-1-1-|1---1---1---*---|----------------|3-3-3-3-3-3-3---|
Db :----------------|----------------|----------------|----------------|


Gb :----------------|----------------|----------------|----------------|
Db :----------------|----------------|----------------|----------------|
Ab :*---3-3-3-3-3-3-|3---3---3---*---|----------------|----------------|
Db :----------------|----------------|----------------|0-0-0-0-0-0-0---|

Gb :----------------|----------------|
Db :----------------|----------------|
Ab :----------------|----------------|
Db :*---0-0-0-0-0-0-|0---0---0---*---|


--------------------------------------------------
12 So Strange I Remember You
--------------------------------------------------

Intro (only guitar)


Verse1
Gb :-----------------------------------------
Db :-----------------------------------------
Ab :-----------------------------------------
Db :0>---4>---0>---2>---0>---4>---9>-7>-0>---


Breakdown1
Gb :-------------------------------
Db :-------------------------------
Ab :-------------------------------
Db :0~-----4~-----0~-----0~---0~---


Verse2
Gb :----------------------------------------------------------
Db :----------------------------------------------------------
Ab :----------------------------------------------------------
Db :7>---4>---0>>------4>---0>---2>>------0>---4>---0>---4>---


Breakdown2 (x2)
Gb :-------------------------  
Db :-------------------------
Ab :-------------------------
Db :0>>-----44--44----44---44

Then do this
Gb :----------------|----------------|----------------|----------------|
Db :----------------|----------------|----------------|----------------|
Ab :----------------|----------------|----------------|----------------|
Db :5---5---5---5---|5---5---5---5---|5---5---5---5---|5---5---5---5---|

Gb :----------------|----------------|----------------|----------------|
Db :----------------|----------------|5---5---5---5---|8---8---7---7---|
Ab :----------------|5---5---5---5---|----------------|----------------|
Db :5---5---5---5---|----------------|----------------|---------------0|


Interlude
Gb :-------------------|-------------------|-------------------|
Db :-------------------|-------------------|-------------------|
Ab :-------------------|-------------------|-------------------|
Db :0-0-0-0-0-2-2-2-2-2|3-3-3-3-3-5-5-5-5-5|0-0-0-0-0-2-2-2-2-2|

Gb :-------------------|-------------------|-------------------|
Db :-------------------|-------------------|-------------------|
Ab :-------------------|-------------------|-------------------|
Db :3-3-3-3-3-5-5-5-5-5|0-0-0-0-0-2-2-2-2-2|3-3-3-3-3-5-5-5-5-5|

Gb :----------------|----------------|
Db :----------------|----------------|
Ab :----0-1-h3-p1---|--3---3-h5-p3---|
Db :0-5-----------5-|3---3---------3-|



Outro
Gb :------------|------------|------------|------------|------------|
Db :------------|------------|------------|------------|------------|
Ab :------------|------------|------------|------------|------------|
Db :4---4---4---|4---4---4---|0---0---0---|0---0---0---|2---2---2---|

Gb :------------|------------|------------|------------|------------|
Db :------------|------------|------------|------------|------------|
Ab :------------|0---0---0---|------------|------------|------------|
Db :2---2---2---|------------|6---6---6---|4---4---4---|4---4---4---|

Gb :------------|------------|------------|------------|------------|
Db :------------|------------|------------|------------|------------|
Ab :------------|------------|------------|------------|0---0---0---|
Db :0---0---0---|0---0---0---|2---2---2---|2---2---2---|------------|

Gb :------------|------------|------------|------------|------------|
Db :------------|------------|------------|------------|------------|
Ab :------------|------------|------------|------------|------------|
Db :6---6---6---|4---4---4---|4---4---4---|0---0---0---|0---0---0---|

Gb :------------|------------|------------|------------|------------|
Db :------------|------------|------------|------------|------------|
Ab :------------|------------|0---0---0---|------------|------------|
Db :2---2---2---|2---2---2---|------------|6---6---6---|4---4---4---|

Gb :------------|------------|------------|------------|------------|
Db :------------|------------|------------|------------|------------|
Ab :------------|------------|------------|------------|------------|
Db :4---4---4---|0---0---0---|0---0---0---|2---2---2---|2---2---2---|

Gb :------------|------------|------------|------------|------------|
Db :------------|------------|------------|------------|------------|
Ab :------------|------------|------------|------------|------------|
Db :3---3---3---|3---3---3---|3---3---3---|3---3---3---|4-----------|


--------------------------------------------------
13 The Beltsville Crucible
--------------------------------------------------

Intro		    x2
Gb-|----------------|-------------|
Db-|----------------|-------------|
Ab-|----------------|-------------|
Db-|-4~-2~-0~-4~-2~-|-4>-2>-0>-2>-|

Verse
Gb-|-------------------------|
Db-|-------------------------|
Ab-|-------------------------|
Db-|-0~-2~-4~-0~-2~-4~-0~-2~-|

Chorus x2               x2
Gb-|-------|----------------|
Db-|-------|----------------|
Ab-|-------|----------------|
Db-|-7>-4>-|-0>-2>-4>-0>-2>-|

Bridge         
Gb-|----|-------------------|
Db-|----|-------------------| do the 7~ together with the snare
Ab-|----|-------------------| the after part, do it softly except
Db-|-7~-|-4>-7>-0>-4>-7>-0~-|      the last note 0~

Outro
Gb-|----------|
Db-|----------|
Ab-|----------|
Db-|-4>-7>-0>-|

______________________________________________________________________
Fin___________________________________________________________________
----------------------------------------------------------------------
======================================================================
comments
We did not receive enough feedback on this tab! Please rate:
print report bad tab
1 2 3 4 5
1 comment total.
0 reply
aggiefan33 wrote on June 30 2007, 07:44 pm

Great tabs

I want to post or [tab]
guest
You may want to rate the tab now too:
select rating
Please do not post tabs as comments. Select "correction" instead!