Oops, an error
Loading. Please wait.

The Illusion Of Safety Tab

3,553 views 3 this week
1 commentread comment
1 2 3 4 5
accurate
x 4
Autoscroll
+/-
esc
set tempo
stop
Contributor
Hey! There's an official Ultimate Guitar app which is ideal
for learning songs when you're away from computer. Get the app
WARNING: You are trying to view
                                    content from Ultimate-Guitar.com
                                    in an unauthorized application,
                                    which is prohibited.

                                    Please use an official Ultimate
                                    Guitar Tabs application for iPhone,
                                    iPad or Android to access legitimate
                                    chords, guitar, bass, and drum tabs
                                    from Ultimate-Guitar.com database.

                                    Type "ultimate guitar tabs" in Apple
                                    App Store's or Android Market's
                                    search to find the application.
mixed by:joe adzhiyev
i just put these together. i am not saying that i tabbed these.Song: Kill Me Quickly
Artist: Thrice
Album: The Illusion of Safety
Tabbed by: Christian / silent_warrior_@hotmail.com

p - Pull off
h - Hammer on
PM - Palm mute


Tuning - Db Ab Db Gb Bb Eb


Most of it is lead guitar. It's all in order, just figure out the times to play each riff.

Intro/Verse
|--0-0-0-0-0-0-0-0-0-0-0-0-|
|-4-4-4-4-4-4-4-4-4-4-4-4--|
|--------------------------|
|--------------------------|
|--------------------------|
|--------------------------|


|---------------------------------|
|---------------------------------|
|---------------------------------|
|-2-2-2-2---2-2-2-2--2-2-2--2-2-2-|
|-2-2-2-2---2-2-2-2--2-2-2--2-2-2-|
|-2-2-2-2---2-2-2-2--2-2-2--2-2-2-|


|---------------------------------|
|-8p5-0h5-7p5-0h5-8p5-0h5-7p5-0h5-|
|---------------------------------|
|---------------------------------|
|---------------------------------|
|---------------------------------|


|---0---0---0---0---0---0----0----0---0---0---0---0---0----0----0----0----0----0----0-|
|-9---9---9---9---7---7---10---10---9---9---9---7---7---12---12---10---10---10---10---|
|-------------------------------------------------------------------------------------|
|-------------------------------------------------------------------------------------|
|-------------------------------------------------------------------------------------|
|-------------------------------------------------------------------------------------|


|---0---0---0---0---0---0---0---0---0---0---0---0-|
|-9---9---7---7---5---5---5---5---4---4---4---4---|
|-------------------------------------------------|
|-------------------------------------------------|
|-------------------------------------------------|
|-------------------------------------------------|


|---------------------------------|
|-8p5-0h5-7p5-0h5-8p5-0h5-7p5-0h5-|
|---------------------------------|
|---------------------------------|
|---------------------------------|
|---------------------------------|


|---------------------------------|
|---------------------------------|
|---------------------------------|
|-2-2-2-2---2-2-2-2--2-2-2--2-2-2-|
|-2-2-2-2---2-2-2-2--2-2-2--2-2-2-|
|-2-2-2-2---2-2-2-2--2-2-2--2-2-2-|


|---------------------------------|
|-8p5-0h5-7p5-0h5-8p5-0h5-7p5-0h5-|
|---------------------------------|
|---------------------------------|
|---------------------------------|
|---------------------------------|


|---------------------------------|
|---------------------------------|
|---------------------------------|
|-2-2-2-2---2-2-2-2--2-2-2--2-2-2-|
|-2-2-2-2---2-2-2-2--2-2-2--2-2-2-|
|-2-2-2-2---2-2-2-2--2-2-2--2-2-2-|


|---------------------------------|
|-8p5-0h5-7p5-0h5-8p5-0h5-7p5-0h5-|
|---------------------------------|
|---------------------------------|
|---------------------------------|
|---------------------------------|


|-----------------------------------------|
|-----------------------------------------|
|-----------------------------------------|
|-2-2-2-2---2-2-2-2--2-2-2--2-2-2--1--1-1-|
|-2-2-2-2---2-2-2-2--2-2-2--2-2-2--1--1-1-|
|-2-2-2-2---2-2-2-2--2-2-2--2-2-2--1--1-1-|
PM                                    - -


Bridge
|---0---0---0---0---0-|
|-5---5---5---5---5---|
|---------------------|
|---------------------|
|---------------------|
|---------------------|


Don't pick the string, just hammer on and pull off
|--------------------------------------------------------------------------------------------------------|
|-0h8p0-0h8p0-0h8p0-0h8p0-0h7p0-0h7p0-0h7p0-0h7p0-0h10p0-0h10p10-0h10p10-0h10p10-0h8p0-0h8p0-0h8p0-0h8p0-|
|--------------------------------------------------------------------------------------------------------|
|--------------------------------------------------------------------------------------------------------|
|--------------------------------------------------------------------------------------------------------|
|--------------------------------------------------------------------------------------------------------|


|---------------------------------------------------------------------------------------------------------------|
|12-8-0-12-8-0-12-8-0-12-8-0-8--10-7-0-10-7-0-10-7-0-10-7-0-7--13-10-0-13-10-0-13-10-0-13-10-0-10--12-8-0-12-8-0|
|---------------------------------------------------------------------------------------------------------------|
|---------------------------------------------------------------------------------------------------------------|
|---------------------------------------------------------------------------------------------------------------|
|---------------------------------------------------------------------------------------------------------------|


|---------|
|---------|
|---------|
|-2-2-2-2-|
|-2-2-2-2-|
|-2-2-2-2-|
PM- - - -


Outro with some slight variations and palm mutes
|-----------------------------------------------------------------|    |-----|
|--------8-8-8-8---------8-8-8-8---------3-3-3-3---------8-8-8-7--|    |-----|
|--------7-7-7-7---------7-7-7-7---------2-2-2-2---------7-7-7-7--|    |-----|
|-2-2-2-----------2-2-2-----------5-5-5-----------9-9-9-----------|    |--2--|
|-2-2-2-----------2-2-2-----------5-5-5-----------9-9-9-----------|    |--2--|
|-2-2-2-----------2-2-2-----------5-5-5-----------9-9-9-----------|    |--2--|

A Subtle Dagger" by Thrice from "Illusion of Safety" tabbed by:whocares777
------------------
 GUITAR ONE PARTS
------------------
Intro: (2x)
e|---------------------------------------------------------------------------|
B|---------------------------------------------------------------------------|
G|---------------------------------------------------------------------------|
D|----------------8---------------8---5-------------------8-----8-----5------|
A|------------0h5---7---------------7---7-------------0h5---7----------------|
E|0--0-0-0--0---------0--0-0-0--0---------0--0-0-0--0---------0---0-0---0-6-5|
  ...........         ...........         ...........         .   ...   .....

Verse: (2x)
e|---------------------------------------------------------------------------|
B|---------------------------------------------------------------------------|
G|---------------------------------------------------------------------------|
D|----------------8---------------8---5-------------------8-----8-----5------|
A|------------0h5---7---------------7---7-------------0h5---7----------------|
E|-0-0-0-0-0-----------0-0-0-0-0-----------0-0-0-0-0----------0---0-0---0-6-5|
   .........           .........           .........          .   ...   .....

Chorus: (2x)
e|---------------------------------------------|
B|---------------------------------------------|
G|-12>>--11--12>>>>--11-12-12-16--14-14-16--14-|
D|--x-----x---x-------x--x--x--x---x--x--x---x-|
A|-10>>---9--10>>>>---9-10-10-14--12-12-14--12-|
E|---------------------------------------------|

Repeat Verse (2x)

Repeat Chorus (1x)

2nd Chorus Cont'd:
e|--------------------------------------------------|
B|--------------------------------------------------|
G|-12>>--11--12>>>>--11-12-12-16--10-10-10-10-10-10-|
D|--x-----x---x-------x--x--x--x---x--x--x--x--x--x-|
A|-10>>---9--10>>>>---9-10-10-14---8--8--8--8--8--8-|
E|--------------------------------------------------|

Interlude:
e|-0~--------4---------------------------------------------------------------|
B|-0~----4h5----6-5-5h6-5----------------------------------------------------|
G|-1~---------------------4-4h5~---4h5-5--4-4h5-4-2-1~---1h2p1...(read-below)|
D|-2~------------------------------------------------------------------------|
A|-2~------------------------------------------------------------------------|
E|-0~------------------------------------------------------------------------|

...this part is really fast and extremely
   hard to hear, so here's the notes in
   the scale, just go off with really fast
   hammer ons and pull offs, and then somehow
e|--------------------------------------|-end-up-on-this--------------|
B|-------------------notes-in-scale-----|-----------------------------|
G|-2-1----------------of-crazy-hard-----|-----------------------------|
D|-----3-2-0------------solo-part-------|-----------------------------|
A|-----------3-2-0----------------------|-----------------------------|
E|-----------------4-1-0----------------|--------4/5----4-5-5/7---7/8-|

Really Fast Interlude Part: (4x)
e|-16-13----13--------------------------|
B|-------15----15-12-15-12----12--------|
G|-------------------------13-----13-10-|
D|--------------------------------------|
A|--------------------------------------|
E|--------------------------------------|

Build Up: (listen for triplets)
e|---------------------------------------------------------------------------|
B|---------------------------------------------------------------------------|
G|---------------------------------------------------------------------------|
D|-----------------------------------------------------------------0-0-0-0-0-|
A|-2-2-2-2-2-2-2-2-2-2-2-2-2-2-2-2-3-3-3-3-3-3-3-3-3-3-3-3-3-3-3-3-----------|
E|---------------------------------------------------------------------------|
   .........................................................................

e|-------------------------------------------------------|
B|-------------------------------------------------------|
G|-------------------------------------------------------|
D|-0-0-0-0-0-0-0-0-0-0-0-1-0---0-1-0---0-1-0---0-1-0---0-|
A|---------------------------2-------2-------2-------2---|
E|-------------------------------------------------------|
   .....................................................

Cool Part:
e|---------------------6^------6^--|
B|---------------------5^------5^--|
G|-----3---3-3-3-3-----------------|
D|-----2---2-2-2-2-----------------|
A|---------------------------------|
E|-0-0---0---------0-0-----0-0-----|
   ...   .         ...     ...

Ending:
e|----6^-----6^-----6^-----6^------------------------------------------------|
B|----5^-----5^-----5^-----5^------------------------------------------------|
G|----------------------------15-15-15-15-14-14-14-14-15-15-15-15-14-14-14-14|
D|-----------------------------x--x--x--x--x--x--x--x--x--x--x--x--x--x--x--x|
A|----------------------------13-13-13-13-12-12-12-12-13-13-13-13-12-12-12-12|
E|0-0----0-0----0-0----0-0---------------------------------------------------|
  ...    ...    ...    ...

e|----6^-----6^-----6^-----6^------------------------------------------------|
B|----5^-----5^-----5^-----5^------------------------------------------------|
G|----------------------------15-15-15-15-14-14-14-14-18-18-18-18-17-17-17-17|
D|-----------------------------x--x--x--x--x--x--x--x--x--x--x--x--x--x--x--x|
A|----------------------------13-13-13-13-12-12-12-12-16-16-16-16-15-15-15-15|
E|0-0----0-0----0-0----0-0---------------------------------------------------|
  ...    ...    ...    ...

e|----6^-----6^-----6^-----6^------------------------------------------------|
B|----5^-----5^-----5^-----5^------------------------------------------------|
G|----------------------------15-15-15-15-14-14-14-14-15-15-15-15-14-14-14-14|
D|-----------------------------x--x--x--x--x--x--x--x--x--x--x--x--x--x--x--x|
A|----------------------------13-13-13-13-12-12-12-12-13-13-13-13-12-12-12-12|
E|0-0----0-0----0-0----0-0---------------------------------------------------|
  ...    ...    ...    ...

------------------
 GUITAR TWO PARTS
------------------
Intro: (2x)
e|---------------------------------------------------------------------------|
B|---------------------------------------------------------------------------|
G|---------------------------------------------------------------------------|
D|----------------8---------------8---5-------------------8-----8-----5------|
A|------------0h5---7---------------7---7-------------0h5---7----------------|
E|0--0-0-0--0---------0--0-0-0--0---------0--0-0-0--0---------0---0-0---0-6-5|
  ...........         ...........         ...........         .   ...   .....

Verse: (2x)
e|---------------------------------------------------------------------------|
B|---------------------------------------------------------------------------|
G|---------------------------------------------------------------------------|
D|---------------------------------------------------------------------------|
A|-2-2-2-2-2x-------2-2-2-2-2x-------2-2-2-2-2x-------2-2-2-2-2x--2-2-2-2-2x-|
E|-0-0-0-0-0x-------0-0-0-0-0x-------0-0-0-0-0x-------0-0-0-0-0x--0-0-0-0-0x-|

Chorus: (2x)
e|---------------------------------------------------------------------------|
B|---------------------------------------------------------------------------|
G|---------------------------------5-5-5-5-5-5-5-5-5-5-5-5-5-5-5-5-2-2-2-2-2-|
D|-2-2-2-2-2-2-2-2-2-2-2-2-2-2-2-2-5-5-5-5-5-5-5-5-5-5-5-5-5-5-5-5-2-2-2-2-2-|
A|-2-2-2-2-2-2-2-2-2-2-2-2-2-2-2-2-3-3-3-3-3-3-3-3-3-3-3-3-3-3-3-3-0-0-0-0-0-|
E|-0-0-0-0-0-0-0-0-0-0-0-0-0-0-0-0-------------------------------------------|

e|-------------------------------------------------------|
B|-------------------------------------------------------|
G|-2-2-2-2-2-2-2-2-2-2-2-----------------4-4-4-4-4-4-4-4-|
D|-2-2-2-2-2-2-2-2-2-2-2-5-5-5-5-5-5-5-5-4-4-4-4-4-4-4-4-|
A|-0-0-0-0-0-0-0-0-0-0-0-5-5-5-5-5-5-5-5-2-2-2-2-2-2-2-2-|
E|-----------------------3-3-3-3-3-3-3-3-----------------|

Repeat Verse (2x)

Repeat Chorus (1x)

2nd Chorus Cont'd:
e|---------------------------------------------------------------------------|
B|---------------------------------------------------------------------------|
G|---------------------------------5-5-5-5-5-5-5-5-5-5-5-5-5-5-5-5-2-2-2-2-2-|
D|-2-2-2-2-2-2-2-2-2-2-2-2-2-2-2-2-5-5-5-5-5-5-5-5-5-5-5-5-5-5-5-5-2-2-2-2-2-|
A|-2-2-2-2-2-2-2-2-2-2-2-2-2-2-2-2-3-3-3-3-3-3-3-3-3-3-3-3-3-3-3-3-0-0-0-0-0-|
E|-0-0-0-0-0-0-0-0-0-0-0-0-0-0-0-0-------------------------------------------|

e|-------------------------------------------------------|
B|-------------------------------------------------------|
G|-2-2-2-2-2-2-2-2-2-2-2---------------------------------|
D|-2-2-2-2-2-2-2-2-2-2-2-5-5-5-5-5-5-5-5-3-3-3-3-3-3-3-3-|
A|-0-0-0-0-0-0-0-0-0-0-0-5-5-5-5-5-5-5-5-3-3-3-3-3-3-3-3-|
E|-----------------------3-3-3-3-3-3-3-3-1-1-1-1-1-1-1-1-|

Interlude:
e|--------------------0~------------------0~--|
B|--------------------0~------------------0~--|
G|--------------------2~------------------2~--|
D|-2~-----------------3~--------2~--------3~--|
A|-2~--------2--2--2--3~--------2~--------3~--|
E|-0~--------0--0--0------------0~------------|
             .......

Really Fast Interlude Part:
e|---------------------------|
B|---------------------------|
G|---------------------------|
D|-2x--------3x--------2~----|
A|-2x--------3x--------2~----|
E|-0x--------1x--------0~----|

Build Up: (4x) (play really fast)
e|--------------------------------------------------|
B|--------------------------------------------------|
G|--------------------------------------------------|
D|--------------------------------------------------|
A|-2--2--2--2--2--2--2--2--2--2-2-2--2--2--2-2-2--2-|
E|-0--0--0--0--0--0--0--0--0--0-0-0--0--0--0-0-0--0-|
   ................................................

Cool Part: Only Guitar One Plays

End:
e|---------------------------------------------------------------------------|
B|---------------------------------------------------------------------------|
G|-------------------------12-12-12-12-11-11-11-11-12-12-12-12-11-11-11-11---|
D|--------------------------x--x--x--x--x--x--x--x--x--x--x--x--x--x--x--x---|
A|-2-2---2-2---2-2---2-2---10-10-10-10--9--9--9--9-10-10-10-10--9--9--9--9---|
E|-0-0---0-0---0-0---0-0-----------------------------------------------------|
   .....................

e|---------------------------------------------------------------------------|
B|---------------------------------------------------------------------------|
G|-------------------------12-12-12-12-11-11-11-11-15-15-15-15-14-14-14-14---|
D|--------------------------x--x--x--x--x--x--x--x--x--x--x--x--x--x--x--x---|
A|-2-2---2-2---2-2---2-2---10-10-10-10--9--9--9--9-13-13-13-13-12-12-12-12---|
E|-0-0---0-0---0-0---0-0-----------------------------------------------------|
   .....................

e|---------------------------------------------------------------------------|
B|---------------------------------------------------------------------------|
G|-------------------------12-12-12-12-11-11-11-11-12-12-12-12-11-11-11-11---|
D|--------------------------x--x--x--x--x--x--x--x--x--x--x--x--x--x--x--x---|
A|-2-2---2-2---2-2---2-2---10-10-10-10--9--9--9--9-10-10-10-10--9--9--9--9---|
E|-0-0---0-0---0-0---0-0-----------------------------------------------------|
   .....................

PM- -             - -             - -             - -

see you in the shallows tabbed by:twisted-tool
Drop Db (Db, Ab, Db, Gb, Bb, Eb)

intro
eb:-------------------------------------------------------------|
Bb:-------------------------------------------------------------|
Gb:-------------------------------------------------------------|
Db:---------3-3---2--2---2--2---3--3---3--3---2--2---2--2-2-2---|
Ab:---------5-5-5-3--3-3-3--3-3-1--1-1-1--1-1-3--3-3-3--3-3-3---|
Db:-0-000-0-----------------------------------------------------|

eb:--------------------------------------------------------------|
Bb:--------------------------------------------------------------|
Gb:--------------------------------------------------------------|
Db:---------3-3---2--2---2--2---4--4-4-4-4-4-4-4-3-3-3-3-3-3-3-3-|
Ab:---------5-5-5-3--3-3-3--3-0-2--2-2-2-2-2-2-2-1-1-1-1-1-1-1-1-|
Db:-0-000-0------------------------------------------------------|

eb:-----------------------------------------------------------------|
Bb:-----------------------------------------------------------------|
Gb:-----------------------------------------------------------------|
Db:-----------------------------------------------------------------|
Ab:---------8p7--10--8-7-8--7-5-7----------8p7--10--8-10-12--10-8-7-|
Db:-0-000-0----0-------------------0-000-0----0---------------------|

eb:------------------------------------------------------------------|
Bb:------------------------------------------------------------------|
Gb:------------------------------------------------------------------|
Db:-------------------------------------------------------8--7----7--|
Ab:---------8p7--10--8-7-8--7-5-7-----------8p7--10--8-10------10----|
Db:-0-000-0----0--------------------0-000-0--------------------------|

eb:----5-5h8p5-------------------------------------------------------------|
Bb:--6--------6---8---8---8---6--------------------------------------------|
Gb:7----7-------7---7---7---7--10/12-12-12-12\10-10-10-10\9-9-9-9/10-10-10-|
Db:------------------------------------------------------------------------|
Ab:----------------------------8-/10-10-10-10\8--8--8--8-\7-7-7-7/8--8--8--|
Db:------------------------------------------------------------------------|
      1.  Ihear the waves crashfarbelow;                    The rocks are

eb:----5--5h8p5------------------------------------------------------------|
Bb:--6---------6---8---8---8---6-------------------------------------------|
Gb:7----7--------7---7---7---7--10/12-12-12-12/14-14-14-14\12121212\101010-|
Db:------------------------------------------------------------------------|
Ab:-----------------------------8-/10-10-10-10/12-12-12-12\10101010\8-8-8--|
Db:------------------------------------------------------------------------|
    lea--ping        for  the    sky.                           2. They're

eb:---5--5h8p5-------------------------------------------------------------|
Bb:-6---------6---8---8---8---6--------------------------------------------|
Gb:7---7--------7---7---7---7--10/12-12-12-12\10-10-10-10\9-9-9-9/10-10-10-|
Db:------------------------------------------------------------------------|
Ab:----------------------------8-/10-10-10-10\8--8--8--8-\7-7-7-7/8--8--8--|
Db:------------------------------------------------------------------------|
   starving for the air  for a  bone  to   break  a  dream  to smash apart

eb:----5--5h8p5------------------------------------------------------------|
Bb:--6---------6---8---8---8---6-------------------------------------------|
Gb:7----7--------7---7---7---7--10/12-12-12-12/14-14-14-14\12121212\101010-|
Db:------------------------------------------------------------------------|
Ab:-----------------------------8-/10-10-10-10/12-12-12-12\10101010\8-8-8--|
Db:------------------------------------------------------------------------|
		 but   I    don't   care.			It looks

eb:-------------------------------------------------------|
Bb:-------------------------------------------------------|
Gb:-7--7--7-7-7-10-1010-1010101012-12-121212-9--9-9-10-9--|
Db:-------------------------------------------------------|
Ab:-5--5--5-5-5-8--8-8--8-8-8-8-10-10-101010-7--7-7-8--7--|
Db:-------------------------------------------------------|
    deep enough from here; I'm diving.

eb:--------------------------------------------------------|
Bb:--------------------------------------------------------|
Gb:-7--7--7-10-9--9-9--9-9-9-9-10-10-109--5--5-5--5-5-5-5--|
Db:--------------------------------------------------------|
Ab:-5--5--5-8--7--7-7--7-7-7-7-8--8--8-7--3--3-3--3-3-3-3--|
Db:--------------------------------------------------------|
Thiscliffhasbeenwellwornbyignorance    		   It looks

eb:--------------------------------------------------------|
Bb:--------------------------------------------------------|
Gb:-7--7--7-7-7-10-1010-1010101012-12-121212-9--9-9-10-9---|
Db:--------------------------------------------------------|
Ab:-5--5--5-5-5-8--8-8--8-8-8-8-10-10-101010-7--7-7-8--7---|
Db:--------------------------------------------------------|
    deep enough from here; I'm diving.                they

eb:---------------------------------5--6p5-------|
Bb:-------------------------------6--------6-----|
Gb:-7--7--7-10-9--9-9--9-9-9-9-------------------|
Db:-----------------------------10-----------10--|
Ab:-5--5--5-8--7--7-7--7-7-7-7-------------------|
Db:----------------------------------------------|
float facedown theyall look socontent.

eb:-----------------------------------------------------------------------|
Bb:-----------------------------------------------------------------------|
Gb:-10--10-----------------------10/12-12-12\10-10-10-10\9-9-9-9/10-10-10-|
Db:-10--10----------------------------------------------------------------|
Ab:-8---8------------------------8-/10-10-10\8--8--8--8-\7-7-7-7/8--8--8--|
Db:-8---8-----------------------------------------------------------------|
	 I don't knowwhy I'm even   here			guess I'm

eb:----5--5h8p5------------------------------------------------------------|
Bb:--6---------6---8---8---8---6-------------------------------------------|
Gb:7----7--------7---7---7---7--10/12-12-12-12/14-14-14-14\12121212\101010-|
Db:------------------------------------------------------------------------|
Ab:-----------------------------8-/10-10-10-10/12-12-12-12\10101010\8-8-8--|
Db:------------------------------------------------------------------------|
 afraid   to     be     a--lone					and down

eb:-----------------------------------------------------------------------|
Bb:-----------------------------------------------------------------------|
Gb:-10--10-----------------------10/12-12-12\10-10-10-10\9-9-9-9/10-10-10-|
Db:-10--10----------------------------------------------------------------|
Ab:-8---8------------------------8-/10-10-10\8--8--8--8-\7-7-7-7/8--8--8--|
Db:-8---8-----------------------------------------------------------------|
below I see my crew, they look o.k., that can't   be  blood   the   water

eb:----------------------------------------------------|
Bb:----------------------------------------------------|
Gb:-14--12--10-9-10-9--7--5--7--7--7-7-7-9--9--10-10---|
Db:----------------------------------------------------|
Ab:-12--10--8--7-8--7--5--3--5--5--5-5-5-7--7--8--8----|
Db:----------------------------------------------------|
    here	is far too blue                   and

eb:------------------------------------------------------------|
Bb:------------------------------------------------------------|
Gb:-9--9--9-9-9-9--9-9--9-9-9-9--14-14-1412--10-1010-10101010--|
Db:------------------------------------------------------------|
Ab:-7--7--7-7-7-7--7-7--7-7-7-7--12-12-1210--8--8-8--8-8-8-8---|
Db:------------------------------------------------------------|
    gra---vity           seems far        a--------------------|

eb:-----------------------------------------------------------|
Bb:-----------------------------------------------------------|
Gb:-9--9--9-9-9-9--9-9--9-9-9-9--10-10-109--7--7-7--7-7--10---|
Db:-----------------------------------------------------------|
Ab:-7--7--7-7-7-7--7-7--7-7-7-7--8--8--8-7--5--5-5--5-5--8----|
Db:-----------------------------------------------------------|
   -way, butIcanhear her call my name.		     It's so

eb:---------------------------------------------------------------------|
Bb:---------------------------------------------------------------------|
Gb:-9--9--9-9-9-9-5---7--9--10-10-10101012-1212-121212-10-1010-10101010-|
Db:---------------------------------------------------------------------|
Ab:-7--7--7-7-7-7--3--5--7--8--8--8-8-8-10-1010-101010-8--8-8--8-8-8-8--|
Db:---------------------------------------------------------------------|
    comforting  to know iI'll never have to think again

eb:-----------------------------------------------|
Bb:-----------------------------------------------|
Gb:-1010-1010106--6-6--6-6-6-6--6-6--6-6-6--7-\---|
Db:-----------------------------------------7-\---|
Ab:-8-8--8-8-8-4--4-4--4-4-4-4--4-4--4-4-4--5-\---|
Db:-----------------------------------------------|
                                         It looks
deep enough from here Im diving,this cliff has been

well worn by ignorance it looks deep enough from

here Im diving   We

eb:-------------------------------------------------------------|
Bb:-------------------------------------------------------------|
Gb:-7-7-7-7-7-7-7-7-9-9-9-9-9-9-9-9-10----10----10-10-----------|
Db:-------------------------------------------------------------|
Ab:-5-5-5-5-5-5-5-5-7-7-7-7-7-7-7-7-8888888888888888------------|
Db:-------------------------------------------------------------|
    float face down, but we look content.               It looks

eb:----2---2h5p2---------0--0h2p0-----------2--2h5p2----------2--2h5p2-----|
Bb:--3-----------3p0--------------3p0-----3---------3p0-----3----------3p0-|
Gb:4-----4-----------2-2---2----------4-4----4----------4-4----4-----------|
Db:------------------------------------------------------------------------|
Ab:------------------------------------------------------------------------|
Db:------------------------------------------------------------------------|
    deep enough from here        I'm   diving                       this

eb:-----2---2h5p2---------0---0h2p0----------0---0h2p0---------0---2p0-----|
Bb:---3-----------3p0---------------3p0----------------3p0-------------3p0-|
Gb:-4-----4-----------2-2---2------------1-1---1-----------0-0---0---------|
Db:------------------------------------------------------------------------|
Ab:------------------------------------------------------------------------|
Db:------------------------------------------------------------------------|
    cliff has been well worn by ignorance                        it looks

eb:----2--2h5p2--------0--0h2p0-----------2---2h5p2----------2---2h5p2-----|
Bb:--3---------3p0--------------3p0-----3----------3p0-----3-----------3p0-|
Gb:4----4----------2-2--2-----------4-4-----4----------4-4-----4-----------|
Db:------------------------------------------------------------------------|
Ab:------------------------------------------------------------------------|
Db:------------------------------------------------------------------------|
deep enough from here       I'm diving      		    We

eb:-----2---2h5p2---------0---0h2p0-----2---5p2---------2---5p2-----|
Bb:---3-----------3p0-----------------3-----------3-----------------|
Gb:-4-----4-----------2-2---2-------4-----4-----4---4-4---4---------|
Db:-----------------------------------------------------------------|
Ab:-----------------------------------------------------------------|
Db:-----------------------------------------------------------------|
 float facedown, butdon't we all look so   con- tent          It looks

eb:----2--2h5p2--------0--0h2p0----------2---2h5p2-----------2---2h5p2-----|
Bb:--3---------3p0-------------3p0-----3-----------3p0-----3-----------3p0-|
Gb:4----4----------2-2--2----------4-4-----4-----------4-4-----4-----------|
Db:------------------------------------------------------------------------|
Ab:------------------------------------------------------------------------|
Db:------------------------------------------------------------------------|
			Deep				enough	     from

eb:-----2---2h5p2---------0---0h2p0----------0---0h2p0---------0---2p0-----|
Bb:---3-----------3p0---------------3p0----------------3p0-------------3p0-|
Gb:-4-----4-----------2-2---2------------1-1---1-----------0-0---0---------|
Db:------------------------------------------------------------------------|
Ab:------------------------------------------------------------------------|
Db:------------------------------------------------------------------------|
	here							It looks

eb:----2--2h5p2--------0--0h2p0-----------2---2h5p2-----------2--2h5p2-----|
Bb:--3---------3p0--------------3p0-----3-----------3p0-----3----------3p0-|
Gb:4----4----------2-2--2-----------4-4-----4-----------4-4----4-----------|
Db:------------------------------------------------------------------------|
Ab:------------------------------------------------------------------------|
Db:------------------------------------------------------------------------|
			Deep				enough	     from

eb:-----2---2h5p2---------0---0h2p0-----3p2p0-3---------|
Bb:---3-----------3p0-------------------------3-3p0-----|
Gb:-4-----4-----------2-2---2-----------------------0---|
Db:-----------------------------------------------------|
Ab:-----------------------------------------------------|
Db:-----------------------------------------------------|
    here

========================================================================
========================================================================
2nd Guitar

All guitars half-step drop "d" tunning

intro
eb:-----------------------------|
Bb:-----------------------------|
Gb:-----------------------------|
Db:-0--------------------0------|
Ab:-0--------------------0------|
Db:-0--------------------0------|

eb:-------------------------------------------------------------|
Bb:-------------------------------------------------------------|
Gb:-------------------------------------------------------------|
Db:---------3-3---2--2---2--2---3--3---3--3---2--2---2--2-2-2---|
Ab:---------5-5-5-3--3-3-3--3-3-1--1-1-1--1-1-3--3-3-3--3-3-3---|
Db:-0-000-0-----------------------------------------------------|

eb:------------------------------------------------------------------|
Bb:------------------------------------------------------------------|
Gb:------------------------------------------------------------------|
Db:---------3-3---2--2---2--2---3--3---3--3---2--2---2--2-2-2---10---|
Ab:---------5-5-5-3--3-3-3--3-3-1--1-1-1--1-1-3--3-3-3--3-3-3----0---|
Db:-0-000-0------------------------------------------------------0---|
                                                         hearthewaves
                                                             crash far
eb:-------------------------------------------------------------------|
Bb:-------------------------------------------------------------------|
Gb:-------------------------------------------------------------------|
Db:-10--10--10101010--1010--1010101010--10--10101010--1010--10101010--|
Ab:--0---0---0-0-0-0---0-0---0-0-0-0-7---7---7-7-7-7---7-7---7-7-7-7--|
Db:--0---0---0-0-0-0---0-0---0-0-0-0-7---7---7-7-7-7---7-7---7-7-7-7--|
     below        the    rocks are   leaping       for the
eb:-------------------------------------------------------------------|
Bb:-------------------------------------------------------------------|
Gb:-------------------------------------------------------------------|
Db:-10--10--10101010--1010--1010101010--10--10101010--1010--10101010--|
Ab:--8---8---8-8-8-8---8-8---8-8-8-8-8---8---8-8-8-8---8-8---8-8-8-8--|
Db:--8---8---8-8-8-8---8-8---8-8-8-8-8---8---8-8-8-8---8-8---8-8-8-8--|
     sky                    they're starving for the air     for a
eb:-------------------------------------------------------------------|
Bb:-------------------------------------------------------------------|
Gb:-------------------------------------------------------------------|
Db:-10--10--10101010--1010--1010101010--10--10101010--1010--10101010--|
Ab:--0---0---0-0-0-0---0-0---0-0-0-0-7---7---7-7-7-7---7-7---7-7-7-7--|
Db:--0---0---0-0-0-0---0-0---0-0-0-0-7---7---7-7-7-7---7-7---7-7-7-7--|
    bone to break a dream to smash apart                but I don't

eb:-----------------------------------|
Bb:-----------------------------------|
Gb:-----------------------------------|
Db:-10--10--10101010--1010--10101010--|
Ab:--8---8---8-8-8-8---8-8---8-8-8-8--|
Db:--8---8---8-8-8-8---8-8---8-8-8-8--|
   care                      It looks

eb:-------------------------------------------------------------------|
Bb:-------------------------------------------------------------------|
Gb:----------------------------------3---3---3-3-3--------------------|
Db:--0---0---0-0-0-3---3-3---3-3-3-3-3---3---3-3-3-3---3-3-5---5-5-5--|
Ab:--0---0---0-0-0-3---3-3---3-3-3-3-1---1---1-1-1-3---3-3-5---5-5-5--|
Db:--0---0---0-0-0-3---3-3---3-3-3-3---------------3---3-3-5---5-5-5--|
 deep enough from here            I'm Diving                   this

eb:-------------------------------------------------------------------|
Bb:-------------------------------------------------------------------|
Gb:----------------5---5-5---5-5-5-5-3---3---3-3-3--------------------|
Db:--0---0---0-0-0-5---5-5---5-5-5-5-3---3---3-3-3-3---3-3---3-3-3-3--|
Ab:--0---0---0-0-0-3---3-3---3-3-3-3-1---1---1-1-1-3---3-3---3-3-3-3--|
Db:--0---0---0-0-0---------------------------------3---3-3---3-3-3-3--|
  cliff has been well worn by ignorance

eb:-------------------------------------------------------------------|
Bb:-------------------------------------------------------------------|
Gb:----------------------------------3---3---3-3-3--------------------|
Db:--0---0---0-0-0-3---3-3---3-3-3-3-3---3---3-3-3-3---3-3-5---5-5-5--|
Ab:--0---0---0-0-0-3---3-3---3-3-3-3-1---1---1-1-1-3---3-3-5---5-5-5--|
Db:--0---0---0-0-0-3---3-3---3-3-3-3---------------3---3-3-5---5-5-5--|
 deep enough from here            I'm Diving                  they

eb:-----------------------------------------------------------------|
Bb:-----------------------------------------------------------------|
Gb:----------------5---5-5---5-5-5-5-2--3---------------------------|
Db:--0---0---0-0-0-5---5-5---5-5-5-5-2--3--1-----------10--10-------|
Ab:--0---0---0-0-0-3---3-3---3-3-3-3-0--1--1------------8---8-------|
Db:--0---0---0-0-0-------------------------1------------8---8-------|
  float face down they all look so content               Don't know                      
                                                                why I even

eb:----------------------------------------------------------------|
Bb:----------------------------------------------------------------|
Gb:----------------------------------------------------------------|
Db:-10--10--10--10--10--10--10--10--10--10--10--10--10--10--10--10-|
Ab:--0---0---0---0---0---0---0---0---7---7---7---7---7---7---7---7-|
Db:--0---0---0---0---0---0---0---0---7---7---7---7---7---7---7---7-|
     here                guess I'm   afraid to be

eb:----------------------------------------|
Bb:----------------------------------------|
Gb:----------------------------------------|
Db:-10--10--10--10--10--10--10--1010--10---|
Ab:--8---8---8---8---8---8---8---8-8---8---|
Db:--8---8---8---8---8---8---8---8-8---8---|
     alone          and down below I see my crew they look

eb:-------------------------------------------------------------------|
Bb:-------------------------------------------------------------------|
Gb:-------------------------------------------------------------------|
Db:-10--10--10101010--1010--1010101010--10--10101010--1010--10101010--|
Ab:--0---0---0-0-0-0---0-0---0-0-0-0-7---7---7-7-7-7---7-7---7-7-7-7--|
Db:--0---0---0-0-0-0---0-0---0-0-0-0-7---7---7-7-7-7---7-7---7-7-7-7--|
 o.k. that can't be blood the water here                 Is far too

eb:-----------------------------------|
Bb:-----------------------------------|
Gb:-----------------------------------|
Db:-10--10--10101010--1010--10101010--|
Ab:--8---8---8-8-8-8---8-8---8-8-8-8--|
Db:--8---8---8-8-8-8---8-8---8-8-8-8--|
     blue                        and

eb:-------------------------------------------------------------------|
Bb:-------------------------------------------------------------------|
Gb:--5---5---5-5-5-5---5-5---5-5-5-5-7---7---7-7-7-3---3-3---3-3-3-3--|
Db:--5---5---5-5-5-5---5-5---5-5-5-5-7---7---7-7-7-3---3-3---3-3-3-3--|
Ab:--3---3---3-3-3-3---3-3---3-3-3-3-5---5---5-5-5-1---1-1---1-1-1-1--|
Db:-------------------------------------------------------------------|
      gravity                  seems far       a--

eb:-------------------------------------------------------------------|
Bb:-------------------------------------------------------------------|
Gb:--5---5---5-5-5-5---5-5---5-5-5-5-7---7---7-7-7-3---3-3---3-3-3-3--|
Db:--5---5---5-5-5-5---5-5---5-5-5-5-7---7---7-7-7-3---3-3---3-3-3-3--|
Ab:--3---3---3-3-3-3---3-3---3-3-3-3-5---5---5-5-5-1---1-1---1-1-1-1--|
Db:-------------------------------------------------------------------|
     way  but I can hear her call my name                  it's so

eb:-------------------------------------------------------------------|
Bb:-------------------------------------------------------------------|
GB:--2---2---2-2-2-2---2-2---2-2-2-2-7---7---7-7-7-5---5-5---5-5-5-5--|
Db:--2---2---2-2-2-2---2-2---2-2-2-2-7---7---7-7-7-5---5-5---5-5-5-5--|
Ab:--0---0---0-0-0-0---0-0---0-0-0-0-5---5---5-5-5-3---3-3---3-3-3-3--|
Db:-------------------------------------------------------------------|
     comforting to know ill never      have    to  think           a-

eb:-------------------------------------------------------------------|
Bb:----------------------------------2---2---2-2-2-2---2-2---2-2-2-2--|
Gb:--3---3---3-3-3-3---3-3---3-3-3-3-3---3---3-3-3-3---3-3---3-3-3-3--|
Db:--3---3---3-3-3-3---3-3---3-3-3-3-3---3---3-3-3-3---3-3---3-3-3-3--|
Ab:--1---1---1-1-1-1---1-1---1-1-1-1-1---1---1-1-1-1---1-1---1-1-1-1--|
Db:-------------------------------------------------------------------|
    -gain                                                  It looks

eb:-------------------------------------------------------------|
Bb:-------------------------------------------------------------|
Gb:-------------------------------------------------------------|
Db:-3-3-3-3-3-3-3-2-2-2-2-2-2-2-2-3-3-3-3-3-3-3-----------------|
Ab:-5-5-5-5-5-5-5-3-3-3-3-3-3-3-3-1-1-1-1-1-1-1-3-3-3-3-3-3-3-3-|
Db:---------------------------------------------3-3-3-3-3-3-3-3-|
 deep enoughfrom  here 	      I'm di--          ving       this

eb:--------------------------------------------------------------|
Bb:--------------------------------------------------------------|
Gb:--------------------------------------------------------------|
Db:-3-3-3-3-3-3-3-2-2-2-2-2-2-2-2-4-4-4-4-4-4-4-3-3-3-3-3-3-3-3--|
Ab:-5-5-5-5-5-5-5-3-3-3-3-3-3-3-3-2-2-2-2-2-2-2-1-1-1-1-1-1-1-1--|
Db:--------------------------------------------------------------|


Thrice
"Betrayal Is a Symptom"

Transcribed by Jim Bodenschatz (enevolaprime@yahoo.com)

*NOTE* For this song's intro, I have borrowed excerpts from transcriptions that
other tabbers have done and added a few things to make it as accurate as
possible. I didn't want to release this tab without giving due credit to those
who deserve it. Also, a certain amount of credit must go to Ed Breckenridge
(Thrice's bass player) for confirming that this song uses only half-step (and
not half-step/dropped C#) tuning. My sincerest thanks goes out to all of you.


1/2 step down (low-to-high: D#-G#-c#-F#-A#-d#)


Intro/First Verse (part 2; 0:13):

guitar 1 (with distortion and phase)

-----------------------------------------------------------------------------------------------|
-----------------------------------------------------------------------------------------------|
-----------------------------------------------------------------------------------------------|
-2-x-x-x-x-x-x-------0h3-x-2-x-x-x-x----8p0---------2--x-x-x-x-x-x-------0h3-x-5-5-5-5-3-3-3-3-|
-2-x-x-x-x-x-x----0h1------2-x-x-x-x-------8p0------2--x-x-x-x-x-x----0h1------5-5-5-5-3-3-3-3-|
-0-x-x-x-x-x-x-0h1---------0-x-x-x-x-1/-------6p0-0-0--x-x-x-x-x-x-0h1---------3-3-3-3-1-1-1-1-|

	then (full band in):

guitars 1 & 2 (with distortion only):

------------------------------------------------------------------------------------------------|
------------------------------------------------------------------------------------------------|
------------------------------------------------------------------------------------------------|
-2-x-x-x-x-x-x-------0h3-x-2-x-x-x-x-x-x-8p0---------2--x-x-x-x-x-x-------0h3-x-5-5-5-5-3-3-3-3-|
-2-x-x-x-x-x-x----0h1------2-x-x-x-x-x-x----8p0------2--x-x-x-x-x-x----0h1------5-5-5-5-3-3-3-3-|
-0-x-x-x-x-x-x-0h1---------0-x-x-x-x-x-x-------6p0-0-0--x-x-x-x-x-x-0h1---------3-3-3-3-1-1-1-1-|

	then:

guitars 1 & 2:

------------------------------------------------------------------------------------------------|
------------------------------------------------------------------------------------------------|
--------------------------------------------------------------------------------5-5-5-5---------|
-2-------------------0h3-x-2-------------8p0---------2--------------------0h3-x-5-5-5-5-5-5-5-5-|
-2----------------0h1------2----------------8p0------2-----------------0h1------3-3-3-3-5-5-5-5-|
-0-*-*-*-*-*-*-0h1---------0-*-*-*-*-*-*-------6p0-0-0--*-*-*-*-*-*-0h1-----------------3-3-3-3-|

*random natural harmonics


First Chorus:

guitar 1 (left channel):

------------------------------------------------------------------|
-----------------------------------10--10--12-10------------------|
-9-9-9-12-9-9-9-9--12--12--11--11----------------9-9-9-9-8-8-8-8--|
---------------------12--12--12--12--12--12-----------------------|
-7-7-7-10-7-7-7-7-------------------------------------------------|
-------------------------------------------------7-7-7-7-7-7-7-7--|

guitar 2 (right channel):

------------------------------------------------------------------|
------------------------------------------------------------------|
----------5-5-5-5--------------------------------4-4-4-4-4-4-4-4--|
-2-2-2-2--5-5-5-5--2--------2--------5--------5--4-4-4-4-4-4-4-4--|
-2-2-2-2--3-3-3-3--2--------2--------5--------5--2-2-2-2-2-2-2-2--|
-0-0-0-0-----------0--------0--------3--------3-------------------|

	then:

guitar 1:

------------------------------------------------------------------------|
-----------------------------------------10--10--12-10------------------|
-12-12-12-9-11-11-11-11--12--12--11--11----------------9-9-9-9-8-8-8-8--|
---------------------------12--12--12--12--12--12------x-x-x-x-x-x-x-x--|
-10-10-10-7--9--9--9--9--------------------------------x-x-x-x-x-x-x-x--|
-------------------------------------------------------7-7-7-7-7-7-7-7--|

guitar 2:

------------------------------------------------------------------|
------------------------------------------------------------------|
----------7-7-7-4--5--------5--------5-------------------------8--|
-2-2-2-5--7-7-7-4--5--------5--------5--------7--9-9-9-9----------|
-2-2-2-5--5-5-5-2--3--------3--------3--------7--9-9-9-9-------6--|
-0-0-0-3--------------------------------------5--7-7-7-7----------|


Second Verse:

guitar 1:

----7-----------------------------------------------|
---------8----10----7----7h8p7-----7h8p7------------|
-9-9-9--9-9--7--7--7-7--7-----0-7p0------0-7p0-7h9--| play 2 times
----------------------------------------------------|
----------------------------------------------------|
----------------------------------------------------|

guitar 2:

--------------------------------------------------|
--------------------------------------------------|
-9-----------------------------------------7--/9--|
--------------------------------------------------|
-7-----------------------------------------5--/7--|
--------------------------------------------------|

	then:

guitar 1:

----7-----------------------------------------------|
---------8----10----7----7h8p7-----7h8p7------------|
-9-9-9--9-9--7--7--7-7--7-----0-7p0------0-7p0-7h9--| play 2 times
----------------------------------------------------|
----------------------------------------------------|
----------------------------------------------------|

guitar 2:

--------------------------------------------------------------------------------------------------|
--------------------------------------------------------------------------------------------------|
--------------------------------------------------------------------------------------------------|
----5----5------4-----4------4-4h5-4-0---4-4h5----5----5------4-----4------4-4h5-4-0---4-4h5p4p0--|
-7-7-7--7-7--5-5--5--5-5--3-3-3-------5-5-5----7-7-7--7-7--5-5--5--5-5--3-3-3-------6-6-6---------|
--------------------------------------------------------------------------------------------------|


First Bridge:

both guitars:

------------------------------|
------------------------------|
------------------------------|
-7/8-7---7---7/8-7---7---5/7--| play 4 times
-7/8-7---7---7/8-7---7---5/7--|
-5/6-5-0-5-0-5/6-5-0-5-0-3/5--|


Second Chorus:

guitar 1:

------------------------------------------------------------------|
-----------------------------------10--10--12-10------------------|
-------12-9-9-9-9--12--12--11--11----------------9-9-9-9-8-8-8-8--|
-2-2-2---------------12--12--12--12--12--12------x-x-x-x-x-x-x-x--|
-2-2-2-10-7-7-7-7--------------------------------x-x-x-x-x-x-x-x--|
-0-0-0-------------------------------------------7-7-7-7-7-7-7-7--|

guitar 2:

------------------------------------------------------------------|
------------------------------------------------------------------|
----------5-5-5-5--------------------------------4-4-4-4-4-4-4-4--|
-2-2-2-2--5-5-5-5--2--------2--------5--------5--4-4-4-4-4-4-4-4--|
-2-2-2-2--3-3-3-3--2--------2--------5--------5--2-2-2-2-2-2-2-2--|
-0-0-0-0-----------0--------0--------3--------3-------------------|

	then:

guitar 1:

-------------------------------------------------------------------------|
------------------------------------------10--10--12-10------------------|
-12-12-12-9-11-11-11-11--12--12--11--11-----------------9-9-9-9-8-8-8-8--|
----------------------------12--12--12--12--12--12------x-x-x-x-x-x-x-x--|
-10-10-10-7--9--9--9--9---------------------------------x-x-x-x-x-x-x-x--|
--------------------------------------------------------7-7-7-7-7-7-7-7--|

guitar 2:

-------------------------------------------------------------------------|
-------------------------------------------------------------------------|
-------------7--7--7--4--5--------5-------5-------------9-9-9-9-8-8-8-8--|
-2--2--2--5--7--7--7--4--5--------5-------5--------7---------------------|
-2--2--2--5--5--5--5--2--3--------3-------3--------7----7-7-7-7-6-6-6-6--|
-0--0--0--3----------------------------------------5---------------------|

	then:

guitar 1:

----------------------------------------------------------------------|
----------7--7--7--7--8--8--8--8-10-10-10-10-10-10-10-10-10-10-10-10--|
-9-9-9-9--x--x--x--x--x--x--x--x--x--x--x--x--x--x--x--x--x--x--x--x--|
-x-x-x-x--x--x--x--x--x--x--x--x--x--x--x--x--x--x--x--x--x--x--x--x--|
-x-x-x-x--x--x--x--x--x--x--x--x--x--x--x--x--x--x--x--x--x--x--x--x--|
-7-7-7-7--7--7--7--7--7--7--7--7--7--7--7--7--7--7--7--7--7--7--7--7--|

guitar 2:

-----------------------------------------------------------|
-----------------------------------------------------------|
-9-9-9-9-11-11-11-11-16-16-16-16-17-17-17-17-19-19-19-19/--|
-----------------------------------------------------------|
-7-7-7-7--9--9--9--9-14-14-14-14-15-15-15-15-17-17-17-17/--|
-----------------------------------------------------------|


Second Bridge:

both guitars:

--------------------------------------|
--------------------------------------|
--------------------------------------|
-2-2-2-2-----------5-5-5--------------| play 4 times
-2-2-2-2-----------5-5-5--------------|
-0-0-0-0-0-5p0-3p0-3-3-3p0-3p0-3h5p0--|


Outro:

guitar 1:

-------------------------------------------|
-------------------------------------------|
-----2---5-----------2---5-----------------|
-2---2-------3-------2-------3-------------|
-2---2---3---2---2---2---3---2---x/-pick---|
-0---0---0---1---0---0---0---1---x/scrape--|

guitar 2:

--------------------------------------|
--------------------------------------|
-----let ring out---------------------|
-2----------------with----------------|
-2---------------------phase effects--|
-0------------------------------------|

	then:

guitar 1:

-----------------------------------------------------------------------|
-----------------------------------------------------------------------|
----------------------------------8*-----------------------------------| play twice
--7p0-----7p0-----7p0-----7p0--------7p0-----7p0-----7p0-----7p0-------|
------7p0-----7p0-----7p0-----7p0--------7p0-----7p0-----7p0-----7-7---|
-5---5---5---5---5---5---5---5------5---5---5---5---5---5---5---5-5-5--|

*pinch harmonic

guitar 2:

---------------------------------------------------------------|
---------------------------------------------------------------|
----------------------------------8----------------------------| play twice
-7-------7-------7-------7----------7-------7-------7-------7--|
-7-------7-------7-------7----------7-------7-------7-------7--|
-5-------5-------5-------5----------5-------5-------5-------5--|

	then:

both guitars:

--------------------------------------------------|
--------------------------------------------------|
--------------------------------------------------| play 4 times
-7/8-7---7---7/8-7---7---7/8-7---7---7/8-7---7----|
-7/8-7---7---7/8-7---7---7/8-7---7---7/8-7---7----|
-5/6-5-0-5-0-5/6-5-0-5-0-5/6-5-0-5-0-5/6-5-0-5-0--|

	then:

both guitars:

----
----
----
-2--
-2--
-0--

deadbolt tabbed by:twisted tool
Drop Db Tuning - strings are (Db, Ab, Db, Gb, Bb, eb)

... - palm mute
h   - hammer on
p   - pull off
\   - slide down
/   - slide up
~   - let ring out

7x
7x  -  mute strings after strum
5x

------------
 Guitar One
------------
Intro:  (4x)
e|----------------------------------------------------------------|
B|----------------------------------------------------------------|
G|----------------------------------------------------------------|
D|-0--7-0-0-5-0-0-3-0-0-2-0-0-3-0-5-0-0-3-0-0-2-0-3-0-0-----------|
A|------------------------------------------------------3-0-0-3h5-|
D|----------------------------------------------------------------|
   .

Verse:  "When deadbolt awakes you from deja vu dreams"
e|---------------------------------------------------------------------------|
B|---------------------------------------------------------------------------|
G|15----(play-this-----------------------------------------------------------|
D|-x-octave-32-times)--2h3p2----------2h3p2----------2h3p2----------2h3p2----|
A|13-------------------------3p0------------3p0------------3p0------------3p0|
D|-------------------0-----------0--0-----------0--0-----------0--0----------|
                     .           ....           ....           ....
e|---------------------------------------------------------------------------|
B|---------------------------------------------------------------------------|
G|15----(play-this-----0h2p0----------0h2p0----------0h2p0----------0h2p0----|
D|-x-octave-32-times)--------3p0------------3p0------------3p0------------3p0|
A|13-------------------------------------------------------------------------|
D|-------------------0-----------0--0-----------0--0-----------0--0----------|
                     .           ....           ....           ....
e|---------------------------------------------------------------------------|
B|---------------------------------------------------------------------------|
G|-17-17-17-17-17-17-17-17-17-17-17-17-17-17-17-17-15-15-15-15-15-15-15-15---|
D|--x--x--x--x--x--x--x--x--x--x--x--x--x--x--x--x--x--x--x--x--x--x--x--x---|
A|-15-15-15-15-15-15-15-15-15-15-15-15-15-15-15-15-13-13-13-13-13-13-13-13---|
D|---------------------------------------------------------------------------|

e|---------------------------------------------------------------------------|
B|---------------------------------------------------------------------------|
G|-14-14-14-14-14-14-14-14---------------------------------------------------|
D|--x--x--x--x--x--x--x--x-0-0-5-0-7-0-0-8-0-7-0-0-5-7-5---0-0-5-0-7-0-0-8-0-|
A|-12-12-12-12-12-12-12-12-------------------------------8-------------------|
D|---------------------------------------------------------------------------|
                           .................................................
e|---------------------------------------------------------------------------|
B|---------------------------------------------------------------------------|
G|-------------17-17-17-17-17-17-17-17-17-17-17-17-17-17-17-17-15-15-15-15-15|
D|-7-0-0-5-7-5--x--x--x--x--x--x--x--x--x--x--x--x--x--x--x--x--x--x--x--x--x|
A|-------------15-15-15-15-15-15-15-15-15-15-15-15-15-15-15-15-13-13-13-13-13|
D|---------------------------------------------------------------------------|
   ...........
e|----------------------------------|
B|----------------------------------|
G|-15-15-15-14-14-14-14-14-14-14-14-|
D|--x--x--x--x--x--x--x--x--x--x--x-|
A|-13-13-13-12-12-12-12-12-12-12-12-|
D|----------------------------------|

Chorus:  "I just close my eyes, and I'm already here its already to late"
e|---------------------------------------------------------------------------|
B|---------------------------------------------------------------------------|
G|-----------------2-2x------------------------------------------------------|
D|-0-0x------------5-5x----5-5x----10-10x----------8-8x----7-7x--------------|
A|-0-0x------------3-3x----3-3x-----8--8x----------5-5x----5-5x--------------|
D|-0-0x--------------------3-3x-----8--8x----------5-5x----5-5x--------------|

e|-----------------------------------------------------------------|
B|-10-----6-----5---8-----6-----5---10-----6-----5---8-----6-----5-|
G|----7-7---7-7---7---7-7---7-7---7----7-7---7-7---7---7-7---7-7---|
D|-----------------------------------------------------------------|
A|-----------------------------------------------------------------|
D|-----------------------------------------------------------------|
      ...   ...   .   ...   ...   .    ...   ...   .   ...   ...

Repeat Intro (4x)  "And she calls from the doorway"

Bridge:  "And I'm almost sure that I've been here before"
e|---------------------------------------------------------------------------|
B|---------------------------------------------------------------------------|
G|-12-12-12-12-12-12-12-12-12-12-12-12-12-12-12-12-10-10-10-10-10-10-10-10---|
D|--x--x--x--x--x--x--x--x--x--x--x--x--x--x--x--x--x--x--x--x--x--x--x--x---|
A|-10-10-10-10-10-10-10-10-10-10-10-10-10-10-10-10--8--8--8--8--8--8--8--8---|
D|---------------------------------------------------------------------------|

e|---------------------------------------------------------------------------|
B|---------------------------------------------------------------------------|
G|-10-10-10-10-10-10-10-10-15-15-15-15-15-15-15-15-15-15-15-15-15-15-15-15---|
D|--x--x--x--x--x--x--x--x--x--x--x--x--x--x--x--x--x--x--x--x--x--x--x--x---|
A|--8--8--8--8--8--8--8--8-13-13-13-13-13-13-13-13-13-13-13-13-13-13-13-13---|
D|---------------------------------------------------------------------------|

e|---------------------------------------------------------------------------|
B|---------------------------------------------------------------------------|
G|-14-14-14-14-14-14-14-14-14-14-14-14-14-14-14-14-12-12-12-12-12-12-12-12---|
D|--x--x--x--x--x--x--x--x--x--x--x--x--x--x--x--x--x--x--x--x--x--x--x--x---|
A|-12-12-12-12-12-12-12-12-12-12-12-12-12-12-12-12-10-10-10-10-10-10-10-10---|
D|---------------------------------------------------------------------------|

e|---------------------------------------------------------------------------|
B|---------------------------------------------------------------------------|
G|-12-12-12-12-12-12-12-12-10-10-10-10-10-10-10-10-10-10-10-10-10-10-10-10---|
D|--x--x--x--x--x--x--x--x--x--x--x--x--x--x--x--x--x--x--x--x--x--x--x--x---|
A|-10-10-10-10-10-10-10-10--8--8--8--8--8--8--8--8--8--8--8--8--8--8--8--8---|
D|---------------------------------------------------------------------------|

e|-----------------------------------------------------------------|
B|-----------------------------------------------------------------|
G|-7-7-7-7-7-7-7-7-7-7-7-7-7-7-7-7-9-9-9-9-9-9-9-9-9-9-9-9-9-9-9-9-|
D|-x-x-x-x-x-x-x-x-x-x-x-x-x-x-x-x-x-x-x-x-x-x-x-x-x-x-x-x-x-x-x-x-|
A|-5-5-5-5-5-5-5-5-5-5-5-5-5-5-5-5-7-7-7-7-7-7-7-7-7-7-7-7-7-7-7-7-|
D|-----------------------------------------------------------------|

Interlude:
e|---------------------------------------------------------------------------|
B|---------------------------------------------------------------------------|
G|---------------------------------------------------------------------------|
D|--------------------0--0--0---7--7--7--7--5--5--5--------------------------|
A|-0-0-0-0-0-0-0-0-0--0--0--0---3--3--3--3--3--3--3--8-8-8-8-8-8-8-8-8-------|
D|-0-0-0-0-0-0-0-0-0--0--0--0---3--3--3--3--3--3--3--8-8-8-8-8-8-8-8-8-------|
   .................                                 .................
e|---------------------------------------------------------------------------|
B|---------------------------------------------------------------------------|
G|------------------------------------------------------------14/12/10/9\10/9|
D|10--10--10---8--8--8--8--7--7--7--------------------2--2--2--x--x--x-x--x-x|
A|-8---8---8---5--5--5--5--5--5--5-0-0-0-0-0-0-0-0-0--0--0--0-12/10/-8/7\-8/7|
D|-8---8---8---5--5--5--5--5--5--5-0-0-0-0-0-0-0-0-0--0--0--0----------------|
                                   .................
e|---------------------------------------------------------------------------|
B|---------------------------------------------------------------------------|
G|--------------------10--10--10---10/9\10\12/10/9/5-------------------------|
D|---------------------x---x---x----x-x--x--x--x-x-x------0-----0-0-0--------|
A|-8-8-8-8-8-8-8-8-8---8---8---8----8/7\-8\10/-8/7/3--0-0-0-0-0-0-0-0--------|
D|-8-8-8-8-8-8-8-8-8----------------------------------0-0-0-0-0-0-0-0--------|
   .................                                  ...   ...
e|---------------------------------------------------------------------------|
B|---------------------------------------------------------------------------|
G|---------------------------------------------------------------------------|
D|7-7-7-7-5-5-5-----10-----10-10-10--8-8-8-8-7-7-7-----0-----0-0-0-----------|
A|3-3-3-3-3-3-3-8-8--8-8-8--8--8--8--5-5-5-5-5-5-5-0-0-0-0-0-0-0-0-----------|
D|3-3-3-3-3-3-3-8-8--8-8-8--8--8--8--5-5-5-5-5-5-5-0-0-0-0-0-0-0-0-----------|
                ...    ...                         ...   ...
e|---------------------------------------------------------------|
B|---------------------------------------------------------------|
G|-14/12/10/9\10/9---10-10-10-10-10-10-10-10---10/9\10\12/10/9/5-|
D|--x--x--x-x--x-x----x--x--x--x--x--x--x--x----x-x--x--x--x-x-x-|
A|-12/10/-8/7\-8/7----8--8--8--8--8--8--8--8----8/7\-8\10/-8/7/3-|
D|---------------------------------------------------------------|

Slow Part: repeat until end (thats 16x)
e|-5-----5-----5-----5-----|
B|-------------------------|
G|---6h7---6h7---6h7---6h7-|
D|-------------------------|
A|-------------------------|
D|-------------------------|

------------
 Guitar Two
------------
Intro: (2x)
e|---------------------------------------------------------------------------|
B|---------------------------------------------------------------------------|
G|-----------------------------------------------------------------3-3-3-3-3-|
D|-----------------------------------------------------------------3-3-3-3-3-|
A|-0-0-0-0-0-0-0-0-0-0-0-0-0-0-0-0-0-0-0-0-0-0-0-0-0-0-0-0-0-0-0-0-1-1-1-1-1-|
D|-0-0-0-0-0-0-0-0-0-0-0-0-0-0-0-0-0-0-0-0-0-0-0-0-0-0-0-0-0-0-0-0-----------|

e|---------------------------------------------------------------------------|
B|---------------------------------------------------------------------------|
G|-3-3-3-3-3-3-3-3-3-3-3-5-5-5-5-5-5-5-5-5-5-5-5-5-5-5-5---------------------|
D|-3-3-3-3-3-3-3-3-3-3-3-5-5-5-5-5-5-5-5-5-5-5-5-5-5-5-5---------------------|
A|-1-1-1-1-1-1-1-1-1-1-1-3-3-3-3-3-3-3-3-3-3-3-3-3-3-3-3---------------------|
D|---------------------------------------------------------------------------|

Verse:  (2x)
e|---------------------------------------------------------------------------|
B|---------------------------------------------------------------------------|
G|---------------------------------------------------------------------------|
D|-------------------------------------------------------------------2h3p2---|
A|-5-5-5-5-5-5-5-5-5-5-5-5-5-5-5-5-5-5-5-5-5-5-5-5-5-5-5-5-5-5-5-5-----------|
D|-5-5-5-5-5-5-5-5-5-5-5-5-5-5-5-5-5-5-5-5-5-5-5-5-5-5-5-5-5-5-5-5-0---------|
   .................................................................
e|---------------------------------------------------------------------------|
B|---------------------------------------------------------------------------|
G|---------------------------------------------------------------------------|
D|----------2h3p2----------2h3p2----------2h3p2------------------------------|
A|-3p0------------3p0------------3p0------------3p0--------------------------|
D|-----0--0-----------0--0-----------0--0------------------------------------|
       ....           ....           ....

Verse Continued:
e|---------------------------------------------------------------------------|
B|---------------------------------------------------------------------------|
G|-3-3-3-3-3-3-3-3-3-3-3-3-3-3-3-3-------------------------------------------|
D|-3-3-3-3-3-3-3-3-3-3-3-3-3-3-3-3---------------------------------0-0-2-0-3-|
A|-1-1-1-1-1-1-1-1-1-1-1-1-1-1-1-1-5-5-5-5-5-5-5-5-7-7-7-7-7-7-7-7-----------|
D|---------------------------------5-5-5-5-5-5-5-5-7-7-7-7-7-7-7-7-----------|
                                                                   .........
e|---------------------------------------------------------------------------|
B|---------------------------------------------------------------------------|
G|-------------------------------------------------------3-3-3-3-3-3-3-3-3-3-|
D|-0-0-5-0-3-0-0-2-3-2-0-0-0-2-0-3-0-0-5-0-3-0-0-2-3-2-0-3-3-3-3-3-3-3-3-3-3-|
A|-------------------------------------------------------1-1-1-1-1-1-1-1-1-1-|
D|---------------------------------------------------------------------------|
   .....................................................
e|---------------------------------------------------------------------------|
B|---------------------------------------------------------------------------|
G|-3-3-3-3-3-3---------------------------------------------------------------|
D|-3-3-3-3-3-3---------------------------------------------------------------|
A|-1-1-1-1-1-1-5-5-5-5-5-5-5-5-7-7-7-7-7-7-7-7-------------------------------|
D|-------------5-5-5-5-5-5-5-5-7-7-7-7-7-7-7-7-------------------------------|

Chorus: (2x)
e|--------------------------------------------------------------|
B|--------------------------------------------------------------|
G|-----------------2-2x-----------------------------------------|
D|-0-0x------------5-5x----5-5x----10-10x----------8-8x----7-7x-|
A|-0-0x------------3-3x----3-3x-----8--8x----------5-5x----5-5x-|
D|-0-0x--------------------3-3x-----8--8x----------5-5x----5-5x-|

Chorus Continued: (2x)
e|---------------------------------------------------------------------------|
B|---------------------------------------------------------------------------|
G|-----------------2-2-2-2---------------------------------------------------|
D|-0-0-0-0-0-0-0-0-5-5-5-5-5-5-5-5-10-10-10-10-10-10-10-10-8-8-8-8-7-7-7-7---|
A|-0-0-0-0-0-0-0-0-3-3-3-3-3-3-3-3--8--8--8--8--8--8--8--8-5-5-5-5-5-5-5-5---|
D|-0-0-0-0-0-0-0-0---------3-3-3-3--8--8--8--8--8--8--8--8-5-5-5-5-5-5-5-5---|

Bridge:
e|---------------------------------------------------------------------------|
B|---------------------------------------------------------------------------|
G|---------------------------------------------------------------------------|
D|---------------------------------------------------------------------------|
A|-5-5-5-5-5-5-5-5-5-5-5-5-5-5-5-5-8-8-8-8-8-8-8-8-8-8-8-8-8-8-8-8-5-5-5-5-5-|
D|-5-5-5-5-5-5-5-5-5-5-5-5-5-5-5-5-8-8-8-8-8-8-8-8-8-8-8-8-8-8-8-8-5-5-5-5-5-|

e|---------------------------------------------------------------------------|
B|---------------------------------------------------------------------------|
G|---------------------------------------------------------------------------|
D|---------------------------------------------------------------------------|
A|-5-5-5-5-5-5-5-5-5-5-5-7-7-7-7-7-7-7-7-7-7-7-7-7-7-7-7---------------------|
D|-5-5-5-5-5-5-5-5-5-5-5-7-7-7-7-7-7-7-7-7-7-7-7-7-7-7-7---------------------|

Interlude: (2x)
e|---------------------------------------------------------------------------|
B|---------------------------------------------------------------------------|
G|--------------------7--7--7------------------------------------------------|
D|--------------------7--7--7------------------------------------------------|
A|-0-0-0-0-0-0-0-0-0--5--5--5---3--3--3--3--3--3--3--8-8-8-8-8-8-8-8-8-------|
D|-0-0-0-0-0-0-0-0-0------------3--3--3--3--3--3--3--8-8-8-8-8-8-8-8-8-------|
   .................                                 .................
e|-------------------------------|
B|-------------------------------|
G|-------------------------------|
D|-------------------------------|
A|-8--8--8---5--5--5--5--5--5--5-|
D|-8--8--8---5--5--5--5--5--5--5-|

Interlude Continued: (2x)
e|---------------------------------------------------------------------------|
B|---------------------------------------------------------------------------|
G|-----------7-7-7-----------------------------------------------------------|
D|-----------7-7-7-----------------------------------------------------------|
A|-0-0-0-0-0-5-5-5---3--3--3--3--3--3--3--8-8-8-8-8-8-8-8---5--5--5--5--5--5-|
D|-0-0-0-0-0---------3--3--3--3--3--3--3--8-8-8-8-8-8-8-8---5--5--5--5--5--5-|
   ...   ...                              ...   ...

Slow Part: (3x)             (1x)
e|-------------------------|-------------------------------------------------|
B|-------------------------|-------------------------------------------------|
G|-4~----------------------|-4~----------------------------------------------|
D|-4~----------------------|-4~----------------------------------------------|
A|-2~-------0~-------5~----|-2~-------0~-------2~----1-1-1-1-1-1-1-1-1-1-1-1-|
D|----------0~-------5~----|----------0~-------2~----1-1-1-1-1-1-1-1-1-1-1-1-|
                                                     .......................

in years to come tabbed by: joe adzhiyev
oh sorry there was no in years to come tabs.thanks though

&&&&&&&&&&&&&&&&&&&&&&&&&&&&&
Artist: Thrice             &&
Song: The Red Death        &&
Album: Illusion of reality &&
&&&&&&&&&&&&&&&&&&&&&&&&&&&&&
tabbed by sam182

GUITAR ONE'S PARTS
--------------------
Intro: (7x)
e|-----------------------------------------------------------------|
B|-----------------------------------------------------------------|
G|-----------------------------------------------------------------|
D|---5-7---7-8---5-7---7-8---5-7---7-8---5-7---7-8---5-7---7-8-7-5-|
A|-0-----0-----0-----0-----0-----0-----0-----0-----0-----0---------|
E|-----------------------------------------------------------------|

Intro Cont'd:
e|----------------------------------------------------------------|
B|----------------------------------------------------------------|
G|----------------------------------------------------------------|
D|---5-7---7-8---5-7---7-8---5-7---5-7---5-7---5-7---5-7----5--7\-|
A|-0-----0-----0-----0-----0-----0-----0-----0-----0-----0--------|
E|----------------------------------------------------------------|

Verse: (4x)
e|-----------------------------------------------------------------|
B|-----------------------------------------------------------------|
G|-2-2-2-5-5-5-4-4-4-7-7-7-5-5-4-4-0-0-0-5-5-5-4-4-4-7-7-7-5-5-4-4-|
D|-----------------------------------------------------------------|
A|-----------------------------------------------------------------|
E|-----------------------------------------------------------------|
PM ...............................................................

Pre-Chorus:
e|---------------------------------------------------------------------------|
B|---------------------------------------------------------------------------|
G|-2-2-2-14-14-14-7-7-7-10-10-10-10-10-10-10-2-2-2-14-14-14-7-7-7-10-10-10---|
D|-2-2-2-14-14-14-7-7-7-10-10-10-10-10-10-10-2-2-2-14-14-14-7-7-7-10-10-10---|
A|-0-0-0-12-12-12-5-5-5--8--8--8--8--8--8--8-0-0-0-12-12-12-5-5-5--8--8--8---|
E|---------------------------------------------------------------------------|

e|---------------------------------------------------------------------------|
B|---------------------------------------------------------------------------|
G|-10-10-9-9-2-2-2-2-2-5-5-5-10-10-10-10-10-10-10-10-9-9-9-9-9-9-9-9---------|
D|-10-10-9-9-2-2-2-2-2-5-5-5-10-10-10-10-10-10-10-10-9-9-9-9-9-9-9-9---------|
A|--8--8-7-7-0-0-0-0-0-3-3-3--8--8--8--8--8--8--8--8-7-7-7-7-7-7-7-7---------|
E|---------------------------------------------------------------------------|

e|---------------|
B|---------------|
G|---------------|
D|-3-0-2-0-3-2-0-|
A|---------------|
E|---------------|

Chorus
e|---------------------------------------------------------------------------|
B|---------------------------------------------------------------------------|
G|-------------7--7-5--4--5--2--2-5--5------7--7----------------------7--7-5-|
D|-7--7-5--5-5-7--7-5--4--5--2--2-5--5-5--5-7--7-7----------7--7-5--5-7--7-5-|
A|-7--7-5--5-5-5--5-3--2--3--0--0-3--3-5--5-5--5-7-*-*-*--*-7--7-5--5-5--5-3-|
E|-5--5-3--3-3-------------------------3--3------5-5-5-5--5-5--5-3--3--------|
triplet
e|--------------------------------|
B|--------------------------------|
G|-5-4--5--2--2-5--5------7--7----|
D|-5-4--5--2--2-5--5-5--5-7--7-7x-|
A|-3-2--3--0--0-3--3-5--5-5--5-7x-|
E|-------------------3--3------5x-|

2nd Verse: (4x)
e|---------------------------------|
B|---------------------------------|
G|-2-2-2-5-5-5-4-4-4-7-7-7-5-5-4-4-|
D|---------------------------------|
A|---------------------------------|
E|---------------------------------|
PM ...............................

Bridge:
e|--------------------------------------------------------------|
B|---------------------------------------------------0x--0x--0x-|
G|-2--2-2-2-2-2-2-2-2-2-2-2-2-2-2-1-1-1-1-1-1-1-1-1--0x--0x--0x-|
D|--------------------------------------------------------------|
A|--------------------------------------------------------------|
E|--------------------------------------------------------------|

Solo:
e|-------17-------17-------17-------17-------17-------17-------17-------17---|
B|-15h17----15h17----15h17----15h17----15h17----15h17----15h17----15h17------|
G|---------------------------------------------------------------------------|
D|---------------------------------------------------------------------------|
A|---------------------------------------------------------------------------|
E|---------------------------------------------------------------------------|

e|-------17------------------------------------------------------------------|
B|-15h17----15h17p15----15--------13h15p13----13h15p13----13h15p13-----------|
G|-------------------17----14--14----------14----------14--------------------|
D|---------------------------------------------------------------------------|
A|---------------------------------------------------------------------------|
E|---------------------------------------------------------------------------|

e|---------------------------------------------------------------------------|
B|-13h15p13----13h15p13----13h15p13----13h15p13----13h15p13------------------|
G|----------14----------14----------14----------14----------9--9-9-9-7--10---|
D|----------------------------------------------------------x--x-x-x-x---x---|
A|----------------------------------------------------------7--7-7-7-5---8---|
E|---------------------------------------------------------------------------|

e|---------------------------------------------------------------------------|
B|---------------------------------------------------------------------------|
G|-10-10-10-10-9--7--7-7-7-7-7-7-7-7--5--7--9--9--9-9-9-9-9-9-9-13-13-13-13--|
D|--x--x--x--x-x--x--x-x-x-x-x-x-x-x--x--x--x--x--x-x-x-x-x-x-x--x--x--x--x--|
A|--8--8--8--8-7--5--5-5-5-5-5-5-5-5--3--5--7--7--7-7-7-7-7-7-7-11-11-11-11--|
E|---------------------------------------------------------------------------|

e|------------------------------------------------|
B|------------------------------------------------|
G|-13-13-13-13-14-14-14-14-14-14-14-14-17--16--14-|
D|--x--x--x--x--x--x--x--x--x--x--x--x--x---x---x-|
A|-11-11-11-11-12-12-12-12-12-12-12-12-15--14--12-|
E|------------------------------------------------|

Interlude:
e|---------------------------------------------------------------------------|
B|---------------------1-3-1-3/5----1-3-1-3/5----1-3-1-3/5----1-3-1-3/5------|
G|-2~-------2-2x-------------------------------------------------------------|
D|-2~-------2-2x-------------------------------------------------------------|
A|-0~-------0-0x-------------------------------------------------------------|
E|---------------------------------------------------------------------------|

e|------------------0-1-0-1h3----0-1-0-1h3----0-1-0-1h3----0-1-0-1h3---------|
B|-1-3-1-3-5-3-1-------------------------------------------------------------|
G|---------------------------------------------------------------------------|
D|---------------------------------------------------------------------------|
A|---------------------------------------------------------------------------|
E|---------------------------------------------------------------------------|

e|-0-1-0-1-3-1-0--------------------------------------------|
B|----------------------------------------------------------|
G|---------------2x----2x----2x----2x----2x----2x----2x--2x-|
D|---------------2x----2x----2x----2x----2x----2x----2x--2x-|
A|---------------0x----0x----0x----0x----0x----0x----0x--0x-|
E|----------------------------------------------------------|

Outro: (4x)
e|-----------------------------------------|
B|-----------------------------------------|
G|-2-2-2-14-14-14-7-7-7-10-10-10-10-10-9-9-|
D|-2-2-2-14-14-14-7-7-7-10-10-10-10-10-9-9-|
A|-0-0-0-12-12-12-5-5-5--8--8--8--8--8-7-7-|
E|-----------------------------------------|

Outro Cont'd:
e|---------------------------------------------------------------------------|
B|---------------------------------------------------------------------------|
G|-2-2-2-5-5-5-7-7-7-10-10-10-10-10-9-9-2-2-2-5-5-5-7-7-7-10-10-10-10-10-9-9-|
D|-2-2-2-5-5-5-7-7-7-10-10-10-10-10-9-9-2-2-2-5-5-5-7-7-7-10-10-10-10-10-9-9-|
A|-0-0-0-3-3-3-5-5-5--8--8--8--8--8-7-7-0-0-0-3-3-3-5-5-5--8--8--8--8--8-7-7-|
E|---------------------------------------------------------------------------|

e|-------------------------------------------------------------------------|
B|-2-2-2-5-5-5-7-7-7-10-10-10-10-10-10-10-9-9-9-9-9-9-9-9------------------|
G|-2-2-2-5-5-5-7-7-7-10-10-10-10-10-10-10-9-9-9-9-9-9-9-9---------------2x-|
D|-0-0-0-3-3-3-5-5-5--8--8--8--8--8--8--8-7-7-7-7-7-7-7-7-3-0-2-0-3-2-0-2x-|
A|----------------------------------------------------------------------0x-|
E|-------------------------------------------------------------------------|

--------------------
GUITAR TWO'S PARTS
--------------------
Intro:
e|---------------------------------------------------------------------------|
B|---------------------------------------------------------------------------|
G|-2-2x---2-2x---2-2x-2-2x---2-2x---2-2x-5-5x---5-5x---5-5x-5-5x---5-5x------|
D|-2-2x---2-2x---2-2x-2-2x---2-2x---2-2x-5-5x---5-5x---5-5x-5-5x---5-5x------|
A|-0-0x---0-0x---0-0x-0-0x---0-0x---0-0x-3-3x---3-3x---3-3x-3-3x---3-3x------|
E|---------------------------------------------------------------------------|

e|---------------------------------------------------------------------------|
B|---------------------------------------------------------------------------|
G|-5-5x-7-7x---7-7x---7-7x-7-7x---7-7x---7-7x-2-2x---2-2x---2-2x-2-2x---2-2x-|
D|-5-5x-7-7x---7-7x---7-7x-7-7x---7-7x---7-7x-2-2x---2-2x---2-2x-2-2x---2-2x-|
A|-3-3x-5-5x---5-5x---5-5x-5-5x---5-5x---5-5x-0-0x---0-0x---0-0x-0-0x---0-0x-|
E|---------------------------------------------------------------------------|

Intro Cont'd: (2x)
e|--------------------------|
B|--------------------------|
G|--2~----5~----7~----2~----| you figure out
D|--2~----5~----7~----2~----| the strum pattern.
A|--0~----3~----5~----0~----|
E|--------------------------|

Verse: (4x)
e|-----------------------------------------------------------------|
B|-----------------------------------------------------------------|
G|-------2-2-2---------------------------2-2-2---------------------|
D|-------------0-0-0-3-3-3-2-2-0-0-------------0-0-0-3-3-3-2-2-0-0-|
A|-0-0-0-----------------------------------------------------------|
E|---------------------------------3-3-3---------------------------|
PM ...............................................................

Pre Chorus: Play Same as Guitar one, except for fill at end:
e|---------------|
B|---------------|
G|---------------|
D|-7-0-5-0-7-5-0-|
A|---------------|
E|---------------|

Chorus: Play same as Guitar One

2nd Verse: (2x)
e|------------------------------------------------------------|
B|------------------------------------------------------------|
G|------------------------------------------------------------|
D|------------------------------------------------------------|
A|-0-0-0-------5-5-5-3-3-3-2-2-3-3-0-0-0-3-3-3-------5-5-5----|
E|-------3-3-3---------------------------------3-3-3--------5-|
PM ..........................................................

Bridge:
e|------------------------------------------------------------|
B|------------------------------------------------------------|
G|------------------------------------------------------------|
D|-3--3-3-3-3-3-3-3-3-3-3-3-3-3-3-2-2-2-2-2-2-2-2--5x--5x--5x-|
A|-3--3-3-3-3-3-3-3-3-3-3-3-3-3-3-2-2-2-2-2-2-2-2--5x--5x--5x-|
E|-1--1-1-1-1-1-1-1-1-1-1-1-1-1-1-0-0-0-0-0-0-0-0--3x--3x--3x-|

Solo:
e|---------------------------------------------------------------------------|
B|---------------------------------------------------------------------------|
G|-------------9--9-9--9-9-9-9-10--10--10-10-10--10-10--10-10-10-10----------|
D|-7--7--7-7-7-9--9-9--9-9-9-9-10--10--10-10-10--10-10--10-10-10-10-7--7-----|
A|-7--7--7-7-7-7--7-7--7-7-7-7--8---8---8--8--8---8--8---8--8--8--8-7--7-----|
E|-5--5--5-5-5------------------------------------------------------5--5-----|

e|---------------------------------------------------------------------------|
B|---------------------------------------------------------------------------|
G|-------------------------------------------------9--9-9-9-7--10------------|
D|-7-7-7-5--5-5--5-5-5-5-3--3--3-3-3--3-3--3-3-3-3-x--x-x-x-x---x------------|
A|-7-7-7-5--5-5--5-5-5-5-3--3--3-3-3--3-3--3-3-3-3-7--7-7-7-5---8------------|
E|-5-5-5-3--3-3--3-3-3-3-1--1--1-1-1--1-1--1-1-1-1---------------------------|

e|---------------------------------------------------------------------------|
B|---------------------------------------------------------------------------|
G|-10-10-10-10-9--7--7-7-7-7-7-7-7-7--5--7--9--9--9-9-9-9-9-9-9-13-13-13-13--|
D|--x--x--x--x-x--x--x-x-x-x-x-x-x-x--x--x--x--x--x-x-x-x-x-x-x--x--x--x--x--|
A|--8--8--8--8-7--5--5-5-5-5-5-5-5-5--3--5--7--7--7-7-7-7-7-7-7-11-11-11-11--|
E|---------------------------------------------------------------------------|

e|------------------------------------------------|
B|------------------------------------------------|
G|-13-13-13-13-14-14-14-14-14-14-14-14-17--16--14-|
D|--x--x--x--x--x--x--x--x--x--x--x--x--x---x---x-|
A|-11-11-11-11-12-12-12-12-12-12-12-12-15--14--12-|
E|------------------------------------------------|

Interlude:
e|---------------------------------------------------------------------------|
B|---------------------------------------------------------------------------|
G|-2~------------------------------------------------------------------------|
D|-2~----------5-7---7-8---5-7---7-8---5-7---7-8---5-7---7-8---5-7---7-8-7-5-|
A|-0~--------0-----0-----0-----0-----0-----0-----0-----0-----0-----0---------|
E|---------------------------------------------------------------------------|

e|---------------------------------------------------------------------------|
B|---------------------------------------------------------------------------|
G|---------------------------------------------------------------------------|
D|---7-9---9-10---7-9---9-10---7-9---9-10---7-9---9-10---7-9---9-10-9-7---10-|
A|-0-----0------0-----0------0-----0------0-----0------0-----0----------0----|
E|---------------------------------------------------------------------------|

e|---------------------------------------------------------------------------|
B|---------------------------------------------------------------------------|
G|---------------------------------------------------------------------------|
D|--12---12-14---10-12---12-14---10-12---12-14---10-12---12-14---10-12---12--|
A|-----0-------0-------0-------0-------0-------0-------0-------0-------0-----|
E|---------------------------------------------------------------------------|

e|-----------------------------------------------------|
B|-----------------------------------------------------|
G|----------2x----2x----2x----2x----2x----2x----2x--2x-|
D|-14-12-10-2x----2x----2x----2x----2x----2x----2x--2x-|
A|----------0x----0x----0x----0x----0x----0x----0x--0x-|
E|-----------------------------------------------------|
Outro: Play same as Guitar One

ARTIST: Thrice
TITLE:  A Living Dance Upon Dead Minds
ALBUM:  The Illusion Of Safety
GENRE:  Post-Hardcore

by Luke Charman

Yep, I know Thrice don't normally use Drop D, but it's easy enough to move each note
down a couple to get to your Drop C tuning. I didnt wanna retune my guitar just to get this.

---

E|----------------------------------------------|
B|---------------------------9-10-9----9--------|
G|------------9-9-9-11-11-11--------11---11-9---|
D|---11-11-11-----------------------------------|
A|----------------------------------------------|
D|----------------------------------------------|

---

If you have any questions, comments, corrections, or whatever, my MSN Messenger address
is luke@so.org. You can email me there too if you want, but I don't check that address
all that often.
Song: Where Idols Once Stood
Artist: Thrice
Album: Illusion of Safety
Tabbed by: Christian / silent_warrior_@hotmail.com

PM - Palm mute
/ - Slide up
\ - Slide down


Tuning: Half a step down (Eb Ab Db Gb Bb Eb)


Intro
|------------------------|
|------------------------|
|------------------------|
|-22222222--2222--2222---|
|-22222222--2222--2222---|
|-00000000--0000--0000---|
PM--------  ----  -------|


Verse
|-------------------------------------------------------------|
|-------------------------------------------------------------|
|-------------------------------------------------------------|
|-----------------------------------2---2-2-2-2-222-2-2-2-2-2-|
|-----9-----7-----5-----10-----9----2---2-2-2-2-222-2-2-2-2-2-|
|-0-7---0-8---0-7---0-8----0-7---7--0---0-0-0-0-000-0-0-0-0-0-|
PM                                      - - - - --- - - - - -


|----------|
|----------|
|-12----11-|
|----------|
|-10-----9-|
|----------|


|----------------------|
|----------------------|
|----------------------|
|-22222222--2222--2222-|
|-22222222--2222--2222-|
|-00000000--0000--0000-|


|-------------------------------------------------------------|
|-------------------------------------------------------------|
|-------------------------------------------------------------|
|-----------------------------------2---2-2-2-2-222-2-2-2-2-2-|
|-----9-----7-----5-----10-----9----2---2-2-2-2-222-2-2-2-2-2-|
|-0-7---0-8---0-7---0-8----0-7---7--0---0-0-0-0-000-0-0-0-0-0-|
PM                                      - - - - --- - - - - -


|-------------------------------------------------------------------------------------------------------------|
|-------------------------------------------------------------------------------------------------------------|
|-------------------------------------------------------------------------------------------------------------|
|-2--2--2--2------------------------------------222-222-2--222-2-222-2-2--------------------------------------|
|-2--2--2--2------9-----7-----5-----10-----9----222-222-2--222-2-222-2-2------9-----7-----5-----10-----9------|
|-0--0--0--0--0-7---0-8---0-7---0-8----0-7---7--000-000-0--000-0-000-0-0--0-7---0-8---0-7---0-8----0-7---7-0--|
PM                                              --- ---    ---   ---------------------------------------------|


Breakdown
|----------------------------------------------------|
|----------------------------------------------------|
|----------------------------------------------------|
|-22222222--222--2-2-2-2-2-2--2-2--2-2-2--222--2-2-2-|
|-22222222--222--2-2-2-2-2-2--2-2--2-2-2--222--2-2-2-|
|-00000000--000--0-0-0-0-0-0--0-0--0-0-0--000--0-0-0-|
  --------  ---  - - - - - -  - -  - - -  ---  - - -


|-----------------------------------------------------------------------------------------------------|
|-----------------------------------------------------------------------------------------------------|
|-12-11--11/12\11--11-12-12-12-12-12-11---14-14--14-14-14--14-14-14--14-14-14--14-12--11---9----11-11-|
|-----------------------------------------------------------------------------------------------------|
|-10--9---9/10-\9---9-10-10-10-10-10--9---12-12--12-12-12--12-12-12--12-12-12--12-10---9---7-----9--9-|
|-----------------------------------------------------------------------------------------------------|


|---------------------------------|
|-0-7-8-7-------5-7--0-7-8-7-10-8-|
|---------9-7-0-------------------|
|---------------------------------|
|---------------------------------|
|---------------------------------|


|---------------------------------|
|---------------------------------|
|-9-9-9-9-9-9-9-9-9-9-9-9-9-9-9-9-|
|---------------------------------|
|-7-7-7-7-7-7-7-7-7-7-7-7-7-7-7-7-|
|---------------------------------|


|--------------------0---------------------0-|
|--------------------0---------------------0-|
|-4/5--5-5-5-5-------0--5/7--7-7-7-7-------0-|
|-4/5--5-5-5-5-2--2-----5/7--7-7-7-7-2--2----|
|-2/3--3-3-3-3-2--2-----3/5--5-5-5-5-2--2----|
|--------------0--0------------------0--0----|


|-----------------------------|
|-----------------------------|
|-7-7-7-7-9-9-9-9-11-11-11-11-|
|-----------------------------|
|-5-5-5-5-7-7-7-7--9--9--9--9-|
|-----------------------------|


|-----------------------------------------------------------------------------------------------------------------------|
|-----------------------------------------------------------------------------------------------------------------------|
|14-14-14-14-14-14-14-14-14-14-11-11-11-11-11-11-11-11-11-11-16-16-16-16-16-16-16-16-16-16-14-14-14-14-14-14-14-14-14-14|
|-----------------------------------------------------------------------------------------------------------------------|
|12-12-12-12-12-12-12-12-12-12--9--9--9--9--9--9--9--9--9--9-14-14-14-14-14-14-14-14-14-14-12-12-12-12-12-12-12-12-12-12|
|-----------------------------------------------------------------------------------------------------------------------|


Outro
|-------------------------------------------------------------------------------|
|-------------------------------------------------------------------------------|
|-12--11---12--12/14--12-12-11/12\11--9---5--4--5--12---------------------------|
|-------------------------------------------------------------------------------|
|-10---9---10--10/12--10-10--9/10\-9--7---3--2--3--10---------------------------|
|-------------------------------------------------------------------------------|
--------------------------------------------------------------------------------|
                          TRUST - Thrice
-------------------------------------------------------------------------------

By:  whocares777

DROP C# TUNING

/ \ - slide
>   - strum for a long time
~   - let ring out


GUITAR 1'S PARTS:
-----------------
Intro:  (slight palm mute)  (2x)
e|---------------------------------------------------------------------------|
B|---------------------------------------------------------------------------|
G|----7-6-------7-6-9-----7-6-------7-6---9-7-9/11-9-7-----------------------|
D|7/9-----7-9-9-------7-9-----7-9-9-----9--------------5>--------------------|
A|-----------------------------------------------------5>--------------------|
E|-----------------------------------------------------5>--------------------|

Verse:  (4x)
e|2-----2-----0-----0-----5-----5-----2-----0--------------------------------|
B|--3-----3-----3-----3-----3-----3-----3-----3------------------------------|
G|----4-----4-----4-----4-----4-----4-----4-----4----------------------------|
D|---------------------------------------------------------------------------|
A|---------------------------------------------------------------------------|
E|---------------------------------------------------------------------------|

Next Part:  "Save my life..."  (2x)
e|---------------------------------------------------------------------------|
B|---------------------------------------------------------------------------|
G|------------11-11-------------11-11-11-------------------------------------|
D|9-9-9-9-9-9--x--x-9-9-9-9-9-9--x--x--x-------------------------------------|
A|9-9-9-9-9-9--9--9-9-9-9-9-9-9--9--9--9-------------------------------------|
E|9-9-9-9-9-9-------9-9-9-9-9-9----------------------------------------------|

Next Part Cont'd:
e|---------------------------------------------------------------------------|
B|---------------------------------------------------------------------------|
G|---------------------------------------------------------------------------|
D|9-9-9-9-9-9-7-7-7-7-7-7-5-5-5-5-5-5-7-7-7-7-7-7----------------------------|
A|5-5-5-5-5-5-5-5-5-5-5-5-5-5-5-5-5-5-5-5-5-5-5-5----------------------------|
E|5-5-5-5-5-5-5-5-5-5-5-5-5-5-5-5-5-5-5-5-5-5-5-5----------------------------|

Repeat Verse

Chorus:
e|5-5-5-5-5-5----------------------------------------------------------------|
B|7-7-7-7-7-7-8-8-8-8-8-8-5-5-5-5-5-5-7-7-7-5-5-5-7-7-7-7-7-7-5-5-5-5-5-5----|
G|7-7-7-7-7-7-7-7-7-7-7-7-7-7-7-7-7-7-7-7-7-7-7-7-7-7-7-7-7-7-7-7-7-7-7-7----|
D|---------------------------------------------------------------------------|
A|---------------------------------------------------------------------------|
E|---------------------------------------------------------------------------|

Chorus Cont'd:
e|5-5-5-5-5-5----------------------------------------------------------------|
B|7-7-7-7-7-7-7-7-7-5-5-5-10-10-10-10-10-10-7-7-7-7-7-7-5-5-5-5-5-5-7-7-7-5-5|
G|7-7-7-7-7-7-7-7-7-7-7-7--7--7--7--7--7--7-7-7-7-7-7-7-7-7-7-7-7-7-7-7-7-7-7|
D|---------------------------------------------------------------------------|
A|---------------------------------------------------------------------------|
E|---------------------------------------------------------------------------|

Chorus Cont'd:
e|---------------------------------------------------------------------------|
B|5-7-7-7-7-7-7-5-5-5-5-5-5-10-10-10-10-10-10-7-7-7-5-5-5--------------------|
G|7-7-7-7-7-7-7-7-7-7-7-7-7--7--7--7--7--7--7-7-7-7-7-7-7--------------------|
D|---------------------------------------------------------------------------|
A|---------------------------------------------------------------------------|
E|---------------------------------------------------------------------------|

Last Part:
e|---------------------------------------------------------------------------|
B|---------------------------------------------------------------------------|
G|------11-11-11-------9-9-9-------7-7-7-------6-6-6-------18-18-18----------|
D|5-5-5--x--x--x-5-5-5-x-x-x-5-5-5-x-x-x-5-5-5-x-x-x-9-9-9--x--x--x-9-9-9----|
A|5-5-5--9--9--9-5-5-5-7-7-7-5-5-5-5-5-5-5-5-5-4-4-4-9-9-9-16-16-16-9-9-9----|
E|5-5-5----------5-5-5-------5-5-5-------5-5-5-------9-9-9----------9-9-9----|

Last Part Cont'd:
e|---------------------------------------------------------------------------|
B|---------------------------------------------------------------------------|
G|16-16-16-------14-14-14-------12-14-14-------18-18-18-------16-16-16-------|
D|-x--x--x-9-9-9--x--x--x-9-9-9--x--x--x-5-5-5--x--x--x-5-5-5--x--x--x-------|
A|14-14-14-9-9-9-12-12-12-9-9-9-10-12-12-5-5-5-16-16-16-5-5-5-14-14-14-------|
E|---------9-9-9----------9-9-9----------5-5-5----------5-5-5----------------|

Last Part Cont'd:
e|---------------------------------------------------------------------------|
B|---------------------------------------------------------------------------|
G|------14-14-14-------12-12-12-11~------------------------------------------|
D|7-7-7--x--x--x-7-7-7--x--x--x--x-------------------------------------------|
A|7-7-7-12-12-12-7-7-7-10-10-10--9~------------------------------------------|
E|7-7-7----------7-7-7-------------------------------------------------------|

GUITAR 2'S PARTS:
-----------------
Intro:  (Slight palm mute)
e|---------------------------------------------------------------------------|
B|----------------------------------------14-14-14-14-14-14-12-12-12-12-12-12|
G|6-6-7-9-9-6-6-7-9-9-6-6-7-9-9-6-6-7-9-9-12-12-12-12-12-12-12-12-12-12-12-12|
D|9-9-9-9-9-9-9-9-9-9-9-9-9-9-9-9-9-9-9-9-12-12-12-12-12-12-12-12-12-12-12-12|
A|---------------------------------------------------------------------------|
E|---------------------------------------------------------------------------|

Intro Cont'd:
e|---------------------------------------------------------------------------|
B|14-14-14-14-14-14-12-12-12-12-12-12----------------------------------------|
G|12-12-12-12-12-12-12-12-12-12-12-12-6-6-7-9-9-6-6-7-9-9-6-6-7-9-9-6-6-7-9-9|
D|12-12-12-12-12-12-12-12-12-12-12-12-9-9-9-9-9-9-9-9-9-9-9-9-9-9-9-9-9-9-9-9|
A|---------------------------------------------------------------------------|
E|---------------------------------------------------------------------------|

Intro Cont'd:
e|---------------------------------------------------------------------------|
B|14-14-14-14-14-14-12-12-12-12-12-12-14-14-14-14-14-14-12-12-12-12-12-12----|
G|12-12-12-12-12-12-12-12-12-12-12-12-12-12-12-12-12-12-12-12-12-12-12-12----|
D|12-12-12-12-12-12-12-12-12-12-12-12-12-12-12-12-12-12-12-12-12-12-12-12----|
A|---------------------------------------------------------------------------|
E|---------------------------------------------------------------------------|

Intro Cont'd:
e|---------------------------------------------------------------------------|
B|14-14-14-14-14-14-15-15-15-15-15-15-15-15-15-15-15-15-15-14-12-15-15-15-14~|
G|12-12-12-12-12-12-12-12-12-12-12-12-12-12-12-12-12-12-12-12-12-12-12-12----|
D|12-12-12-12-12-12-12-12-12-12-12-12-12-12-12-12-12-12-12-12-12-12-12-12----|
A|---------------------------------------------------------------------------|
E|---------------------------------------------------------------------------|

Verse:  (2x)
e|---------------------------------------------------------------------------|
B|3-----3-----2-----2-----3-----3-----2-----2-----3-----3-----2-----2--------|
G|--4-----4-----4-----4-----4-----4-----4-----4-----4-----4-----4-----4------|
D|----4-----4-----4-----4-----4-----4-----4-----4-----0-----0-----0-----0----|
A|---------------------------------------------------------------------------|
E|---------------------------------------------------------------------------|

Verse Cont'd:
e|---------------------------------------------------------------------------|
B|3-----3-----2-----2--------------------------------------------------------|
G|--4-----4-----4-----4------------------------------------------------------|
D|----0-----0-----0-----0----------------------------------------------------|
A|---------------------------------------------------------------------------|
E|---------------------------------------------------------------------------|

Next Part:  "Save my life..."  (2x)
e|---------------------------------------------------------------------------|
B|---------------------------------------------------------------------------|
G|------------11-11-------------11-11-11-------------------------------------|
D|9-9-9-9-9-9--9--9-9-9-9-9-9-9--9--9--9-------------------------------------|
A|9-9-9-9-9-9--9--9-9-9-9-9-9-9--9--9--9-------------------------------------|
E|9-9-9-9-9-9--9--9-9-9-9-9-9-9--9--9--9-------------------------------------|

Next Part Cont'd:
e|---------------------------------------------------------------------------|
B|---------------------------------------------------------------------------|
G|---------------------------------------------------------------------------|
D|9-9-9-9-9-9-7-7-7-7-7-7-5-5-5-5-5-5-7-7-7-7-7-7----------------------------|
A|5-5-5-5-5-5-5-5-5-5-5-5-5-5-5-5-5-5-5-5-5-5-5-5----------------------------|
E|5-5-5-5-5-5-5-5-5-5-5-5-5-5-5-5-5-5-5-5-5-5-5-5----------------------------|

Repeat Verse

Chorus:  (You figure out strumming)
e|---------------------------------------------------------------------------|
B|---------------------------------------------------------------------------|
G|---------------------------------7-------7---------------------------------|
D|0---11---12---11---12---11---5---5---5---5---12---11---12---11-------------|
A|0----0----9----9----9----9---5---5---5---5----9----9----9----9-------------|
E|0----0----9----9----9----9---5---5---5---5----9----9----9----9-------------|

Last Part:
e|---------------------------------------------------------------------------|
B|---------------------------------------------------------------------------|
G|------14-14-14-------12-12-12-------11-11-11-------9-9-9-------14-14-14----|
D|5-5-5--x--x--x-5-5-5--x--x--x-5-5-5--x--x--x-5-5-5-x-x-x-9-9-9--x--x--x----|
A|5-5-5-12-12-12-5-5-5-10-10-10-5-5-5--9--9--9-5-5-5-7-7-7-9-9-9-12-12-12----|
E|5-5-5----------5-5-5----------5-5-5----------5-5-5-------9-9-9-------------|

Last Part Cont'd:
e|---------------------------------------------------------------------------|
B|---------------------------------------------------------------------------|
G|------12-12-12-------11-11-11-------9-11-11-------14-14-14-------12-12-12--|
D|9-9-9--x--x--x-9-9-9--x--x--x-9-9-9-x--x--x-5-5-5--x--x--x-5-5-5--x--x--x--|
A|9-9-9-10-10-10-9-9-9--9--9--9-9-9-9-7--9--9-5-5-5-12-12-12-5-5-5-10-10-10--|
E|9-9-9----------9-9-9----------9-9-9---------5-5-5----------5-5-5-----------|

Last Part Cont'd:
e|---------------------------------------------------------------------------|
B|---------------------------------------------------------------------------|
G|------11-11-11-------9-9-9-7~----------------------------------------------|
D|7-7-7--x--x--x-7-7-7-x-x-x-x-----------------------------------------------|
A|7-7-7--9--9--9-7-7-7-7-7-7-5~----------------------------------------------|
E|7-7-7----------7-7-7-------------------------------------------------------|


===============================================================================
#----------------------------------PLEASE NOTE--------------------------------#
#This file is the author's own work and represents their interpretation of the#
#song. You may only use this file for private study, scholarship, or research.#
#-----------------------------------------------------------------------------#
#-- File created with Instab - http://www.pconline.com/~smcarey/instab.html --#
#-----------------------------------------------------------------------------#

Author/Artist: Thrice
Title: To Awake And Avenge The Dead
Album: The Illusion Of Safety
Transcribed by: Justin McCarthy
Email: CTRDrummer@aol.com check out my band crosstownrival at
www.mp3.com/crosstownrival


all guitars tunned down half-step and Drop Db/C#


1st guitar
intro
eb:----------------------------------------------------------------------|  play 4 times
Bb:----------------------------------------------------------------------|
Gb:----------------------------------------------------------------------|
Db:----------------------------------------------------------------------|
Ab:----5p3---8p7-0-10p8-0-8-0-8p7-0-7---5p3---8p7-0-10p8-0-8-0-8p7p0-h3--|
Db:--0-----0--------------------------0-----0----------------------------|


eb:--------------------------------------------------------------------------| play 2 times
Bb:--------------------------------------------------------------------------|
Gb:--------------------------------------------------------------------------|
Db:--------------------------------------------------------------------------|
Ab:--8p7-12p10-0-13p12-0-12-0-12p10-0-10-8p7-12p10-0-13p12-0-12-0-12p10p0h7--|
Db:-0---0-------------------------------0---0--------------------------------|


eb:-------------------------------------------------------------------|
Bb:----3-1-------------3-1-------------3-1----------------------------|
Gb:--------2-3p0-2---------2-3p0-2---------2-3p0-2---0----------------|
Db:--0-------------3-0-------------3-0-------------3---2-3-0-2-0-2-3--|
Ab:-------------------------------------------------------------------|
Db:-------------------------------------------------------------------|
     old friend they told me you were dead, the news boradcast the funeral
eb:-------------------------------------------------------------------|
Bb:----3-1-------------3-1-------------3-1----------------------------|
Gb:--------2-3p0-2---------2-3p0-2---------2-3p0-2---0----------------|
Db:--0-------------3-0-------------3-0-------------3---2-3-0-2-0-2-3--|
Ab:-------------------------------------------------------------------|
Db:-------------------------------------------------------------------|
    500 channels focus in               your love was

eb:-------------------------------------------------------------------|
Bb:----3-1-------------3-1-------------3-1----------------------------|
Gb:--------2-3p0-2---------2-3p0-2---------2-3p0-2---0----------------|
Db:--0-------------3-0-------------3-0-------------3---2-3-0-2-0-2-3--|
Ab:-------------------------------------------------------------------|
Db:-------------------------------------------------------------------|
     ravished, drawn and quartered, the soil was swift to drink her blood;

eb:-----------------------------------------------------|
Bb:----3-1-------------3-1------------------------------|
Gb:--------2-3p0-2---------2-3p0-2----7---10--15---14---|
Db:--0-------------3-0-------------3--------------------|
Ab:-----------------------------------5---8---13---12---|
Db:-----------------------------------------------------|
   this violence in the name of love

eb:---------------------------17-----------------------------------------|play 2 times
Bb:-----------------------------18---------------------------------------|
Gb:-------------------------------19-------------------------------------|
Db:---------------------------------19--------------------------8-7-8/10-|
Ab:-------------------------------------------------------------8-7-8/10-|
Db:--000-000-0-000-0-000-0000----------000-000-0-000-0-000-0000-8-7-8/10-|

eb:---------------------------17-----------------------------------------|play 2 times
Bb:-----------------------------18---------------------------------------|
Gb:-------------------------------19-------------------------------------|
Db:---------------------------------19--------------------------8-7-8/10-|
Ab:-------------------------------------------------------------8-7-8/10-|
Db:--000-000-0-000-0-000-0000----------000-000-0-000-0-000-0000-8-7-8/10-|
     But I still feel you		despite your tombstone.

eb:---------------------------------------------------------------------|
Bb:---------------------------------------------------------------------|
Gb:---------------------------------------------------------------------|
Db:---------------------------------------------------------------------|
Ab:----5p3---8p7-0-10p8-0-8-0-8p7-0-7---5p3---8p7-0-10p8-0-8-0-8p7p0-h3-|
Db:--0-----0--------------------------0-----0---------------------------|
   so friend you must still walk among us
eb:---------------------------------------------------------------------|
Bb:---------------------------------------------------------------------|
Gb:---------------------------------------------------------------------|
Db:---------------------------------------------------------------------|
Ab:----5p3---8p7-0-10p8-0-8-0-8p7-0-7---5p3---8p7-0-10p8-0-8-0-8p7p0-h3-|
Db:--0-----0--------------------------0-----0---------------------------|
    in places we don't dare to glance

eb:-------------------------------------------------------------------------|
Bb:-------------------------------------------------------------------------|
Gb:-------------------------------------------------------------------------|
Db:-------------------------------------------------------------------------|
Ab:--8p7-12p10-0-13p12-0-12-0-12p10-0-10-8p7-12p10-0-13p12-0-12-0-12p10p0h7-|
Db:-0---0-------------------------------0---0-------------------------------|
    I saw you killing aristotle.

eb:-------------------------------------------------------------------------|
Bb:-------------------------------------------------------------------------|
Gb:-------------------------------------------------------------------------|
Db:-------------------------------------------------------------------------|
Ab:--8p7-12p10-0-13p12-0-12-0-12p10-0-10-8p7-12p10-0-13p12-0-12-0-12p10p0h7-|
Db:-0---0-------------------------------0---0-------------------------------|
     but I know its all part of the plan.

eb:-------------------------------------------------------------------|
Bb:----3-1-------------3-1-------------3-1----------------------------|
Gb:--------2-3p0-2---------2-3p0-2---------2-3p0-2---0----------------|
Db:--0-------------3-0-------------3-0-------------3---2-3-0-2-0-2-3--|
Ab:-------------------------------------------------------------------|
Db:-------------------------------------------------------------------|
     old friend they told me you were dead, the news boradcast the funeral
eb:-------------------------------------------------------------------|
Bb:----3-1-------------3-1-------------3-1----------------------------|
Gb:--------2-3p0-2---------2-3p0-2---------2-3p0-2---0----------------|
Db:--0-------------3-0-------------3-0-------------3---2-3-0-2-0-2-3--|
Ab:-------------------------------------------------------------------|
Db:-------------------------------------------------------------------|
    500 channels focus in               your love was

eb:-------------------------------------------------------------------|
Bb:----3-1-------------3-1-------------3-1----------------------------|
Gb:--------2-3p0-2---------2-3p0-2---------2-3p0-2---0----------------|
Db:--0-------------3-0-------------3-0-------------3---2-3-0-2-0-2-3--|
Ab:-------------------------------------------------------------------|
Db:-------------------------------------------------------------------|
     ravished, drawn and quartered, the soil was swift to drink her blood;


eb:-------------------------------------------------------------------|
Bb:----3-1-------------3-1-------------3-1----------------------------|
Gb:--------2-3p0-2---------2-3p0-2---------2-3p0-2---0----------------|
Db:--0-------------3-0-------------3-0-------------3---2-3-0-2-0-2-3--|
Ab:-------------------------------------------------------------------|
Db:-------------------------------------------------------------------|
     this violence in the name of love

eb:--*strum each chord 8 times quickly*-------------------------------|
Bb:-------------------------------------------------------------------|
Gb:--7--9--10-15-14-12-9--10-7--9--10-12--9--10-12-15-----------------|
Db:-------------------------------------------------------------------|
Ab:--5--7--8--13-12-10-7--8--5--7--8--10--7--8--10-13-----------------|
Db:-------------------------------------------------------------------|
   my friend they told me you were dead, then news broadcast at the funeral
500 channels focus in. your love was ravished, drawn and quatered, the soil was swift
to drink her blood, this violence, this violence, this violence in the name of love.

eb:-----------------------------------------------------------------------|
Bb:-----------------------------------------------------------------------|harmonics
Gb:---------7\5---5\3---3---3\2----------7\5---5\3---3---5^---------------|
Db:--0--3/5-7\5---5\3---3---3\2-x-0--3/5-7\5---5\3---3-----5^-------------|
Ab:--0--3/5-5\3-0-3\1-0-1-0-1\0-x-0--3/5-5\3-0-3\1-0-1-5^-----------------|
Db:--0--3/5---------------------x-0--3/5----------------------------------|


eb:----------------------------------------------------------------|
Bb:----------------------------------------------------------------|
Gb:---------7\5---5\3---3---3\2-----------7/5---5\3---3---3-2------|
Db:--0--3/5-7\5---5\3---3---3\2-x-0--3/5--7/5---5\3---3---3-2-3----|
Ab:--0--3/5-5\3-0-3\1-0-1-0-1\0-x-0--3/5--5/3-0-3\1-0-1-0-1-0-3----|
Db:--0--3/5---------------------x-0--3/5----------------------3----|

eb:---------------------------------------------------------------------------|
Bb:---------------------------------------------------------------------------|
Gb:---------7\5---5\3---3---3\2----------7\5---5\3---3---5^-------------------|harmonics
Db:--0--3/5-7\5---5\3---3---3\2-x-0--3/5-7\5---5\3---3-----5^-----------------|
Ab:--0--3/5-5\3-0-3\1-0-1-0-1\0-x-0--3/5-5\3-0-3\1-0-1-5^---------------------|
Db:--0--3/5---------------------x-0--3/5--------------------------------------|


eb:-----------------------------------------------------------------------|
Bb:-----------------------------------------------------------------------|
Gb:---------7\5---5\3---3---3\2-----------7/5---5\3---3---3---2-----------|
Db:--0--3/5-7\5---5\3---3---3\2-x-0--3/5--7/5---5\3---3---3---2---3----0--|
Ab:--0--3/5-5\3-0-3\1-0-1-0-1\0-x-0--3/5--5/3-0-3\1-0-1-0-1---0---3----0--|
Db:--0--3/5---------------------x-0--3/5--------------------------3----0--|


eb:--------------------------------------17p13------------|
Bb:--------------------------------------------15---------|
Gb:-----------------------------------------------14------|
Db:-----12-------14----14h15-------14h15------------------|
Ab:--------13-12----12------------------------------------|
Db:--12----------------------12-12------------------------|


eb:--------------------------/13-12-13h15p13p12h13p12--------|
Bb:---------------------------------------------------13/15--|
Gb:----------------------------------------------------------|
Db:-----12-------14----14h15---------------------------------|
Ab:--------13-12----12---------------------------------------|
Db:--12------------------------------------------------------|

eb:--------------------------------------17p13---------------|
Bb:--------------------------------------------15------------|
Gb:-----------------------------------------------14---------|
Db:-----12-------14----14h15-------14h15---------------------|
Ab:--------13-12----12---------------------------------------|
Db:--12----------------------12-12---------------------------|


eb:--------------------------/13-12-13h15p13p12h13p12--------|
Bb:---------------------------------------------------13/15--|
Gb:----------------------------------------------------------|
Db:-----12-------14----14h15---------------------------------|
Ab:--------13-12----12---------------------------------------|
Db:--12------------------------------------------------------|

eb:--------------------------------------17p13---------------|
Bb:--------------------------------------------15------------|
Gb:-----------------------------------------------14---------|
Db:-----12-------14----14h15-------14h15---------------------|
Ab:--------13-12----12---------------------------------------|
Db:--12----------------------12-12---------------------------|
						TO

eb:--------------------------------------17p13---------------|
Bb:--------------------------------------------15------------|
Gb:-----------------------------------------------14---------|
Db:-----12-------14----14h15-------14h15---------------------|
Ab:--------13-12----12---------------------------------------|
Db:--12----------------------12-12---------------------------|
						AWAKE

eb:--------------------------------------17p13---------------|
Bb:--------------------------------------------15------------|
Gb:-----------------------------------------------14---------|
Db:-----12-------14----14h15-------14h15---------------------|
Ab:--------13-12----12---------------------------------------|
Db:--12----------------------12-12---------------------------|
						AND

eb:--------------------------/13-12-13h15p13p12h13p12--------|
Bb:---------------------------------------------------13/15--|
Gb:----------------------------------------------------------|
Db:-----12-------14----14h15---------------------------------|
Ab:--------13-12----12---------------------------------------|
Db:--12------------------------------------------------------|
						AVENGE THE

eb:--------------------------------------17p13---------------|
Bb:--------------------------------------------15------------|
Gb:-----------------------------------------------14---------|
Db:-----12-------14----14h15-------14h15---------------------|
Ab:--------13-12----12---------------------------------------|
Db:--12----------------------12-12---------------------------|
     DEAD					TO

eb:--------------------------------------17p13---------------|
Bb:--------------------------------------------15------------|
Gb:-----------------------------------------------14---------|
Db:-----12-------14----14h15-------14h15---------------------|
Ab:--------13-12----12---------------------------------------|
Db:--12----------------------12-12---------------------------|
						AWAKE

eb:--------------------------------------17p13---------------|
Bb:--------------------------------------------15------------|
Gb:-----------------------------------------------14---------|
Db:-----12-------14----14h15-------14h15---------------------|
Ab:--------13-12----12---------------------------------------|
Db:--12----------------------12-12---------------------------|
						AND

eb:--------------------------/13-12-13h15p13p12h13p12--------|
Bb:---------------------------------------------------13/15--|
Gb:----------------------------------------------------------|
Db:-----12-------14----14h15---------------------------------|
Ab:--------13-12----12---------------------------------------|
Db:--12------------------------------------------------------|
						AVENGE THE

eb:----------------------------------------------------------|
Bb:----------------------------------------------------------|
Gb:----------------------------------------------------------|
Db:--------------0---------------0--0--0---------------------|
Ab:--------------0---------------0--0--0---------------------|
Db:--0-0-0-0-0-0-0---0-0-0-0-0-0-0--0--0---------------------|
      DEAD


============================================================================

2nd guitar
intro
eb:--------------------------------|
Bb:--------------------------------|
Gb:----------------------------5---|
Db:--0-------------3-----------5---|
Ab:--0-------------3-----------3---|
Db:--0-------------3---------------|

eb:----------------------------------------------------------------------|  play 4 times
Bb:----------------------------------------------------------------------|
Gb:----------------------------------------------------------------------|
Db:----------------------------------------------------------------------|
Ab:----5p3---8p7-0-10p8-0-8-0-8p7-0-7---5p3---8p7-0-10p8-0-8-0-8p7p0-h3--|
Db:--0-----0--------------------------0-----0----------------------------|

verse
eb:-------------------------------------------------------------------|
Bb:--3--3--3-3-3-3--3-3--3-3-3-3-3--3--3-3-3-3--3-3--3-3-3-3----------|
Gb:--3--3--3-3-3-3--3-3--3-3-3-3-3--3--3-3-3-3--3-3--3-3-3-3----------|
Db:--3--3--3-3-3-3--3-3--3-3-3-3-3--3--3-3-3-3--3-3--3-3-3-3----------|
Ab:--1--1--1-1-1-1--1-1--1-1-1-1-1--1--1-1-1-1--1-1--1-1-1-1----------|
Db:-------------------------------------------------------------------|
    my friend they told me you were dead, the news broadcast the funeral

eb:-------------------------------------------------------------------|
Bb:--7--7--7-7-7-7--7-7--7-7-7-7-7--7--7-7-7-7--7-7--7-7-7-7----------|
Gb:--7--7--7-7-7-7--7-7--7-7-7-7-7--7--7-7-7-7--7-7--7-7-7-7----------|
Db:--7--7--7-7-7-7--7-7--7-7-7-7-7--7--7-7-7-7--7-7--7-7-7-7----------|
Ab:--5--5--5-5-5-5--5-5--5-5-5-5-5--5--5-5-5-5--5-5--5-5-5-5----------|
Db:--0--0--0-0-0-0--0-0--0-0-0-0-0--0--0-0-0-0--0-0--0-0-0-0----------|
   500 channels focus in                                             repeat the verse

eb:--------13p10--------------------------------------------------|
Bb:-rest---------11-----------------------------------------------|
Gb:---------------------------------------------------------------|
Db:-----------------12---------------------------8-7-8/10---------|
Ab:----------------------------------------------8-7-8/10---------|
Db:---------------------000-000-0-000-0-000-0000-8-7-8/10---------|

eb:---------------------------13p10-----------------------------------------|
Bb:---------------------------------11--------------------------------------|
Gb:-------------------------------------------------------------------------|
Db:------------------------------------12--------------------------8-7-8/10-|
Ab:----------------------------------------------------------------8-7-8/10-|
Db:--000-000-0-000-0-000-0000-------------000-000-0-000-0-000-0000-8-7-8/10-|

eb:---------------------------13p10-----------------------------------------|play 2 times
Bb:---------------------------------11--------------------------------------|
Gb:-------------------------------------------------------------------------|
Db:------------------------------------12--------------------------8-7-8/10-|
Ab:----------------------------------------------------------------8-7-8/10-|
Db:--000-000-0-000-0-000-0000-------------000-000-0-000-0-000-0000-8-7-8/10-|
     But I still feel you		despite your tombstone.

eb:-----------------------------------------------------------|
Bb:-----------------------------------------------------------|
Gb:--3--3--3-3-3----------------------------------------------|
Db:--3--3--3-3-3-5--5-5--5-5-5-5-0--0--0-0-0-0--0-0--0-0-0-0--|
Ab:--1--1--1-1-1-5--5-5--5-5-5-5-0--0--0-0-0-0--0-0--0-0-0-0--|
Db:--------------5--5-5--5-5-5-5-0--0--0-0-0-0--0-0--0-0-0-0--|
     so friend you must still walk among us

eb:------------------------------------------------------------|
Bb:------------------------------------------------------------|
Gb:--3--3--3-3-3-----------------------------------------------|
Db:--3--3--3-3-3-5--5-5--5-5-5-5-0--0--0-0-0-0--0-0--0-0-0-0---|
Ab:--1--1--1-1-1-5--5-5--5-5-5-5-0--0--0-0-0-0--0-0--0-0-0-0---|
Db:--------------5--5-5--5-5-5-5-0--0--0-0-0-0--0-0--0-0-0-0---|
     in places we don't dare to glance

eb:------------------------------------------------------------|
Bb:------------------------------------------------------------|
Gb:--3--3--3-3-3-----------------------------------------------|
Db:--3--3--3-3-3-5--5-5--5-5-5-5-0--0--0-0-0-0--0-0--0-0-0-0---|
Ab:--1--1--1-1-1-5--5-5--5-5-5-5-0--0--0-0-0-0--0-0--0-0-0-0---|
Db:--------------5--5-5--5-5-5-5-0--0--0-0-0-0--0-0--0-0-0-0---|
     I saw you killing aristotle.

eb:------------------------------------------------------------|
Bb:------------------------------------------------------------|
Gb:--3--3--3-3-3--------------------2--2-2-2-2--2-2--2-2-2-2---|
Db:--3--3--3-3-3-5--5-5--5-5-5-5-2--2--2-2-2-2--2-2--2-2-2-2---|
Ab:--1--1--1-1-1-5--5-5--5-5-5-5-0--0--0-0-0-0--0-0--0-0-0-0---|
Db:--------------5--5-5--5-5-5-5-------------------------------|
     but i know its all part of the plan
outro
eb:------------------------|
Bb:------------------------|
Gb:---------3-------5------|
Db:--0------3-------5------|
Ab:--0------1-------3------|
Db:--0---------------------|


eb:-----------------------------------------------------------------------|
Bb:-----------------------------------------------------------------------|
Gb:-----------------------------------------------------------------------|
Db:--------------0-------------0--0--0----------------0-----------0--0--0-|
Ab:--------------0-------------0--0--0----------------0-----------0--0--0-|
Db:--0-0-0-0-0-0-0---0-0-0-0-0-0--0--0----0-0-0-0-0-0-0---0-0-0-0-0--0--0-|
                                  TO                                AWAKE

eb:-----------------------------------------------------------------------|
Bb:-----------------------------------------------------------------------|
Gb:--------------3-------------3--3--3----------------5-----------5--5--5-|
Db:--------------3-------------3--3--3----------------5-----------5--5--5-|
Ab:--1-1-1-1-1-1-1---1-1-1-1-1-1--1--1----3-3-3-3-3-3-3---3-3-3-3-3--3--3-|
Db:-----------------------------------------------------------------------|
                                AND                           AVENGE THE

eb:-----------------------------------------------------------------------|
Bb:-----------------------------------------------------------------------|
Gb:-----------------------------------------------------------------------|
Db:--------------0-------------0--0--0----------------0-----------0--0--0-|
Ab:--------------0-------------0--0--0----------------0-----------0--0--0-|
Db:--0-0-0-0-0-0-0---0-0-0-0-0-0--0--0----0-0-0-0-0-0-0---0-0-0-0-0--0--0-|
     DEAD                         TO                                AWAKE

eb:-----------------------------------------------------------------------|
Bb:-----------------------------------------------------------------------|
Gb:--------------3-------------3--3--3----------------5-----------5--5--5-|
Db:--------------3-------------3--3--3----------------5-----------5--5--5-|
Ab:--1-1-1-1-1-1-1---1-1-1-1-1-1--1--1----3-3-3-3-3-3-3---3-3-3-3-3--3--3-|
Db:-----------------------------------------------------------------------|
                                AND                           AVENGE THE

eb:--------------------------------------|
Bb:--------------------------------------|
Gb:--------------------------------------|
Db:--------------0-------------0--0--0---|
Ab:--------------0-------------0--0--0---|
Db:--0-0-0-0-0-0-0---0-0-0-0-0-0--0--0---|
     DEAD

thats it. questions comments, email me at CTRDrummer@aol.com
Key:


so strange i remember you
i dont know who tabbed this
o _ Repeat
o
h - Hammer-on
p - Pull-off
~ - Sustain
/ - Slide up
\ - Slide down
.p.m. - Palm Mute

 Drop D Tuning

Guitar1

Intro
e|----------------------------------------------------------------------------------------|
B|------------------------------------------------------------------------10--------------|
G|-----------------6-----6h7p6-----------------6-----6h7p6-----6h7h9p6h7------9p6h7p6-----|
D|--------------7-----7---------7~~~~-------7-----7---------7--------------------------7--|
A|---------7h9-------------------------7h9------------------------------------------------|
E|--0~~~~------------------------------0--------------------------------------------------|

e|--------------------------------------------------------------------------------|
B|--------------------------------------------------------------------------------|
G|--------------------------------------------------------------------------------|
D|--6-6h7p6p4h6----------6--------4-----------4h6p4-------------6--------7--------|
A|--------------------5--------5-----5-----5---------5/7-----4-----4--------4-----|
E|---------------0~~--------0-----------0-----------------4-----------4--------4--|

e|-----------------------------------------------------------------------------|
B|-----------------------------------------------------------------------------|
G|-----------------------------------------------------------------------------|
D|--7-7h9p7--6--7--------6-----------4--------7------------------7-------9-----|
A|--------------------5-----5-----5--------9-----7h9p7--4-----4-------------7--|
E|-----------------0-----------0--------0------------------4--------4/6--------|

e|-------------------------------------------------------------5------------|
B|----------------------------------------------------------/7-7--5h7p5-----|
G|------------------9----------------------------------------------------6--|
D|-------9--------9-9h11p9--7/9--------6--------4---------------------------|
A|----------7-----------------------5-----5--------5-----5------------------|
E|--4/6--------6-----------------0-----------0--------0---------------------|

e|-----------------------------------------------------------------------------------|
B|-----------------------------------------------------------------------------------|
G|-----------------4--------4-4h6p4---------------------------------9~---------------|
D|--------7----------------------------------12--------11-------11-11h12p11p9h11-----|
A|-----4-----4--------4-------------------9------9---------9-------------------------|
E|--4-----------4--------4-----------4/9------------9---------9-------------------0~~|

Verse1
e|------------------------------------------------------------------------------|
B|------------------------------------------------------------------------------|
G|--13-13-13-13-13-13--11-11-11-11-11-11--13-13-13-13-13-13--14-14-14-14-14-14--|
D|------------------------------------------------------------------------------|
A|--11-11-11-11-11-11---9--9--9--9--9--9--11-11-11-11-11-11--12-12-12-12-12-12--|
E|------------------------------------------------------------------------------|

e|-------------------------------------------------------------------------------|
B|-------------------------------------------------------------------------------|
G|--13-13-13-13-13-13--11-11-11-11-11-11--14-14-14-14--16-16-16-16--13-13-13-13--|
D|-------------------------------------------------------------------------------|
A|--11-11-11-11-11-11---9--9--9--9--9--9--12-12-12-12--14-14-14-14--11-11-11-11--|
E|-------------------------------------------------------------------------------|

e|------------------------------------------------------------------------|
B|------------------------------------------------------------------------|
G|--16-16-16-16-16-16--13-13-13-13-13-13--14-14-14-14-14-14--19-19-19-19--|
D|------------------------------------------------------------------------|
A|--14-14-14-14-14-14--11-11-11-11-11-11--12-12-12-12-12-12--17-17-17-17--|
E|------------------------------------------------------------------------|

e|------------------------------------------------------------------------|
B|------------------------------------------------------------------------|
G|--19-19--18-18-18-18-18-18-18-18--16-16-16-16-16-16--14-14-14-14-14-14--|
D|------------------------------------------------------------------------|
A|--17-17--16-16-16-16-16-16-16-16--14-14-14-14-14-14--12-12-12-12-12-12--|
E|------------------------------------------------------------------------|

Chorus
e|--4h5p4-----4h5--------4h5p4-----4h5--------4h5p4-----4h5--------|
B|---------5----------5---------5----------5---------5----------5--|
G|-----------------6--------------------6--------------------6-----|
D|-----------------------------------------------------------------|
A|-----------------------------------------------------------------|
E|-----------------------------------------------------------------|

e|------------5-----5h6h8p6--5-----5---------------------------------------|
B|--6p5--6h8-----8--------------6-----8p6h8--6p5--6h8--6p5--6h8--6p5--6h8--|
G|-------------------------------------------------------------------------|
D|-------------------------------------------------------------------------|
A|-------------------------------------------------------------------------|
E|-------------------------------------------------------------------------|

Verse2
e|-------------------------------------------------------------------------|
B|-------------------------------------------------------------------------|
G|--9-9-9-9-9-9--7-7-7-7-7-7--4-4-4-4-4-4--6-6-6-6-6-6--13-13-13-13-13-13--|
D|-------------------------------------------------------------------------|
A|--7-7-7-7-7-7--5-5-5-5-5-5--2-2-2-2-2-2--4-4-4-4-4-4--11-11-11-11-11-11--|
E|-------------------------------------------------------------------------|

e|-------------------------------------------------------------------------------------|
B|-------------------------------------------------------------------------------------|
G|--11-11-11-11-11-11--13-13-13-13-13-13--11-11-11-11-11-11--4-4-4-4-4-4--6-6-6-6-6-6--|
D|-------------------------------------------------------------------------------------|
A|---9--9--9--9--9--9--11-11-11-11-11-11---9--9--9--9--9--9--2-2-2-2-2-2--4-4-4-4-4-4--|
E|-------------------------------------------------------------------------------------|

e|------------------------------------------------------------------------------|
B|------------------------------------------------------------------------------|
G|--13-13-13-13-13-13--11-11-11-11-11-11--13-13-13-13-13-13--16-16-16-16-16-16--|
D|------------------------------------------------------------------------------|
A|--11-11-11-11-11-11---9--9--9--9--9--9--11-11-11-11-11-11--14-14-14-14-14-14--|
E|------------------------------------------------------------------------------|

e|------------------------------------------------------------------|
B|------------------------------------------------------------------|
G|--18-18-18-18-18-18--16-16-16-16--14-14-14-14--13-13-13-13-13-13--|
D|------------------------------------------------------------------|
A|--16-16-16-16-16-16--14-14-14-14--12-12-12-12--11-11-11-11-11-11--|
E|------------------------------------------------------------------|

Interlude1
e|--------------5-----4-----------------5-----4-----------------5-----4-----|
B|-----5-----5-----5-----5-----5-----5-----5-----5-----5-----5-----5-----5--|
G|--6-----6-----------------6-----6-----------------6-----6-----------------|
D|--------------------------------------------------------------------------|
A|--------------------------------------------------------------------------|
E|--------------------------------------------------------------------------|
    ..p.m..                 ..p.m..                 ..p.m..

Bridge
e|---------------------------------------------------------------------------------------|
B|---------------------------------------------------------------------------------------|
G|o--------------------------------------------------------------------------------------|
D|o-------6-----6p0-------------6-------6p0-----------6-----6p0-------------6-------6p0--|
A|---------------------------------------------------------------------------------------|
E|---0-0-----0-------0-0-0-0-0-----0-0-------0-0-0-0-----0-------0-0-0-0-0-----0-0-------|
     p.m    p.m      ...p.m...     p.m       ..p.m..    p.m     ...p.m...      p.m

e|---------------------------------------------------------------------------------------|
B|---------------------------------------------------------------------------------------|
G|--------------------------------------------------------------------------------------o|
D|-----------6-----6h7p6p4-------6-----6h7p6p4-------6-----6h7p6p4-------6-----6h7p6p4--o|
A|---------------------------------------------------------------------------------------|
E|--0-0-0-0-----0-----------0-0-----0-----------0-0-----0-----------0-0-----0------------|
    ..p.m..    p.m          p.m    p.m          p.m    p.m          p.m    p.m

e|-----------------------------------------------------------------------------|
B|-----------------------------------------------------------------------------|
G|o-------4h5h7p5p4---------4h5h7p5p4---------4h5h7p5p4---------4h5h7p5p4-----o|
D|o--5h7-------------7p5h7-------------7p5h7-------------7p5h7-------------7--o|
A|-----------------------------------------------------------------------------|
E|-----------------------------------------------------------------------------|

Interlude2
e|--------------------------------------------------------|
B|--------------------------------------------------------|
G|o------------------------------------------------------o|
D|o--0-0-0-0-0-0--2-2-2-2-2-2--3-3-3-3-3-3--5-5-5-5-5-5--o|
A|---0-0-0-0-0-0--2-2-2-2-2-2--3-3-3-3-3-3--5-5-5-5-5-5---|
E|---0-0-0-0-0-0--2-2-2-2-2-2--3-3-3-3-3-3--5-5-5-5-5-5---|
  ...........................p.m..........................

Outro
e|----------------------------------------------------------------9p7--5p4h5---------------|
B|--9h10p9----------7h9--10h12p10--9h10p9-9h10p9----------7h9h10--------------9-10---------|
G|----------11------------------------------------11--------------------------------11-----|
D|--------------11------------------------------------11--------------------------------11-|
A|-----------------------------------------------------------------------------------------|
E|-----------------------------------------------------------------------------------------|

e|--------------------------7h9p7--4h5-5h7p5--4h5h7p5p4---|
B|---7h9--10h12p10--9h10p9--------------------------------|
G|o------------------------------------------------------o|
D|o------------------------------------------------------o|
A|--------------------------------------------------------|
E|--------------------------------------------------------|

e|--7h9p7-----------7p5--4--5h7p5-------7-7h9p7p4h5-5h7p5--4h5/7--5p4-4h5~~~~--|
B|---------9p10-10-----------------9-9-----------------------------------------|
G|-----------------------------------------------------------------------------|
D|-----------------------------------------------------------------------------|
A|-----------------------------------------------------------------------------|
E|-----------------------------------------------------------------------------|


-------------------------------------------------------------------------------
               THE BELTSVILLE CRUCIBLE - Thrice
-------------------------------------------------------------------------------

By:  whocares777

DROP C# TUNING!

... - palm mute
/ \ - slide
h   - hammer on
p   - pull off
*   - harmonic
~   - let ring out
4x
4x  - mute after strumming
4x

GUITAR 1'S PARTS:
-----------------
Intro:  (Extremely fast picking)
D#|4-4-4-4-4-5-5-5-5-5-4-4-4-4-4-7-5-5-5-4-4-4-5-5-5-4-4-4-4-4-5-5-5-5-5-4-4-4|
A#|7-7-7-7-7-7-7-7-7-7-7-7-7-7-7-7-7-7-7-7-7-7-7-7-7-5-5-5-5-5-5-5-5-5-5-5-5-5|
F#|---------------------------------------------------------------------------|
C#|---------------------------------------------------------------------------|
G#|---------------------------------------------------------------------------|
C#|---------------------------------------------------------------------------|
     .......   .......   .......   ...   ...   ...     .......   .......   ...

Intro Cont'd:
D#|4-4-7-5-5-5-4-4-4-5-5-5-4-4-4-4-4-5-5-5-5-5-4-4-4-4-4-7-5-5-5-4-4-4-5-5-5--|
A#|5-5-5-5-5-5-5-5-5-5-5-5-3-3-3-3-3-3-3-3-3-3-3-3-3-3-3-3-3-3-3-3-3-3-3-3-3--|
F#|---------------------------------------------------------------------------|
C#|---------------------------------------------------------------------------|
G#|---------------------------------------------------------------------------|
C#|---------------------------------------------------------------------------|
   ...   ...   ...   ...     .......   .......   .......   ...   ...   ...

Intro Cont'd:
D#|4-4-4-4-4-5-5-5-5-5-4-4-4-4-4-7-5-5-5-4-4-4-5-5-5-------------------------|
A#|5-5-5-5-5-5-5-5-5-5-5-5-5-5-5-5-5-5-5-5-5-5-5-5-5-------------------------|
F#|--------------------------------------------------------------------------|
C#|--------------------------------------------------------------------------|
G#|--------------------------------------------------------------------------|
C#|--------------------------------------------------------------------------|
     .......   .......   .......   ...   ...   ...

Intro Cont'd:  (2x)
D#|5-5-7-5-7-5-7-4/5-5--4-4-5-4-7-5-7-4/5-5--4-4-5-4-7-5-7-4/5-5--4-4-5-4-7-5|
A#|7-7-7-7-7-7-7-7-7-7--5-5-5-5-5-5-5-5-5-5--3-3-3-3-3-3-3-3-3-3--5-5-5-5-5-5|
F#|--------------------------------------------------------------------------|
C#|--------------------------------------------------------------------------|
G#|--------------------------------------------------------------------------|
C#|--------------------------------------------------------------------------|

Intro Cont'd:
D#|7-4/5-5-------------------------------------------------------------------|
A#|5-5-5-5-------------------------------------------------------------------|
F#|--------------------------------------------------------------------------|
C#|--------------------------------------------------------------------------|
G#|--------------------------------------------------------------------------|
C#|--------------------------------------------------------------------------|

Verse:  "True friends stab you..."
D#|------------------------------------------------------------------0-------|
A#|--------------------7~--5~-----------------------7~--9~-------------0-----|
F#|--------------------6~---------------------------6~-----------------------|
C#|0~------2~------4~----------0~------2~------4~-----------0~---2~----------|
G#|0~------2~------4~----------0~------2~------4~-----------0~---2~----------|
C#|0~------2~------4~----------0~------2~------4~-----------0~---2~----------|

Chorus:  "No more and no less..."  (2x)
D#|--------------------------------------------------------------------------|
A#|--------------------------------------------------------------------------|
F#|--------------------------------------------------------------------------|
C#|7-7-7-7-7-7-7-7-7-7-7-7-7-7-7-7-4-4-4-4-4-4-4-4-4-4-4-4-4-4-4-4-----------|
G#|7-7-7-7-7-7-7-7-7-7-7-7-7-7-7-7-4-4-4-4-4-4-4-4-4-4-4-4-4-4-4-4-----------|
C#|7-7-7-7-7-7-7-7-7-7-7-7-7-7-7-7-4-4-4-4-4-4-4-4-4-4-4-4-4-4-4-4-----------|

Chorus Cont'd:  (2x)
D#|----5---4-----7-----5-----4h5p4---4-----5---4-----7-----5-----4h5p4---4---|
A#|3-3---3---3-3---3-3---3-3-------5---5-5---5---5-5---5-5---5-5-------5-----|
F#|--------------------------------------------------------------------------|
C#|--------------------------------------------------------------------------|
G#|--------------------------------------------------------------------------|
C#|--------------------------------------------------------------------------|
   ...   .   ...   ...   ...       .   ...   .   ...   ...   ...       .

Chorus Cont'd:
D#|------5---4------7-----5-----4h5p4---4-----5---4-----7-----5-----4h5p4---4|
A#|--7-7---7---7-7----7-7---7-7-------5---7-7---7---7-7---7-7---7-7-------5--|
F#|--------------------------------------------------------------------------|
C#|--------------------------------------------------------------------------|
G#|--------------------------------------------------------------------------|
C#|--------------------------------------------------------------------------|
     ...   .   ...    ...   ...       .   ...   .   ...   ...   ...       .

Repeat Verse

Repeat Chorus

Bridge/Outro:  (Comes in at 2:34)
D#|-----------------------|
A#|-----------------------|
F#|-----------------------|
C#|-*----------------*----|
G#|12~--------------12~---|
C#|-----------------------|

Bridge Cont'd/Outro:  (Repeat a couple times)
D#|--------------------------------------------------------------------------|
A#|--------------------------------------------------------------------------|
F#|6-6-6-6-6-6-6-6-6-6-6-6-6-6-6-6-2-2-2-2-2-2-2-2-2-2-2-2-2-2-2-2-----------|
C#|7-7-7-7-7-7-7-7-7-7-7-7-7-7-7-7-4-4-4-4-4-4-4-4-4-4-4-4-4-4-4-4-----------|
G#|--------------------------------------------------------------------------|
C#|--------------------------------------------------------------------------|

Bridge Cont'd/Outro:  (Repeat this until end)
D#|--------------------------------------------------------------------------|
A#|------------------------------------5-5-5-5-5-5-5-5-5-5-5-5-5-5-5-5-------|
F#|7~--6-6-6-6-6-6-6-6-9-9-9-9-9-9-9-9-6-6-6-6-6-6-6-6-7-7-7-7-7-7-7-7-------|
C#|7~--7-7-7-7-7-7-7-7-7-7-7-7-7-7-7-7-4-4-4-4-4-4-4-4-4-4-4-4-4-4-4-4-------|
G#|5~------------------------------------------------------------------------|
C#|--------------------------------------------------------------------------|

End on:
D#|--------|
A#|--------|
F#|--------|
C#|---0~---|
G#|---0~---|
C#|---0~---|

GUITAR 2'S PARTS:
-----------------
Intro:
D#|--------------------------------------------------------------------------|
A#|--------------------------------------------------------------------------|
F#|--------------------------------------------------------------------------|
C#|4x----2~----0~-----2~-----------------------------------------------------|
G#|4x----2~----0~-----2~-----------------------------------------------------|
C#|4x----2~----0~-----2~-----------------------------------------------------|

Intro Cont'd:  (2x)
D#|--------------------------------------------------------------------------|
A#|--------------------------------------------------------------------------|
F#|--------------------------------------------------------------------------|
C#|4-4-4-4-4-4-4-4-4-4-4-4-4-4-4-4-2-2-2-2-2-2-2-2-2-2-2-2-2-2-2-2-0-0-0-0-0-|
G#|4-4-4-4-4-4-4-4-4-4-4-4-4-4-4-4-2-2-2-2-2-2-2-2-2-2-2-2-2-2-2-2-0-0-0-0-0-|
C#|4-4-4-4-4-4-4-4-4-4-4-4-4-4-4-4-2-2-2-2-2-2-2-2-2-2-2-2-2-2-2-2-0-0-0-0-0-|

Intro Cont'd:
D#|--------------------------------------------------------------------------|
A#|--------------------------------------------------------------------------|
F#|--------------------------------------------------------------------------|
C#|0-0-0-0-0-0-0-0-0-0-0-2-2-2-2-2-2-2-2-2-2-2-2-2-2-2-2---------------------|
G#|0-0-0-0-0-0-0-0-0-0-0-2-2-2-2-2-2-2-2-2-2-2-2-2-2-2-2---------------------|
C#|0-0-0-0-0-0-0-0-0-0-0-2-2-2-2-2-2-2-2-2-2-2-2-2-2-2-2---------------------|

Verse:  "True friends stab you..."
D#|--------------------------------------------------------------------------|
A#|--------------------------------------------------------------------------|
F#|--------------------------------------------------------------------------|
C#|0~----2~----4~----0~----2~----4~----0~----2~------------------------------|
G#|0~----2~----4~----0~----2~----4~----0~----2~------------------------------|
C#|0~----2~----4~----0~----2~----4~----0~----2~------------------------------|

Chorus:  "No more and less than..."  (2x)
D#|--------------------------------------------------------------------------|
A#|--------------------------------------------------------------------------|
F#|--------------------------------------------------------------------------|
C#|7-7-7-7-7-7-7-7-7-7-7-7-7-7-7-7-4-4-4-4-4-4-4-4-4-4-4-4-4-4-4-4-----------|
G#|7-7-7-7-7-7-7-7-7-7-7-7-7-7-7-7-4-4-4-4-4-4-4-4-4-4-4-4-4-4-4-4-----------|
C#|7-7-7-7-7-7-7-7-7-7-7-7-7-7-7-7-4-4-4-4-4-4-4-4-4-4-4-4-4-4-4-4-----------|

Chorus Cont'd:  (2x)
D#|--------------------------------------------------------------------------|
A#|--------------------------------------------------------------------------|
F#|--------------------------------------------------------------------------|
C#|0-0-0-0-0-0-0-0-2-2-2-2-2-2-2-2-4-4-4-4-4-4-4-4-4-4-4-4-4-4-4-4-----------|
G#|0-0-0-0-0-0-0-0-2-2-2-2-2-2-2-2-4-4-4-4-4-4-4-4-4-4-4-4-4-4-4-4-----------|
C#|0-0-0-0-0-0-0-0-2-2-2-2-2-2-2-2-4-4-4-4-4-4-4-4-4-4-4-4-4-4-4-4-----------|

Chorus Cont'd:
D#|--------------------------------------------------------------------------|
A#|--------------------------------------------------------------------------|
F#|--------------------------------------------------------------------------|
C#|0-0-0-0-0-0-0-0-2-2-2-2-2-2-2-2-------------------------------------------|
G#|0-0-0-0-0-0-0-0-2-2-2-2-2-2-2-2-------------------------------------------|
C#|0-0-0-0-0-0-0-0-2-2-2-2-2-2-2-2-------------------------------------------|

Repeat Verse

Repeat Chorus

Bridge/Outro:  (Repeat whole thing until end)
D#|5-5-5-5-7-7-7-7-4-4-4-4-2-2-2-2-5-5-5-5-5-5-5-5-5-5-5-5-5-5-5-5-----------|
A#|5-5-5-5-5-5-5-5-5-5-5-5-2-2-2-2-5-5-5-5-5-5-5-5-5-5-5-5-5-5-5-5-----------|
F#|6-6-6-6-6-6-6-6-6-6-6-6---------------------------------------------------|
C#|--------------------------------------------------------------------------|
G#|--------------------------------------------------------------------------|
C#|--------------------------------------------------------------------------|

Bridge Cont'd/Outro:
D#|5-5-5-5-7-7-7-7-4-4-4-4-2-2-2-2-5-5-5-5-5-5-5\2-2-2-2-2-2-2-2-------------|
A#|5-5-5-5-5-5-5-5-5-5-5-5-2-2-2-2-5-5-5-5-5-5-5\3-3-3-3-3-3-3-3-------------|
F#|6-6-6-6-6-6-6-6-6-6-6-6---------------------------------------------------|
C#|--------------------------------------------------------------------------|
G#|--------------------------------------------------------------------------|
C#|--------------------------------------------------------------------------|

End on:
D#|--------|
A#|--------|
F#|--------|
C#|---0~---|
G#|---0~---|
C#|---0~---|

I'm sure that this isn't 100% correct...especially the Bridge/Outro but it's
close.
===============================================================================
comments
print report bad tab
1 comment total.
-1 reply
slinkar3 wrote on February 18 2008, 12:29 am

your missing a song - in years to come, thats the one i was looking for... three stars

I want to post or [tab]
guest
You may want to rate the tab now too:
select rating
Please do not post tabs as comments. Select "correction" instead!