Oops, an error
Loading. Please wait.

Weakest Hour Tab

ver1
ver1

Whole song

Interactive

More versions @911Tabs.com
2,365 views 6 this week
no commentswrite comment
1 2 3 4 5
excellent!
x 5
Autoscroll
+/-
esc
set tempo
stop
Contributor
Difficulty
Tuning
novice
C G C F A D
Hey! There's an official Ultimate Guitar app which is ideal
for learning songs when you're away from computer. Get the app
WARNING: You are trying to view
                                    content from Ultimate-Guitar.com
                                    in an unauthorized application,
                                    which is prohibited.

                                    Please use an official Ultimate
                                    Guitar Tabs application for iPhone,
                                    iPad or Android to access legitimate
                                    chords, guitar, bass, and drum tabs
                                    from Ultimate-Guitar.com database.

                                    Type "ultimate guitar tabs" in Apple
                                    App Store's or Android Market's
                                    search to find the application.
||-----------------------------------------------------------------------------------||
|| Song:                             Weakest Hour                                    ||
|| Artist:                          Throw the Fight                                  ||
|| Tuning:                            C,G,C,F,A,d                                    ||
||-----------------------------------------------------------------------------------||

 [Intro I: x1]
| Gtr II
||--------------------|----------0-0-0-0---|--------------------|----------0-0-0-0---||
||--------------------|----------5-5-5-5---|--------------------|----------5-5-5-5---||
||------6-----7-------|--6---7---6-6-6-6---|------6-----7-------|--6---7---6-6-6-6---||
||--4-4---4-4---4-4---|----4---4-----------|--4-4---4-4---4-4---|----4---4-----------||
||--------------------|--------------------|--------------------|--------------------||
||--------------------|--------------------|--------------------|--------------------||
|   . .   . .   . .        .   .              . .   . .   . .        .   .


| Gtr I
||--------------------|--------------------|--------------------|--------------------||
||--------------------|--------------------|--------------------|--------------------||
||--------------------|--------------------|--------------------|--------------------||
||--4~----------------|--L-----------------|--0~----------------|--2~----------------||
||--4~----------------|--L-----------------|--0~----------------|--2~----------------||
||--4~----------------|--L-----------------|--0~----------------|--2~----------------||
|
| Gtr II
||--------------------|----------0-0-0-0---|--------------------|----------0-0-0-0---||
||--------------------|----------5-5-5-5---|--------------------|----------5-5-5-5---||
||------6-----7-------|--6---7---6-6-6-6---|------6-----7-------|--6---7---6-6-6-6---||
||--4-4---4-4---4-4---|----4---4-----------|--4-4---4-4---4-4---|----4---4-----------||
||--------------------|--------------------|--------------------|--------------------||
||--------------------|--------------------|--------------------|--------------------||
|   . .   . .   . .        .   .              . .   . .   . .        .   .


| Gtr I
||--------------------|--------------------|--------------------|--------------------||
||--------------------|--------------------|--------------------|--------------------||
||--------------------|--------------------|--------------------|--------------------||
||--4~----------------|--L-----------------|--7~----------------|--6~----------------||
||--4~----------------|--L-----------------|--7~----------------|--6~----------------||
||--4~----------------|--L-----------------|--7~----------------|--6~----------------||
|
| Gtr II
||--------------------|----------0-0-0-0---|--------------------|----------0-0-0-0---||
||--------------------|----------5-5-5-5---|--------------------|----------5-5-5-5---||
||------6-----7-------|--6---7---6-6-6-6---|------6-----7-------|--6---7---6-6-6-6---||
||--4-4---4-4---4-4---|----4---4-----------|--4-4---4-4---4-4---|----4---4-----------||
||--------------------|--------------------|--------------------|--------------------||
||--------------------|--------------------|--------------------|--------------------||
|   . .   . .   . .        .   .              . .   . .   . .        .   .



 [Intro II: x1]
| Gtr I
||--------------------|--------------------|--------------------|--------------------||
||--------------------|--------------------|--------------------|--------------------||
||--7~-------11~------|--9~-------13~------|-11~----------------|-14--131113v-11-9---||
||--------------------|--------------------|--------------------|--------------------||
||--------------------|--------------------|--------------------|--------------------||
||--------------------|--------------------|--------------------|--------------------||
|
| Gtr II
||--------------------|--------------------|--------------------|--------------------||
||--------------------|--------------------|--------------------|--------------------||
||-11~-------14~------|-13~-------16~------|-14~----------------|-18--161416v-1413---||
||--------------------|--------------------|--------------------|--------------------||
||--------------------|--------------------|--------------------|--------------------||
||--------------------|--------------------|--------------------|--------------------||
|
| Gtr III
||--------------------|--------------------|--------------------|--------------------||
||--------------------|--------------------|--------------------|--------------------||
||--------------------|--------------------|--------------------|-1111-9-9-7-7-6-6---||
||--0---0-0-0-0-0-0---|--2---2-2-2-2-2-2---|--4---4-4-4-4-4-4---|--x-x-x-x-x-x-x-x---||
||--0---0-0-0-0-0-0---|--2---2-2-2-2-2-2---|--4---4-4-4-4-4-4---|--9-9-7-7-5-5-4-4---||
||--0---0-0-0-0-0-0---|--2---2-2-2-2-2-2---|--4---4-4-4-4-4-4---|--------------------||


| Gtr I
||--------------------|--------------------|--------------------|--------------------||
||--------------------|--------------------|--------------------|--------------------||
||--7~-------11~------|--9~--------4~------|--6v~---------------|--L-----------------||
||--------------------|--------------------|--------------------|--------------------||
||--------------------|--------------------|--------------------|--------------------||
||--------------------|--------------------|--------------------|--------------------||
|
| Gtr II
||--------------------|--------------------|--------------------|--------------------||
||--------------------|--------------------|--------------------|--------------------||
||-11~-------14~------|-13~--------9~------|-11v~---------------|--L-----------------||
||--------------------|--------------------|--------------------|--------------------||
||--------------------|--------------------|--------------------|--------------------||
||--------------------|--------------------|--------------------|--------------------||
|
| Gtr III
||--------------------|--------------------|--------------------|--------------------||
||--------------------|--------------------|--------------------|--------------------||
||--------------------|--------------------|--------------------|--------------------||
||--0---0-0-0-0-0-0---|--2---2-2-2-2-2-2---|--4---2-4-2-4-2-4---|--7---7-7-6---6-6---||
||--0---0-0-0-0-0-0---|--2---2-2-2-2-2-2---|--4---2-4-2-4-2-4---|--7---7-7-6---6-6---||
||--0---0-0-0-0-0-0---|--2---2-2-2-2-2-2---|--4---2-4-2-4-2-4---|--7---7-7-6---6-6---||



 [Verse I: x2]
| Gtr I
||--------------------|--------------------|--------------------|--------------------||
||--------------------|--------------------|--------------------|--------------------||
||--------------------|--------------------|--------------------|--------------------||
||--------------------|--------7---6~------|--------------------|--------7---6~------||
||--4-----5-4-----5---|----4---------------|--4-----5-4-----5---|----4---------------||
||--4-444-----4-4-----|--4---4---4---------|--4-444-----4-4-----|--4---4---4---------||
|     ...     . .        .   .   .              ...     . .        .   .   .
| Gtr II
||--------------------|--------------------|--------------------|--------------------||
||--------------------|--------------------|--------------------|--------------------||
||--------------------|--------6---4~------|--------------------|--------6---4~------||
||--------4-------4---|--------------------|--------4-------4---|--------------------||
||--4-------7---------|----7---------------|--4-------7---------|----7---------------||
||--4-444-----4-4-----|--4---4---4---------|--4-444-----4-4-----|--4---4---4---------||
|     ...     . .        .   .   .              ...     . .        .   .   .


| Gtr I
||--------------------|--------------------|--------------------|--------------------||
||--------------------|--------------------|--------------------|--------------------||
||--------------------|--------------------|--------------------|--------------------||
||--------------------|--------7---6~------|--------------------|--2-----------------||
||--0-----5-4-----5---|----4---------------|--------4-2---------|----5-4-2-0---------||
||--0-000-----0-0-----|--0---0---0---------|--2-222-----2-2-2---|------------6-4-2---||
|     ...     . .        .   .   .              ...     . . .     
| Gtr II
||--------------------|--------------------|--------------------|--------------------||
||--------------------|--------------------|--------------------|--------------------||
||--------------------|--------6---4~------|--------------------|--------------------||
||--------4-2------4--|----2---------------|--------2-----------|--6-4---------------||
||--0-----------------|--------------------|--2-------5---------|------7-5-4-2-0-----||
||--0-000-----0-0-----|--0---0---0---------|--2-222-----2-2-2---|----------------6---||
|     ...     . .        .   .   .              ...     . . .   



 [Pre-Chorus I: x1]
| Gtr I
||--------------------|--------------------|--------------------|--------------------||
||--------------------|--------------------|--------------------|--------------------||
||--------------------|--------------------|--------------------|--------------------||
||----6-7-6-7-6-------|----6-7-6-7-6-------|----6-7-6-7-6-------|----6-7-6-9-7-6-7---||
||--------------4-----|--------------4-----|--------------4-----|--------------------||
||--------------------|--------------------|--------------------|--------------------||
|
| Gtr II
||--------------------|--------------------|--------------------|--------------------||
||-----10--10---------|-----10--10---------|-----10--10---------|-----10--1210--10---||
||---13--13--13-------|---13--13--1311-----|---13--13--13-------|---13--13----13-----||
||-------------11-----|--------------------|-------------14-----|--------------------||
||--------------------|--------------------|--------------------|--------------------||
||--------------------|--------------------|--------------------|--------------------||
|
| Gtr III
||--------------------|--------------------|--------------------|--------------------||
||--------------------|--------------------|--------------------|--------------------||
||--------------------|--------------------|--------------------|--------------------||
||--------------------|--------------------|--------------------|--------------------||
||--4-4-4-4-4-4-4-4---|----4-4-4-4-4-4-4---|--0-0-0-0-0-0-0-2---|----2-2-2-2-2-2-2---||
||--4-4-4-4-4-4-4-4---|----4-4-4-4-4-4-4---|--0-0-0-0-0-0-0-2---|----2-2-2-2-2-2-2---||
|   . . . . . . . .        . . . . . . .      . . . . . . . .        . . . . . . .


| Gtr I
||--------------------|--------------------|--------------------|--------------------||
||--------------------|--------------------|--------------------|--------------------||
||--------------------|--------------------|--6~-------s9~------|--4~-------s6~------||
||--6-7-6-7-6---------|--6-7-6-7-7-6-------|--x---------x-------|--x---------x-------||
||------------4---4---|--------------4~----|--4~-------s7~------|--2~-------s4~------||
||--------------------|--------------------|--------------------|--------------------||
|
| Gtr II
||--------------------|--------------------|--------------------|--------------------||
||---10--10-----------|---10--1010---------|-14~------s17~------|-12~------s14~------||
||-13--13--13---------|-13--13----13s11~---|--x---------x-------|--x---------x-------||
||-----------11--11---|--------------------|-11~------s14~------|--9~------s11~------||
||--------------------|--------------------|--------------------|--------------------||
||--------------------|--------------------|--------------------|--------------------||
|
| Gtr III
||--------------------|--------------------|--------------------|--------------------||
||--------------------|--------------------|--------------------|--------------------||
||--------------------|--------------------|--------------------|--------------------||
||--------------------|--------------------|-s7~--------7~------|--6~--------6~------||
||--4-4-4-4-4-4-4-4---|----4-4-4-4-4-4s6---|-s7~--------7~------|--6~--------6~------||
||--4-4-4-4-4-4-4-4---|----4-4-4-4-4-4s6---|-s7~--------7~------|--6~--------6~------||
|   . . . . . . . .        . . . . . 



 [Chorus I: x1]
| Gtr I
||--------------------|--------------------|--------------------|--------------------||
||--------------------|--------------------|--------------------|--------------------||
||--------------------|--------------------|--------------------|-1111-9-9-7-7-6-6---||
||--0---0-0-0-0-0-0---|--2---2-2-2-2-2-2---|--4---4-4-4-4-4-4---|--x-x-x-x-x-x-x-x---||
||--0---0-0-0-0-0-0---|--2---2-2-2-2-2-2---|--4---4-4-4-4-4-4---|--9-9-7-7-5-5-4-4---||
||--0---0-0-0-0-0-0---|--2---2-2-2-2-2-2---|--4---4-4-4-4-4-4---|--------------------||
|
| Gtr II
||--------------------|--------------------|--------------------|--------------------||
||-10~----------------|--------------------|--------------------|--------------------||
||--x-----------------|--------------------|--------------------|-141413131111-9-9---||
||--7~----------------|--2---2-2-2-2-2-2---|--4---4-4-4-4-4-4---|--x-x-x-x-x-x-x-x---||
||--0~----------------|--2---2-2-2-2-2-2---|--4---4-4-4-4-4-4---|-12121111-9-9-7-7---||
||--------------------|--2---2-2-2-2-2-2---|--4---4-4-4-4-4-4---|--------------------||


| Gtr I
||--------------------|--------------------|--------------------|--------------------||
||--------------------|--------------------|--------------------|--------------------||
||--------------------|--------------------|--------------------|--------------------||
||--0---0-0-0-0-0-0---|--2---2-2-2-2-2-2---|--4---4-2---2-4-----|------4-2-4-6-4-2---||
||--0---0-0-0-0-0-0---|--2---2-2-2-2-2-2---|--4-------------2---|-s4-----------------||
||--0---0-0-0-0-0-0---|--2---2-2-2-2-2-2---|--4-------0---------|--------------------||
|                                                     .
| Gtr II
||--------------------|--------------------|--------------------|--------------------||
||--------------------|--------------------|--------------------|--------------------||
||--------------------|--------------------|--------------------|--------------------||
||--0---0-0-0-0-0-0---|--2---2-2-2-2-2-2---|--4---7-6---6-7-----|------7-6-7-9-7-6---||
||--0---0-0-0-0-0-0---|--2---2-2-2-2-2-2---|--4-------------7---|-s9-----------------||
||--0---0-0-0-0-0-0---|--2---2-2-2-2-2-2---|--4-------0---------|--------------------||
|                                                     .



 [Chorus II: x2]
| Gtr I
||--------------------|--------------------|--------------------|--------------------||
||--------------------|--------------------|--------------------|--------------------||
||--9-----------------|----9---------------|--9-----------------|----9-7-6---676-----||
||------7-6-7-6---6---|--7---7-6-7-6---6---|------7-6-7-6---6---|--7-------7-----7---||
||--------------7-----|--------------7-----|--------------7-----|--------------------||
||--------------------|--------------------|--------------------|--------------------||
|
| Gtr II
||--------------------|--------------------|--------------------|--------------------||
||--------------------|--------------------|--------------------|----9-7-5---575-----||
||--9-----------------|----9---------------|--9-----------------|----------6-----6---||
||------7-6-7-6---6---|--7---7-6-7-6---6---|------7-6-7-6---6---|--7-----------------||
||--------------7-----|--------------7-----|--------------7-----|--------------------||
||--------------------|--------------------|--------------------|--------------------||
|
| Gtr III
||--------------------|--------------------|--------------------|--------------------||
||--------------------|--------------------|--------------------|--------------------||
||--------------------|--------------------|--------------------|--------------------||
||--0---------0---0---|--2---------2---2---|--4---------4---4---|--7---7-7-6---6-6---||
||--0-----0-0-0---0---|--2-----2-2-2---2---|--4-----4-4-4---4---|--7---7-7-6---6-6---||
||--0-----0-0-0---0---|--2-----2-2-2---2---|--4-----4-4-4---4---|--7---7-7-6---6-6---||
|         . .                  . .                  . .



 [Verse I: x1]



 [Verse II: x1]
| Gtr I
||--------------------|--------------------|--------------------|--------------------||
||--------------------|--------------------|--------------------|--------------------||
||--------------------|--------------------|--------------------|--------------------||
||--------------------|--------7---6~------|--------------------|--------7---6~------||
||--4-----5-4-----5---|----4---------------|--4-----5-4-----5---|----4---------------||
||--4-444-----4-4-----|--4---4---4---------|--4-444-----4-4-----|--4---4---4---------||
|     ...     . .        .   .   .              ...     . .        .   .   .
| Gtr II
||--------------------|--------------------|--------------------|--------------------||
||--------------------|--------------------|--------------------|--------------------||
||--------------------|--------6---4~------|--------------------|--------6---4~------||
||--------4-------4---|--------------------|--------4-------4---|--------------------||
||--4-------7---------|----7---------------|--4-------7---------|----7---------------||
||--4-444-----4-4-----|--4---4---4---------|--4-444-----4-4-----|--4---4---4---------||
|     ...     . .        .   .   .              ...     . .        .   .   .


| Gtr I
||--------------------|--------------------|--------------------|--------------------||
||--------------------|--------------------|--------------------|--------------------||
||--------------------|--------------------|--------------------|--------------------||
||--------------------|--------7---6~------|--------------------|--2-----------------||
||--0-----5-4-----5---|----4---------------|--------5-4---------|----554-2-0---------||
||--0-000-----0-0-----|--0---0---0---------|--2-222-----2-2-2---|------------664-2---||
|     ...     . .        .   .   .              ...     . . .  
| Gtr II
||--------------------|--------------------|--------------------|--------------------||
||--------------------|--------------------|--------------------|--------------------||
||--------------------|--------6---4~------|--------------------|--------------------||
||--------4-2------4--|----2---------------|--------4-2---------|--6-44--------------||
||--0-----------------|--------------------|--2-----------------|------7-5-4-220-----||
||--0-000-----0-0-----|--0---0---0---------|--2-222-----2-2-2---|----------------6---||
|     ...     . .        .   .   .              ...     . . .



 [Verse III: x1]
| Gtr I & II
||--------------------|--------------------|--------------------|--------------------||
||--------------------|--------------------|--------------------|--------------------||
||--------------------|--------------------|--------------------|--------------------||
||--4-------4---------|----------4---------|--0-------0---------|----------2---------||
||--4-4-4-4-4-4-4-4---|----4-4-4-4-4-4-4---|--0-0-0-0-0-0-0-2---|----2-22222-2-2-2---||
||--4-4-4-4-4-4-4-4---|----4-4-4-4-4-4-4---|--0-0-0-0-0-0-0-2---|----2-22222-2-2-2---||
|     . . .   . . .        . . .   . . .        . . .   . . .        . ....  . . .


| Gtr I
||--------------------|--------------------|--------------------|--------------------||
||--------------------|--------------------|--------------------|--------------------||
||--------------------|--------------------|--------------------|--------------------||
||--4-------4---------|----------4---------|--7~----7-7~--------|--6~----6-6~--------||
||--4-4-4-4-4-4-4-4---|----4-4-4-4-4-4s6---|--7~----7-7~--------|--6~----6-6~--------||
||--4-4-4-4-4-4-4-4---|----4-4-4-4-4-4s6---|--7~----7-7~--------|--6~----6-6~--------||
|     . . .   . . .        . . .   .
| Gtr II
||--------------------|--------------------|--------------------|--------------------||
||--------------------|--------------------|--------------------|--------------------||
||--------------------|--------------------|----------9~--------|----------9~--------||
||--4-------4---------|----------4---------|--------7-----------|--------6-----------||
||--4-4-4-4-4-4-4-4---|----4-4-4-4-4-4s6---|--7-----------------|--7-----------------||
||--4-4-4-4-4-4-4-4---|----4-4-4-4-4-4s6---|--------------------|--------------------||
|     . . .   . . .        . . .   . 



 [Pre-Chorus II: x1]
| Gtr I
||--------------------|--------------------|--------------------|--------------------||
||--------------------|--------------------|--------------------|--------------------||
||--------------------|----------------9---|----------------9---|--L-----------------||
||-------11--12---9---|-------11--12-------|-------11--12-------|-----121112--11-----||
||--9-9-9---9---9-----|--9-9-9---9---9-----|--9-9-9---9---9-----|---------------12---||
||--------------------|--------------------|--------------------|--------------------||
|   . . .   .   .        . . .   .   .        . . .   .   .
| Gtr II
||--------------------|--------------------|--------------------|--------------------||
||--------------------|--------------------|--------------------|--------------------||
||--------9--11-------|--------9--13--14---|--------9--11--13---|--L--11-911---9-----||
||---------------12---|--------------------|--------------------|---------------11---||
||--9-9-9---9---9-----|--9-9-9---9---9-----|--9-9-9---9---9-----|--------------------||
||--------------------|--------------------|--------------------|--------------------||
|   . . .   .   .        . . .   .   .        . . .   .   .
| Gtr III
||--------------------|--------------------|--------------------|--------------------||
||--------------------|--------------------|--------------------|--------------------||
||--------------------|--------------------|--------------------|--------------------||
||--------------------|--------------------|--------------------|--------------------||
||--4-4-4-4-4-4-4-4---|----4-4-4-4-4-4-4---|--0-0-0-0-0-0-0-2---|----2-2-2-2-2-2-2---||
||--4-4-4-4-4-4-4-4---|----4-4-4-4-4-4-4---|--0-0-0-0-0-0-0-2---|----2-2-2-2-2-2-2---||
|   . . . . . . . .        . . . . . . .      . . . . . . . .        . . . . . . . 


| Gtr I
||--------------------|--------------------|--------------------|--------------------||
||--------------------|--------------------|--------------------|--------------------||
||--------------------|----------------9---|--6~-------s9~------|--4~-------s6~------||
||-------11--12---9---|-------11--12-------|--x---------x-------|--x---------x-------||
||--9-9-9---9---9-----|--9-9-9---9---9-----|--4~-------s7~------|--2~-------s4~------||
||--------------------|--------------------|--------------------|--------------------||
|   . . .   .   .        . . .   .   .
| Gtr II
||--------------------|--------------------|--------------------|--------------------||
||--------------------|--------------------|-14~------s17~------|-12~------s14~------||
||--------9--11-------|--------9--13--14---|--x---------x-------|--x---------x-------||
||---------------12---|--------------------|-11~------s14~------|--9~------s11~------||
||--9-9-9---9---9-----|--9-9-9---9---9-----|--------------------|--------------------||
||--------------------|--------------------|--------------------|--------------------||
|   . . .   .   .        . . .   .   .
| Gtr III
||--------------------|--------------------|--------------------|--------------------||
||--------------------|--------------------|--------------------|--------------------||
||--------------------|--------------------|--------------------|--------------------||
||--------------------|--------------------|--7~----7-7~--------|--6~----6-6~--------||
||--4-4-4-4-4-4-4-4---|----4-4-4-4-4-4s6---|--7~----7-7~--------|--6~----6-6~--------||
||--4-4-4-4-4-4-4-4---|----4-4-4-4-4-4s6---|--7~----7-7~--------|--6~----6-6~--------||
|   . . . . . . . .        . . . . .



 [Chorus I: x1]



 [Chorus II: x2]



 [Interlude: x1]
| Gtr I & II
||--------------------|--------------------|--------------------|--------------------||
||--------------------|--------------------|--------------------|--------------------||
||--------------------|--------------------|--------------------|--------------------||
||--4~----------------|--L-----------------|--L-----------------|--6~------7~--------||
||--4~----------------|--L-----------------|--L-----------------|--6~------7~--------||
||--4~----------------|--L-----------------|--L-----------------|--6~------7~--------||


| Gtr II
||--------------------|--------------------|--------------------||
||--------------------|--------------------|--------------------||
||--------------------|--------------------|--------------------||
||--0~----------------|--L-----------------|--2~----------------||
||--0~----------------|--L-----------------|--2~----------------||
||--0~----------------|--L-----------------|--2~----------------||
| Gtr II
||--------------------|--------------------|--------------------||
||--------------------|--5~----3~----2~----|--------------------||
||--------------------|--------------------|--------------------||
||--0~----------------|--L-----------------|--2~----------------||
||--0~----------------|--L-----------------|--2~----------------||
||--0~----------------|--L-----------------|--2~----------------||



 [Breakdown: x2]
| Gtr I
||--------------------|--------------------|--------------------|--------------------||
||--------------------|--------------------|--------------------|--------------------||
||--------------------|--------------------|--------------------|--6-4---------------||
||----------4~--------|--L-----------------|----------4~--------|------7-6-4---------||
||--4-4-4-4-4~--------|--L-----------------|--4-4-4-4-4~--------|------------7-5-4---||
||--4-4-4-4-4~--------|--L-----------------|--4-4-4-4-4~--------|--------------------||
|   . . . .                                   . . . .
| Gtr I
||--------------------|--------------------|--------------------|--------------------||
||--------------------|--------------------|--------------------|--------------------||
||--------------------|--------------------|--------------------|--9-7-6-------------||
||----------4~--------|--L-----------------|----------4~--------|--------9-7-6-------||
||--4-4-4-4-4~--------|--L-----------------|--4-4-4-4-4~--------|--------------9-7---||
||--4-4-4-4-4~--------|--L-----------------|--4-4-4-4-4~--------|--------------------||
|   . . . .                                   . . . .


| Gtr I
||--------------------|--------------------|--------------------|--------------------||
||--------------------|--------------------|--------------------|--------------------||
||--------------------|--------------------|--------------------|--6-------4---------||
||----------0~--------|--L-----------------|----------2~--------|----7-7-7---6-6-6---||
||--0-0-0-0-0~--------|--L-----------------|--2-2-2-2-2~--------|--------------------||
||--0-0-0-0-0~--------|--L-----------------|--2-2-2-2-2~--------|--------------------||
|   . . . .                                   . . . .
| Gtr I
||--------------------|--------------------|--------------------|--------------------||
||--------------------|--------------------|--------------------|--------------------||
||--------------------|--------------------|--------------------|--9-6-6-6-7-4-4-4---||
||----------0~--------|--L-----------------|----------2~--------|--------------------||
||--0-0-0-0-0~--------|--L-----------------|--2-2-2-2-2~--------|--------------------||
||--0-0-0-0-0~--------|--L-----------------|--2-2-2-2-2~--------|--------------------||
|   . . . .                                   . . . .



 [Outro-Chorus I: x1]
| Gtr I
||--------------------|--------------------|--------------------|--------------------||
||--------------------|--------------------|--------------------|--------------------||
||--------------------|--------------------|--------------------|-1111-9-9-7-7-6-6---||
||--0---0-0-0-0-0-0---|--2---2-2-2-2-2-2---|--4---4-4-4-4-4-4---|--x-x-x-x-x-x-x-x---||
||--0---0-0-0-0-0-0---|--2---2-2-2-2-2-2---|--4---4-4-4-4-4-4---|--9-9-7-7-5-5-4-4---||
||--0---0-0-0-0-0-0---|--2---2-2-2-2-2-2---|--4---4-4-4-4-4-4---|--------------------||
|
| Gtr II
||--------------------|--------------------|--------------------|--------------------||
||--------------------|--------------------|--------------------|--------------------||
||----------9---------|----------9---------|--------------------|-141413131111-9-9---||
||------6-7-----7-6---|------6-7-----7-6---|--4~----------------|--x-x-x-x-x-x-x-x---||
||--5-----------------|--7-----------------|--------------------|-12121111-9-9-7-7---||
||--------------------|--------------------|--------------------|--------------------||


| Gtr I
||--------------------|--------------------|--------------------|--------------------||
||--------------------|--------------------|--------------------|-10--1010-----------||
||--------------------|--------------------|--------------------|--x---x-x-9---9-9---||
||--0---0-0-0-0-0-0---|--2---2-2-2-2-2-2---|--4---2-4-2-0-2-4---|--7---7-7-x---x-x---||
||--0---0-0-0-0-0-0---|--2---2-2-2-2-2-2---|--4---2-4-2-0-2-4---|----------7---7-7---||
||--0---0-0-0-0-0-0---|--2---2-2-2-2-2-2---|--4---2-4-2-0-2-4---|--------------------||
|
| Gtr II
||--------------------|--------------------|--------------------|--------------------||
||--------------------|--------------------|--------------------|-14--1414-----------||
||----------9---------|----------9---------|--------------------|--x---x-x13--1313---||
||------6-7-----7-6---|------6-7-----7-6---|--4\----------------|-11--1111-x---x-x---||
||--5-----------------|--7-----------------|--------------------|---------11--1111---||
||--------------------|--------------------|--------------------|--------------------||



 [Outro-Chorus II: x2]
| Gtr I
||--------------------|--------------------|--------------------|--------------------||
||--------------------|--------------------|--------------------|--------------------||
||--9-----------------|----9---------------|--9-----------------|----9-7-6---7-6-----||
||------7-6-7-6---6---|--7---7-6-7-6---6---|------7-6-7-6---6---|--7-------9-----7---||
||--------------7-----|--------------7-----|--------------7-----|--------------------||
||--------------------|--------------------|--------------------|--------------------||
|
| Gtr II
||--------------------|--------------------|--------------------|--------------------||
||-17-----------------|---17---------------|-17-----------------|---171514--1514-----||
||-----14131413--13---|-14--14131413--13---|-----14131413--13---|-14------16----14---||
||-------------14-----|-------------14-----|-------------14-----|--------------------||
||--------------------|--------------------|--------------------|--------------------||
||--------------------|--------------------|--------------------|--------------------||
|
| Gtr III
||--------------------|--------------------|--------------------|--------------------||
||--------------------|--------------------|--------------------|--------------------||
||--------------------|--------------------|--------------------|--------------------||
||--0---------0---0---|--2---------2---2---|--4---------4---4---|--7---7-7-6---6-6---||
||--0-----0-0-0---0---|--2-----2-2-2---2---|--4-----4-4-4---4---|--7---7-7-6---6-6---||
||--0-----0-0-0---0---|--2-----2-2-2---2---|--4-----4-4-4---4---|--7---7-7-6---6-6---||
|         . .                  . .                  . .



 [Outro: x1]
| Gtr I
||--------------------|--------------------||
||--------------------|--------------------||
||--------------------|--------------------||
||--------------------|--------7---6~------||
||--4-------4-----5---|----4---------------||
||--4-444-4-4---4-----|--4---4---4---------||
|     ... . .   .        .   .   .
| Gtr II
||--------------------|--------------------||
||--------------------|--------------------||
||--------------------|--------6---4~------||
||----------------4---|--------------------||
||--4-------4---------|----7---------------||
||--4-444-4-4---4-----|--4---4---4---------||
|     ... . .   .        .   .   .



||-----------------------------------------------------------------------------------||
|| Tablature Legend                                                                  ||
||                                                                                   ||
|| . - Palm Mute                                                                     ||
|| L - Tied Note                                                                     ||
|| x - Dead Note                                                                     ||
|| H - Harmonic                                                                      ||
|| * - Pinch Harmonic                                                                ||
|| h - Hammer On                                                                     ||
|| p - Pull Off                                                                      ||
|| b - Bend                                                                          ||
|| r - Release                                                                       ||
|| T - Tremolo                                                                       ||
|| s - Slide                                                                         ||
|| / - Pick Slide Upwards                                                            ||
|| \ - Pick slide Downwards                                                          ||
|| ~ - Ring                                                                          ||
|| v - Vibrato                                                                       ||
|| t - Tapping                                                                       ||
|| < - Fade In                                                                       ||
||                                                                                   ||
|| Creator  - Hyde                                                                   ||
|| Contact  - mirage_xid@hotmail.com                                                 ||
|| Reminder - This tablature is not 100%. Get the strumming timing by yourself.      ||
||-----------------------------------------------------------------------------------||

http://www.myspace.com/throwthefight
comments
print report bad tab
I want to post or [tab]
guest
You may want to rate the tab now too:
select rating
Please do not post tabs as comments. Select "correction" instead!