Oops, an error
Loading. Please wait.

Dirty Love Tab

ver1
ver1

Intro

Whole song

More versions @911Tabs.com
14,365 views 15 this week
2 commentsread comments
1 2 3 4 5
excellent!
x 7
Autoscroll
+/-
esc
set tempo
stop
Contributor
Difficulty
intermediate
WARNING: You are trying to view
                                    content from Ultimate-Guitar.com
                                    in an unauthorized application,
                                    which is prohibited.

                                    Please use an official Ultimate
                                    Guitar Tabs application for iPhone,
                                    iPad or Android to access legitimate
                                    chords, guitar, bass, and drum tabs
                                    from Ultimate-Guitar.com database.

                                    Type "ultimate guitar tabs" in Apple
                                    App Store's or Android Market's
                                    search to find the application.
----------------------------------------------------------------------------
                             DIRTY LOVE - Thunder
----------------------------------------------------------------------------

Tabbed by: FunkHammer
Email: hayseed@graffiti.net

Tuning: Standard

NOTES: Solid, mid-tempo rocker from the "Backstreet Symphony" album. Lots of barre and 
chords, played with a loose, sloppy Classic Rock feel and Les Paul/Marshall sound. The 
is primarily straight eighth-note patterns which are difficult to tab precisely, but
I've done my best to give an idea as to where the changes fall with regard to the lyrics.
Also, fretted notes tabbed within parentheses represent single muted notes -- i.e., (5)
= mute the string with the palm of the picking hand while fretting the string on the
fifth fret; this gives a hint of a specified tone, as opposed to simply muting an open
string (noted with an x). This helps define the eighth-note rhythms. But as usual,
listening to the 
will give the best idea of how to put it all together. This is how I hear it....

GUITAR OPENING:
      E     E          E     E            E     E       E  G   F#  E
E|----x-----x\---|-----x-----x---------|--x-----x-------x--x---x---x--------|
B|----9-----9\---|-----9-----9---------|--9-----9-------9--12--11--9--------|
G|----9-----9\---|-----9-----9---------|--9-----9-------9--12--11--9--------|
D|----9-----9\---|-----9-----9---------|--9-----9-------9--12--11--9--5-----|
A|----7-----7\---|-----7-----7---------|--7-----7--9/11----10--10--7--------|
E|-x-----x-------|--x-----x-----b2r-0--|-----x---------------------------0--|

INTRO(Play twice, 2 separate endings):
    E     E        Asus2   A    Asus2  A           D             D
E|--x-----x-----|----x-----x-----x-x---x-----|-----x-------------x-x----|
B|--9-----9-----|----5-----2-----5-5---2-----|-----7-------------7-7----|
G|--9-----9-----|----4-----2-----4-4---2-----|-----7-------------7-7----|
D|--9-----9-----|----2-----2-----2-2---2-----|-----7-------------7-7----|
A|--7-----7--x--|----0--x--0--x--0-0---0--x--|-(5)-5-(5)-(5)-7/9-----x--|
E|-----x--------|----------------------------|--------------------------|

 Ending 1------------|     Ending 2------------|
  Bsus4   B                 Bsus4   B
E|-(4)----x----------|    E|-(4)----x----------|
B|--5--x--4----------|    B|--5--x--4----------|
G|--4--x--4----------|    G|--4--x--4----------|
D|--6--x--4----------|    D|--6--x--4----------|
A|-------------------|    A|-------------------|
E|-----------b2r--0--|    E|-------------------|
                                      I see you

SECTION A: Verse
    B    C#                A     E                      B    C#
E|--x--x/x--x\----------|--x--x--x--x----------------|--x--x/x--x\------------|
B|--4--4/6--6\----------|--2--2--x--x----------------|--4--4/6--6\------------|
G|--4--4/6--6\----------|--2--2--x--x----------------|--4--4/6--6\------------|
D|--4--4/6--6\----------|--2--2--2--2----------------|--4--4/6--6\------------|
A|--2--2/4--4\----------|--0--0--2--2----------------|--2--2/4--4\------------|
E|----------------------|--------0--0----------------|------------------------|
       . . . walking by;              you've got that  far away look in your

                     E        B    C#           A     E
E|-------------------0-----|--x--x/x--x\-----|--x--x--x--x--------|
B|-------------------0-----|--4--4/6--6\-----|--2--2--x--x--------|
G|-------------------------|--4--4/6--6\-----|--2--2--x--x--------|
D|-------------------------|--4--4/6--6\-----|--2--2--2--2--------|
A|------0--2---------------|--2--2/4--4\-----|--0--0--2--2--------|
E|---4--------b3r-0--------|-----------------|--------0--0--------|
    eye.        That was only        yesterday;            like a

     B    C#           C#     B   A
E|---x--x/x--x---------x\--|--x---x--x-------------|
B|---4--4/6--6---------6\--|--4---2--2-------------|
G|---4--4/6--6---------6\--|--4---2--2-------------|
D|---4--4/6--6---------6\--|--4---2--2----------2--|
A|---2--2/4--4---------4\--|--2---0--0-------2-----|
E|-------------------------|-----------0--4--------|
   cheap suit, you were all   o - ver  me.

SECTION B: Bridge
       D  Dsus2 (alternate rhythmically)
E|-----2----0-----0--2---------0--|--2----0---2-----0-0---2--|
B|-----3----3-----3--3---------3--|--3----3---3-----3-3---3--|
G|-----2----2-----2--2---------2--|--2----2---2-----2-2---2--|
D|--0--0----0--x--0--2----x----0--|--0----0---0-----0-0---2--|
A|--------------------------------|--------------------------|
E|--------------------------------|--------------------------|
    I should know better by          now, my friend,

             A     A Asus4   Esus4        E    Esus2
E|-----------x-----x-x---------x---|--x---x--x---x--x--x--x------------|
B|-----------2-----2h3---------10--|--10--9--9---7--7--7--7------------|
G|-----------2-----2-2---------9---|--9---9--9---9--9--9--9------------|
D|-----------2-----2h4---------9---|--9---9--9---9--9--9--9------------|
A|---x---x---0--x--0-0---x---------|-----------------------------------|
E|---------------------------------|-----------------------------------|
    just what I      mean to you.                      You've been run-

       D  Dsus2 (alternate rhythmically, as above)
E|-----2----0-----0--2---------0--|--2----0---2-----0-0---2--|
B|-----3----3-----3--3---------3--|--3----3---3-----3-3---3--|
G|-----2----2-----2--2---------2--|--2----2---2-----2-2---2--|
D|--0--0----0--x--0--2----x----0--|--0----0---0-----0-0---2--|
A|--------------------------------|--------------------------|
E|--------------------------------|--------------------------|
    -ing in and out of my            life so long,

           B            B           B Bsus4   B
E|---------x------------x--------|--x-x--x----x---------------|
B|---------4------------4--------|--4h5--5----4---------------|
G|---------4------------4--------|--4-4--4----4---------------|
D|---------4------------4--------|--4h6--6----4---------------|
A|-(2)-(2)-2----(2)-(2)-2---(2)--|----------------------------|
E|-------------------------------|--------------------b2r--0--|
        I don't want nothing to do       with you --

SECTION C: Chorus
    E           E           Asus2   A                D
E|--x-----------x----------|--x-----x----------------2--|
B|--9-----------9----------|--5-----2----------------3--|
G|--9-----------9----------|--4-----2----------------2--|
D|--9-----------9----------|--2-----2----------2-----0--|
A|--7-----------7----------|--0--x--0---0--b4-----x-----|
E|--------x--0--------x----|----------------------------|
        I don't need your     dirty love,

    D        D                 Bsus4      B
E|--2--------x-----x----------|--x--------x------------|
B|--3--------7-----7----------|--5--------4------------|
G|--2--------7-----7----------|--4--------4------------|
D|--0--x--x--7-(5)-7--(5)-(5)-|--6---x----4------------|
A|----------------------------|------------------------|
E|----------------------------|----------------b2r--0--|
       I don't  want  you        touching me.

Repeat chorus with these lyrics:

   I don't need your dirty love -- it's enough
   Trying to live with the memory.

NEXT: Play INTRO chord changes ONCE THROUGH with SECOND ENDING to accompany the "Na na 
na" lyrics, then repeat SECTION A Verse changes with these lyrics:

   Chew me up, spit me out, turn my whole world inside out.
   There's a name for girls like you;
   You belong in the gutter, I know that you do.

Play SECTION B Bridge changes with these lyrics:

   Baby I've had enough lies to last the rest of my days on earth,
   So now you're gonna get what you deserve, uh huh.

Back to SECTION C Chorus once through, then to:

    E           E           Asus2   A
E|--x-----------x----------|--x-----x-------------------|
B|--9-----------9----------|--5-----2-------------------|
G|--9-----------9----------|--4-----2-------------------|
D|--9-----------9----------|--2-----2----------2-----0--|
A|--7-----------7----------|--0--x--0---0--b4-----x-----|
E|--------x--0--------x----|----------------------------|
         I don't need your    dirty love,

SECTION D: Release
   D                      Asus4  A
E|-x--x--x--x------------|--x----x-----x----|-----------------------------|
B|-7--7--7--7------------|--3----2-----3----|-----------------------------|
G|-7--7--7--7--etc.------|--2----2-----2----|-----------------------------|
D|-7--7--7--7------------|--4----2-----4----|-----------------------------|
A|-5--5--5--5------------|--0----0--0--0----|-------0-------0---------0---|
E|-----------------------|------------------|--b4-------b4-------b4-------|
      I  know there ain't   no   way   I'll    stay,    we  were gon- na

  Asus4  A                                            B
E|--x----x-----x----|------------------------------|--x-x-x-------|
B|--3----2-----3----|------------------------------|--4-4-4-------|
G|--2----2-----2----|------------------------------|--4-4-4-etc.--|
D|--4----2-----4----|------------------------------|--4-4-4-------|
A|--0----0--0--0----|-------0--------0----------0--|--2-2-2-------|
E|------------------|--b4--------b4-------b4-------|--------------|
    break   it up      some day, and that day is  now;          oh

    E(-9sus4)          B                          Asus4  A
E|--x--x--x---------|--x-x-x-------x--x----------|--x----x-----x----|
B|--10-10-10--------|--4-4-4-------4--4----------|--3----2-----3----|
G|--9--9--9--etc.---|--4-4-4-------4--4----------|--2----2-----2----|
D|--7--7--7---------|--4-4-4-------4--4----------|--4----2-----4----|
A|--7--7--7---------|--2-2-2--4/6-----------x----|--0----0--0--0----|
E|------------------|----------------------------|------------------|
   baby I'm getting   out.         So don't you    cry  now,   sigh

                                Bsus4 B
E|-----------------------------|--x---x------x---|
B|-----------------------------|--5---4------5---|
G|-----------------------------|--4---4------4---|
D|-----------------------------|--6---4---x--6---|
A|-----0------0-----------0----|-----------------|
E|-b4-----b4-------b4----------|-----------------|
   now,     'cause you'll be     liv- ing a  lie

    B                  D                        E
E|--x------------------x------|-----------------x--|
B|--4------------------7------|-----------------9--|
G|--4------------------7------|-----------------9--|
D|--4------------------7------|-----------------9--|
A|------0----2---3--4--5------|--5--4--5--4--5--7--|
E|----------------------------|--------------------|
   now when I'm not a- round.

GUITAR BREAK:
    B    C#         A     E         B    C#                         E
E|--x--x/x--x----|--x--x--x--x---|--x--x/x--x---|-------------------0----|
B|--4--4/6--6----|--2--2--x--x---|--4--4/6--6---|-------------------0----|
G|--4--4/6--6----|--2--2--x--x---|--4--4/6--6---|------------------------|
D|--4--4/6--6----|--2--2--2--2---|--4--4/6--6---|------------------------|
A|--2--2/4--4----|--0--0--2--2---|--2--2/4--4---|------0--2--------------|
E|---------------|--------0--0---|--------------|---4--------b3r-0-------|
                                                                    Yeah-
    B    C#         A     E          B    C#
E|--x--x/x--x----|--x--x--x--x---|---x--x/x--x-----x--|
B|--4--4/6--6----|--2--2--x--x---|---4--4/6--6-----6--|
G|--4--4/6--6----|--2--2--x--x---|---4--4/6--6-----6--|
D|--4--4/6--6----|--2--2--2--2---|---4--4/6--6-----6--|
A|--2--2/4--4----|--0--0--2--2---|---2--2/4--4-----4--|
E|---------------|--------0--0---|--------------------|

    B   A
E|--x---x--x-------------------|
B|--4---2--2-------------------|
G|--4---2--2-------------------|
D|--4---2--2-------------2-----|
A|--2---0--0-------2-----------|
E|-----------0--4--------------|
                  You've been-

Go TO: Section B - Bridge changes for these lyrics:

   D  Dsus2 (alternate rhythmically)                  Asus4   A
   Runnin' in and out of my life so long, there ain't  no    way...

  Asus4 A              Bsus4 B         C#sus4 C#
E|--x---x------x--x---|--x---x---x--x----x----x---|
B|--3---2------3--2---|--5---4---5--4----7----6---|
G|--2---2------2--2---|--4---4---4--4----6----6---|
D|--4---2------4--2---|--6---4---6--4----8----6---|
A|--0---0------0--0---|---------------------------|
E|--------------------|---------------------------|
    I'll stay . . .      No  way,        No!

SECTION E: Modulated Chorus (twice through with lyrics,
then with "Na na na's")
  (Barre F#)                   B
E|------2---------2---------|--x-------------------------|
B|------2---------2---------|--4-------------------------|
G|--------------------------|--4-------------------------|
D|--------------------------|--4----------------4--------|
A|--4---------4-------------|--2--------2--4/6-----6--7--|
E|--2---------2-------------|----------------------------|
           I don't need your   dirty love;
           I don't want your   dirty love;   it's enough

    E                    C#sus4   C#
E|--x---------x--------|---x------x------------|
B|--9---------9--------|---7------6------------|
G|--9---------9--------|---6------6------------|
D|--9---------9--------|---8------6------------|
A|--7---------7--------|-----------------------|
E|---------------------|--------------5--4--2--|
     I don't want you     touching me.
  trying to live with the memory.

(last two bars of modulated chorus with "Na na na's"):
    E           F
E|--x----x---|--x-----x-----------------|
B|--9----9---|--10----10----------------|
G|--9----9---|--10----10----------------|
D|--9----9---|--10----10----------------|
A|--7----7---|--8-----8-----------------|
E|-----------|---------------5-4---2----|
    Na na na na na na na na -dirty love.

SECTION F: End Vamp
  (Barre F#)...                                                        Bsus4
E|------2-----2------------|------2------2------------|------2------2----x--|
B|------2-----2------------|------2------2------------|------2------2----5--|
G|-------------------------|--------------------------|------------------4--|
D|-------------------------|--------------------------|------------------6--|
A|--4-----4----------------|--4------4----------------|--4------4-----------|
E|--2-----2-------5--4--2--|--2------2-------5--4--2--|--2------2-----------|

   Bsus4    B                            F#     F#(6) Standard rock riff...
E|---x---x--x--x--x--x--x--|   Repeat |--x---x---x---x--------------------|
B|---5---5--4--5--5--4--4--| previous |--x---x---x---x--------------------|
G|---4---4--4--4--4--4--4--|     four |--11--11--x---11--etc.-------------|
D|---6---6--4--6--6--4--4--|     bars,|--11--11--13--11-------------------|
A|-------------------------|     then |--9---9---9---9--------------------|
E|-------------------------|     play |-----------------------------------|

...for three bars, then:
  Bsus4            B
E|--x--x--x--x--x--x--|
B|--5--5--5--5--5--4--|
G|--4--4--4--4--4--4--|  Vamp out with above eight bars as recording
D|--6--6--6--6--6--4--|  dictates, improv where desired....
A|--------------------|
E|--------------------|
comments
print report bad tab
2 comments total.
+1 reply
John De Scone wrote on September 3 2009, 07:08 am

brilliant, i slightly change how many times notes are played, but all the right ones are there!

0 reply
ollyno1uk wrote on March 16 2013, 11:17 am

Good tab, good song, great band

I want to post or [tab]
guest
You may want to rate the tab now too:
select rating
Please do not post tabs as comments. Select "correction" instead!