Oops, an error
Loading. Please wait.

Thunderstorm Tab

1,476 views 1 this week
no commentswrite comment
1 2 3 4 5
please rate
add to favorites launch autoscroll
font size
0
reset
Autoscroll
+/-
esc
set tempo
stop
Contributor
Difficulty
WARNING: You are trying to view
                                    content from Ultimate-Guitar.com
                                    in an unauthorized application,
                                    which is prohibited.

                                    Please use an official Ultimate
                                    Guitar Tabs application for iPhone,
                                    iPad or Android to access legitimate
                                    chords, guitar, bass, and drum tabs
                                    from Ultimate-Guitar.com database.

                                    Type "ultimate guitar tabs" in Apple
                                    App Store's or Android Market's
                                    search to find the application.
     E  E  Q    Q    E  E  Q       Q    E  E  Q    E.  S  
E||-----------------------------|------------------------|
B||-----------------------------|------------------------|
G||-----------------------------|------------------------|
D||--4--4--4----6----4--4--4----|--6----7--7--7----6-----|
A||--2--2--2----4----2--2--2----|--4----5--5--5----4---0-|
E||-----------------------------|------------------------|


  E  E  Q    Q    E  E  Q       Q    E  E  Q    E.  S  
-----------------------------|------------------------|
-----------------------------|------------------------|
-----------------------------|------------------------|
--4--4--4----6----4--4--4----|--6----7--7--7----6-----|
--2--2--2----4----2--2--2----|--4----5--5--5----4---0-|
-----------------------------|------------------------|


  E  E  Q    Q    E  E  Q       Q    E  E  Q    E.  S  
-----------------------------|------------------------|
-----------------------------|------------------------|
-----------------------------|------------------------|
--6--6--6----8----6--6--6----|--8----9--9--9----8-----|
--4--4--4----6----4--4--4----|--6----7--7--7----6---0-|
-----------------------------|------------------------|


  E  E  Q    Q    E  E  Q       Q    E  E  Q    E.  S  
-----------------------------|------------------------|
-----------------------------|------------------------|
-----------------------------|------------------------|
--4--4--4----6----4--4--4----|--6----7--7--7----6-----|
--2--2--2----4----2--2--2----|--4----5--5--5----4---0-|
-----------------------------|------------------------|


    PM PM PM PM PM       PM PM PM PM PM        
          |--3--|              |--3--|         
    E  E  E  E  E  E  E  E  E  E  E  E  E  E   
|---------------------------------------------|
|---------------------------------------------|
|*--------------------------------------------|
|*-----------------3--3-----------------3--3--|
|------------------1--1-----------------1--1--|
|---0--0--0--0--0--------0--0--0--0--0--------|


  PM PM PM PM PM       PM PM                
        |--3--|              |--3--|        
  E  E  E  E  E  E  E  E  E  E  E  E  Q     
-------------------------------------------|
-------------------------------------------|
-------------------------------------------|
-----------------3--3--------5--5--5--4----|
-----------------1--1--------3--3--3--2----|
--0--0--0--0--0--------0--0----------------|


  PM PM PM PM PM       PM PM PM PM PM        
        |--3--|              |--3--|         
  E  E  E  E  E  E  E  E  E  E  E  E  E  E   
--------------------------------------------|
--------------------------------------------|
--------------------------------------------|
-----------------3--3-----------------3--3--|
-----------------1--1-----------------1--1--|
--0--0--0--0--0--------0--0--0--0--0--------|


  PM PM PM PM PM       PM PM                
        |--3--|              |--3--|        
  E  E  E  E  E  E  E  E  E  E  E  E  Q     
-------------------------------------------|
-------------------------------------------|
-------------------------------------------|
-----------------3--3--------5--5--5--4----|
-----------------1--1--------3--3--3--2----|
--0--0--0--0--0--------0--0----------------|


  PM PM PM PM PM       PM PM PM PM PM        
        |--3--|              |--3--|         
  E  E  E  E  E  E  E  E  E  E  E  E  E  E   
--------------------------------------------|
--------------------------------------------|
--------------------------------------------|
-----------------3--3-----------------3--3--|
-----------------1--1-----------------1--1--|
--0--0--0--0--0--------0--0--0--0--0--------|


  PM PM PM PM PM       PM PM                
        |--3--|              |--3--|        
  E  E  E  E  E  E  E  E  E  E  E  E  Q     
-------------------------------------------|
-------------------------------------------|
-------------------------------------------|
-----------------3--3--------5--5--5--4----|
-----------------1--1--------3--3--3--2----|
--0--0--0--0--0--------0--0----------------|


  PM PM PM PM PM       PM PM PM PM PM        
        |--3--|              |--3--|         
  E  E  E  E  E  E  E  E  E  E  E  E  E  E   
--------------------------------------------|
--------------------------------------------|
--------------------------------------------|
-----------------3--3-----------------3--3--|
-----------------1--1-----------------1--1--|
--0--0--0--0--0--------0--0--0--0--0--------|


  PM PM PM PM PM       PM PM                                       
        |--3--|              |--3--|                               
  E  E  E  E  E  E  E  E  E  E  E  E  Q       Q.     E  Q.     E   
-------------------------------------------|----------------------|
-------------------------------------------|----------------------|
-------------------------------------------|----------------------|
-----------------3--3--------5--5--5--4----|--3------4--5------6--|
-----------------1--1--------3--3--3--2----|--1------2--3------4--|
--0--0--0--0--0--------0--0----------------|----------------------|


     PM PM PM PM PM PM PM PM                            
        |--3--|  |--3--|                                
  E  E  E  E  E  E  E  E  E  E     Q.     E  Q.     E   
--------------------------------|----------------------|
--------------------------------|----------------------|
--------------------------------|----------------------|
--7--------------------------2--|--3------4--5------6--|
--5--------------------------0--|--1------2--3------4--|
-----0--0--0--0--0--0--0--0-----|----------------------|


     PM PM PM PM PM PM PM PM                            
        |--3--|  |--3--|                                
  E  E  E  E  E  E  E  E  E  E     Q.     E  Q.     E   
--------------------------------|----------------------|
--------------------------------|----------------------|
--------------------------------|----------------------|
--7--------------------------2--|--3------4--5------6--|
--5--------------------------0--|--1------2--3------4--|
-----0--0--0--0--0--0--0--0-----|----------------------|


     PM PM PM PM PM PM PM PM                            
        |--3--|  |--3--|                                
  E  E  E  E  E  E  E  E  E  E     Q.     E  Q.     E   
--------------------------------|----------------------|
--------------------------------|----------------------|
--------------------------------|----------------------|
--7--------------------------2--|--3------4--5------6--|
--5--------------------------0--|--1------2--3------4--|
-----0--0--0--0--0--0--0--0-----|----------------------|


     PM PM PM PM PM PM PM PM                              
        |--3--|  |--3--|                                  
  E  E  E  E  E  E  E  E  E  E     Q    H        E  E     
--------------------------------|-----------------------||
--------------------------------|-----------------------||
--------------------------------|----------------------*||
--7--------------------------2--|--L-------------5--4--*||
--5--------------------------0--|--L-------------3--2---||
-----0--0--0--0--0--0--0--0-----|-----------------------||


                    PM                            
  E  E  E  E  E  E  E  E     H        Q    E  E   
--------------------------|----------------------|
--------------------------|----------------------|
--------------------------|----------------------|
--3-----4-----3--------4--|--L--------5----4--5--|
--1-----2-----1-----0--2--|--L--------3----2--3--|
--------------------------|----------------------|


   |-------5-------|                         
   E   E   E   E   E   E   E   H.            
--12--13--15--13--15------------------------|
----------------------14------12------------|
--------------------------13----------------|
--------------------------------------------|
--------------------------------------------|
--------------------------------------------|


   S  S  S  S  S  S  S  S  S  S  S  S  H.            
--12-13-12-13-12-13-12-13-12-13-12-13-12------------|
----------------------------------------------------|
----------------------------------------------------|
----------------------------------------------------|
----------------------------------------------------|
----------------------------------------------------|


   Q     W                 E   E     Q     W                 E   E   
--17--------------------------17--|--L----15----------------13--15--|
--------15----------------13------|---------------------------------|
----------------------------------|---------------------------------|
----------------------------------|---------------------------------|
----------------------------------|---------------------------------|
----------------------------------|---------------------------------|


   E   E  Q    E  E  H.              Q    E  E  E   H.           E   
--12--13--------------------------|---------------------------------|
----------9----9------------------|-------7--9----------------------|
------------------8--7------------|--8----------8--10------------8--|
----------------------------------|---------------------------------|
----------------------------------|---------------------------------|
----------------------------------|---------------------------------|


  E   E  H.            E   E   E   E     W.                
--------------------------------------|-------------------|
---------7------------------------12--|--L----------------|
--L--10-----------------------13------|-------------------|
----------------------10--10----------|-------------------|
--------------------------------------|-------------------|
--------------------------------------|-------------------|


  PM PM PM PM PM PM PM PM PM             PM PM PM PM PM PM PM PM PM           
  |--3--|  |--3--|  |--3--|  |--3--|     |--3--|  |--3--|  |--3--|  |--3--|   
  E  E  E  E  E  E  E  E  E  E  E  E     E  E  E  E  E  E  E  E  E  E  E  E   
--------------------------------------|--------------------------------------|
--------------------------------------|--------------------------------------|
--------------------------------------|--------------------------------------|
-----------------------------7--8--7--|-----------------------------7--8--7--|
--------------------------------------|--------------------------------------|
--0--0--0--0--0--0--0--0--0-----------|--0--0--0--0--0--0--0--0--0-----------|


  PM PM PM PM PM PM PM PM PM             PM PM PM PM PM PM PM PM PM           
  |--3--|  |--3--|  |--3--|  |--3--|     |--3--|  |--3--|  |--3--|  |--3--|   
  E  E  E  E  E  E  E  E  E  E  E  E     E  E  E  E  E  E  E  E  E  E  E  E   
--------------------------------------|--------------------------------------|
--------------------------------------|--------------------------------------|
--------------------------------------|--------------------------------------|
-----------------------------7--8--7--|-----------------------------7--8--7--|
--------------------------------------|--------------------------------------|
--0--0--0--0--0--0--0--0--0-----------|--0--0--0--0--0--0--0--0--0-----------|


   W                   H.            E   E     W                 
--------------------|-----------------------|-------------------|
--------------------|-----------------------|-------------------|
--10----------------|--L------------12--11--|--9----------------|
--------------------|-----------------------|-------------------|
--------------------|-----------------------|-------------------|
--------------------|-----------------------|-------------------|


  H.            E   E     H        Q     Q      
-----------------------|----------------------||
-----------------------|----------------------||
--L--------------------|----------------------||
---------------12--11--|--9--------9\---------||
-----------------------|----------------------||
-----------------------|----------------------||
comments
We did not receive enough feedback on this tab! Please rate:
1 2 3 4 5
I want to post or [tab]
guest
You may want to rate the tab now too:
select rating
Please do not post tabs as comments. Select "correction" instead!