Oops, an error
Loading. Please wait.

Asleep In The Chapel Bass Tab

291 views 1 this week
no commentswrite comment
1 2 3 4 5
please rate
Autoscroll
+/-
esc
set tempo
stop
Contributor
WARNING: You are trying to view
                                    content from Ultimate-Guitar.com
                                    in an unauthorized application,
                                    which is prohibited.

                                    Please use an official Ultimate
                                    Guitar Tabs application for iPhone,
                                    iPad or Android to access legitimate
                                    chords, guitar, bass, and drum tabs
                                    from Ultimate-Guitar.com database.

                                    Type "ultimate guitar tabs" in Apple
                                    App Store's or Android Market's
                                    search to find the application.
intro
G|----------------------------------|
D|----------------------------------|
A|--2--2----------------------------|
D|----------0--0----4--4----2--2----|

G|-----------------------------------------------------------------|
D|-----------------------------------------------------------------|
A|-----------------------------------------------------------------|
D|-9-9-9-9-9-9-9-9-9-9-9-9-9-9-9-9-9-9-9-9-9-9-9-9-9-9-9-9-9-9-9-9-|

G|------------------------------------------------------------------|
D|------------------------------------------------------------------|
A|------------------------------------------------------------------|
D|-5-5-5-5-5-5-5-5-5-5-5-5-5-5-5-5-5-5-5-5-5-5-5-5-5-5-5-5-5-5-5-4--|




  verse
G|-------------------------------------------------------------|
D|-------------------------------------------------------------|
A|--------------9------9-9-9-95-5-5-5-5-------5/-7-5----------|
D|-9-9-9-9-9-9----9-9--------------------0---0---------0-5h7p5-|

G|-------------------------------------------------------------|
D|-------------------------------------------------------------|
A|--------------9----------------------------5-5-5-------------|
D|-9-9-9-9-9-9----9-9-9-9-9-9-9-5-5-5-5-5-5-------5-5-5-0-0-0-|




  chorus
G|-----------------------------------------|
D|-----------------------------------------|
A|-----------------------------------------|
D|-9-9-9-9----------9-9-9-9-x-x-0----------|

G|---------------------------------------------------------------|
D|---------------------------------------------------------------|
A|---------------------------------------------------------------|
D|-5-5-5-5-5-5-5-5-5-5-5-5-5-5-5-----5-5-5-5-5-5-5-----5-5-5-5-5-|




  verse
G|---------------------------------------------------------------------------------|
D|---------------------------------------------------------------------------------|
A|---------------------------9-9-9-10-10-10----------------------------------------|
D|-9-9-9-9-9-9-9-9-9-9-9-9-9----------------10-10-10-10-10-10-10-10-10-10-10-10-10-|

G|----------------------------------------------------------------|
D|----------------------------------------------------------------|
A|-------------------------------------------5--------------------|
D|-2-2-2-2-2-2-2-2-2-2-2-2-2-2-2-2-5-0-0---0----0-0--0-0--0-0-0-0-|

G|---------------------------------------------------------------------------------|
D|---------------------------------------------------------------------------------|
A|---------------------------9-9-9-10-10-10----------------------------------------|
D|-9-9-9-9-9-9-9-9-9-9-9-9-9----------------10-10-10-10-10-10-10-10-10-10-10-10-10-|

G|--------------------------------------------------------------|
D|--------------------------------------------------------------|
A|----5/-----10---10-10-10---10-10-10---10-10-10---5--5/--12----|
D|-0------------------------------------------------------------|




  verse
G|-------------------------------------------------------------|
D|-------------------------------------------------------------|
A|--------------9------9-9-9-95-5-5-5-5-------5/-7-5----------|
D|-9-9-9-9-9-9----9-9--------------------0---0---------0-5h7p5-|

G|-------------------------------------------------------------|
D|-------------------------------------------------------------|
A|--------------9----------------------------5-5-5-------------|
D|-9-9-9-9-9-9----9-9-9-9-9-9-9-5-5-5-5-5-5-------5-5-5-0-0-0-|




  chorus
G|-----------------------------------------|
D|-----------------------------------------|
A|-----------------------------------------|
D|-9-9-9-9----------9-9-9-9-x-x-0----------|

G|---------------------------------------------------------------|
D|---------------------------------------------------------------|
A|---------------------------------------------------------------|
D|-5-5-5-5-5-5-5-5-5-5-5-5-5-5-5-----5-5-5-5-5-5-5-----5-5-5-5-5-|

G|-----------------------------------------|
D|-----------------------------------------|
A|-----------------------------------------|
D|-9-9-9-9----------9-9-9-9-x-x-0----------|

G|---------------------------------------------------------------|
D|---------------------------------------------------------------|
A|---------------------------------------------------------------|
D|-5-5-5-5-5-5-5-5-5-5-5-5-5-5-5-----5-5-5-5-5-5-5-----5-5-5-5-5-|




  verse
G|---------------------------------------------------------------------------------|
D|---------------------------------------------------------------------------------|
A|---------------------------9-9-9-10-10-10----------------------------------------|
D|-9-9-9-9-9-9-9-9-9-9-9-9-9----------------10-10-10-10-10-10-10-10-10-10-10-10-10-|

G|----------------------------------------------------------------|
D|----------------------------------------------------------------|
A|-------------------------------------------5--------------------|
D|-2-2-2-2-2-2-2-2-2-2-2-2-2-2-2-2-5-0-0---0----0-0--0-0--0-0-0-0-|

G|---------------------------------------------------------------------------------|
D|---------------------------------------------------------------------------------|
A|---------------------------9-9-9-10-10-10----------------------------------------|
D|-9-9-9-9-9-9-9-9-9-9-9-9-9----------------10-10-10-10-10-10-10-10-10-10-10-10-10-|

G|-----------------------------------------------------------------|
D|-----------------------------------------------12-12-12-12-12-12-|
A|----5/-----10---10-10-10---10-10-10---10-10-10-------------------|
D|-0---------------------------------------------------------------|

G|-------------------------------------------------|
D|-------------------------------------------------|
A|-10-10-10-10-10-10-10-10-10-10-10-10-10-10-10-10-|
D|-------------------------------------------------|

G|-----------------------------------------------------|
D|-----------------------------------------------------|
A|-10-10-10-10-10-10-10-10-10-10-10-10-10-10-10-----10-|
D|-----------------------------------------------------|




  break
G|-----------------------------------------------------------------|
D|-----------------------------------------------------------------|
A|-----------------------------------------------------------------|
D|-5-------------------------------9-----------------------------0-|

G|-----------------------------------------------------------------|
D|-----------------------------------------------------------------|
A|-----------------------------------------------------------------|
D|-0-----------------------------4-4-------------------------------|

G|-----------------------------------------------------------------|
D|-----------------------------------------------------------------|
A|-----------------------------------------------------------------|
D|-5-5-5-5-5-5-5-5-5-5-5-5-5-5-5-5-9-9-9-9-9-9-9-9-9-9-9-9-9-9-9-9-|

G|-----------------------------------------------------------------|
D|-----------------------------------------------------------------|
A|-----------------------------------------------------------------|
D|-0-0-0-0-0-0-0-0-0-0-0-0-0-0-0-0-4-4-4-4-4-4-4-4-4-4-4-4-4-4-4-4-|

last time:
G|-----------------------------------------------------------------|
D|-----------------------------------------------------------------|
A|-----------------------------------------------------------------|
D|-0-0-0-0-0-0-0-0-0-0-0-0-0-0-0-0-4-4-4-4-4-4-4-4-4-4-4-4-4-4-4-4-|

G|---------------------------------|
D|---------------------------------|
A|-9-9-9-9-9-9-9-9-9-9-9-9-9-9-9-9-|
D|---------------------------------|




  outro.
G|----------------------------------|----------------------------------|
D|----------------------------------|----------------------------------|
A|--2--2----------------------------|--2--2----------------------------|
D|----------0--0----4--4----2--2----|----------0--0----4--4----2--2----|

G|----------------------------------|----------------------------------|
D|----------------------------------|----------------------------------|
A|--2--2----------------------------|--2--2----------------------------|
D|----------0--0----4--4----2--2----|----------0--0----4--4----2--2----|

G|----------------------------------|----------------------------------|
D|----------------------------------|----------------------------------|
A|--2-2-2---------------------------|--2-2-2---------------------------|
D|--------0-0-0-4-4-4-2-2-0-2-0-2-4-|--------0-0-0-4-4-4-2-2-2-2-0-2-4-|

G|----------------------------------|----------------------------------|
D|----------------------------------|----------------------------------|
A|--2-2-2---------------------------|--2-2-2---------------------------|
D|--------0-0-0-4-4-4-2-2-0-2-0-2-4-|--------0-0-0-4-4-4-2-2-2-2-0-2-4-|

G|----------------------------------|----------------------------------|
D|----------------------------------|----------------------------------|
A|--2--2----------------------------|--2--2----------------------------|
D|----------0--0----4--4----2--2----|----------0--0----4--4----2--2----|
comments
We did not receive enough feedback on this tab! Please rate:
print report bad tab
1 2 3 4 5
I want to post or [tab]
guest
You may want to rate the tab now too:
select rating
Please do not post tabs as comments. Select "correction" instead!