Oops, an error
Loading. Please wait.

At This Velocity Tab

ver1
ver1

Whole song

Interactive

More versions @911Tabs.com
1,852 views 1 this week
3 commentsread comments
1 2 3 4 5
excellent!
x 2
Autoscroll
+/-
esc
set tempo
stop
Contributor
Tuning
D A D G B E
Hey! There's an official Ultimate Guitar app which is ideal
for learning songs when you're away from computer. Get the app
WARNING: You are trying to view
                                    content from Ultimate-Guitar.com
                                    in an unauthorized application,
                                    which is prohibited.

                                    Please use an official Ultimate
                                    Guitar Tabs application for iPhone,
                                    iPad or Android to access legitimate
                                    chords, guitar, bass, and drum tabs
                                    from Ultimate-Guitar.com database.

                                    Type "ultimate guitar tabs" in Apple
                                    App Store's or Android Market's
                                    search to find the application.
Okay so. I posted this tab as a Guitar Pro file a while back, but due to the fact that 
everyone has the program, I am posting it as a regular tab, so everyone can enjoy it and 
this kick ass song! Both guitars are in Dropped D tuning and the tempo is roughly 200 BPM. Enjoy guys :-D

Guitar 1
      E   E   E   E   E   E      E   E   E   E   E   E
E||--------------------------|--------------------------|
B||--------------------------|--------------------------|
G||--14--14--14--14--14--14--|--12--12--12--12--12--12--|
D||---x---x---x---x---x---x--|---x---x---x---x---x---x--|
A||--12--12--12--12--12--12--|--10--10--10--10--10--10--|
D||--------------------------|--------------------------|


   E   E   E   E   E   E      E   E   E   E   E   E
--------------------------|--------------------------|
--------------------------|--------------------------|
--14--14--14--14--14--14--|--12--12--12--12--12--12--|
---x---x---x---x---x---x--|---x---x---x---x---x---x--|
--12--12--12--12--12--12--|--10--10--10--10--10--10--|
--------------------------|--------------------------|


   E   E   E   E   E   E      E   E   E   E   E   E
--------------------------|--------------------------|
--------------------------|--------------------------|
--14--14--14--14--14--14--|--12--12--12--12--12--12--|
---x---x---x---x---x---x--|---x---x---x---x---x---x--|
--12--12--12--12--12--12--|--10--10--10--10--10--10--|
--------------------------|--------------------------|


   E   E   E   E   E   E      E   E   E   E   E   E
--------------------------|--------------------------|
--------------------------|--------------------------|
--14--14--14--14--14--14--|--12--12--12--12--12--12--|
---x---x---x---x---x---x--|---x---x---x---x---x---x--|
--12--12--12--12--12--12--|--10--10--10--10--10--10--|
--------------------------|--------------------------|


   E   E   E   E   E   E      E   E   E   E   E   E
--------------------------|--------------------------|
--------------------------|--------------------------|
--14--14--14--14--14--14--|--12--12--12--12--12--12--|
---x---x---x---x---x---x--|---x---x---x---x---x---x--|
--12--12--12--12--12--12--|--10--10--10--10--10--10--|
--------------------------|--------------------------|


   E   E   E   E   E   E      E   E   E   E   E   E
--------------------------|--------------------------|
--------------------------|--------------------------|
--14--14--14--14--14--14--|--12--12--12--12--12--12--|
---x---x---x---x---x---x--|---x---x---x---x---x---x--|
--12--12--12--12--12--12--|--10--10--10--10--10--10--|
--------------------------|--------------------------|


   E   E   E   E   E   E      E   E   E   E   E   E
--------------------------|--------------------------|
--------------------------|--------------------------|
--14--14--14--14--14--14--|--12--12--12--12--12--12--|
---x---x---x---x---x---x--|---x---x---x---x---x---x--|
--12--12--12--12--12--12--|--10--10--10--10--10--10--|
--------------------------|--------------------------|


   E   E   E   E   E   E      E   E   E   E   E   E     Q     E   E   E   E
--------------------------|--------------------------|-----------------------|
--------------------------|--------------------------|-----------------------|
--14--14--14--14--14--14--|--12--12--12--12--12--12--|-------12--12--12--12--|
---x---x---x---x---x---x--|---x---x---x---x---x---x--|--0-----x---x---x---x--|
--12--12--12--12--12--12--|--10--10--10--10--10--10--|--0----10--10--10--10--|
--------------------------|--------------------------|--0--------------------|


  Q     E   E   E   E     Q     E   E   E   E      E    E   E   E   Q
-----------------------|-----------------------|-------------------------|
-----------------------|-----------------------|-------------------------|
-------12--12--12--12--|-------12--12--12--12--|--12s--15--15--15--15----|
--0-----x---x---x---x--|--0-----x---x---x---x--|---x----x---x---x---x----|
--0----10--10--10--10--|--0----10--10--10--10--|--10s--13--13--13--13----|
--0--------------------|--0--------------------|-------------------------|


  Q.      E   Q       Q.      E   Q       Q.      E   Q
-------------------|-------------------|-------------------|
-------------------|-------------------|-------------------|
---------12--12----|---------12--12----|---------12--12----|
--0-------x---x----|--0-------x---x----|--0-------x---x----|
--0------10--10----|--0------10--10----|--0------10--10----|
--0----------------|--0----------------|--0----------------|


   E    E   E   E   E   E     E  E  E   E   E   E     E  E  E   E   E   E
---------------------------|-----------------------|-----------------------|
---------------------------|-----------------------|-----------------------|
--12s--15--15--15--15--15--|--7--7--7--10--10--10--|--9--9--9--12--12--12--|
---x----x---x---x---x---x--|--x--x--x---x---x---x--|--x--x--x---x---x---x--|
--10s--13--13--13--13--13--|--5--5--5---8---8---8--|--7--7--7--10--10--10--|
---------------------------|-----------------------|-----------------------|


   E   E   E   E   E   E      E   E   E   E   E   E     E  E  E   E   E   E
--------------------------|--------------------------|-----------------------|
--------------------------|--------------------------|-----------------------|
--10--10--10--14--14--14--|--15--15--15--15--15--15--|--7--7--7--10--10--10--|
---x---x---x---x---x---x--|---x---x---x---x---x---x--|--x--x--x---x---x---x--|
---8---8---8--12--12--12--|--13--13--13--13--13--13--|--5--5--5---8---8---8--|
--------------------------|--------------------------|-----------------------|


  E  E  E   E   E   E      E   E   E   E   E   E      E  Q    Q.
-----------------------|--------------------------|------------------|
-----------------------|--------------------------|------------------|
--9--9--9--12--12--12--|--10--10--10--14--14--14--|--15--------------|
--x--x--x---x---x---x--|---x---x---x---x---x---x--|---x--------------|
--7--7--7--10--10--10--|---8---8---8--12--12--12--|--13--------------|
-----------------------|--------------------------|------------------|


   E   E   E   E   E   E      E   E   E   E   E   E
--------------------------|--------------------------|
--------------------------|--------------------------|
--14--14--14--14--14--14--|--12--12--12--12--12--12--|
---x---x---x---x---x---x--|---x---x---x---x---x---x--|
--12--12--12--12--12--12--|--10--10--10--10--10--10--|
--------------------------|--------------------------|


   E   E   E   E   E   E      E   E   E   E   E   E
--------------------------|--------------------------|
--------------------------|--------------------------|
--14--14--14--14--14--14--|--12--12--12--12--12--12--|
---x---x---x---x---x---x--|---x---x---x---x---x---x--|
--12--12--12--12--12--12--|--10--10--10--10--10--10--|
--------------------------|--------------------------|


   E   E   E   E   E   E      E   E   E   E   E   E
--------------------------|--------------------------|
--------------------------|--------------------------|
--14--14--14--14--14--14--|--12--12--12--12--12--12--|
---x---x---x---x---x---x--|---x---x---x---x---x---x--|
--12--12--12--12--12--12--|--10--10--10--10--10--10--|
--------------------------|--------------------------|


   E   E   E   E   E   E      E   E   E   E   E   E
--------------------------|--------------------------|
--------------------------|--------------------------|
--14--14--14--14--14--14--|--12--12--12--12--12--12--|
---x---x---x---x---x---x--|---x---x---x---x---x---x--|
--12--12--12--12--12--12--|--10--10--10--10--10--10--|
--------------------------|--------------------------|


   E   E   E   E   E   E      E   E   E   E   E   E
--------------------------|--------------------------|
--------------------------|--------------------------|
--14--14--14--14--14--14--|--12--12--12--12--12--12--|
---x---x---x---x---x---x--|---x---x---x---x---x---x--|
--12--12--12--12--12--12--|--10--10--10--10--10--10--|
--------------------------|--------------------------|


   E   E   E   E   E   E      E   E   E   E   E   E
--------------------------|--------------------------|
--------------------------|--------------------------|
--14--14--14--14--14--14--|--12--12--12--12--12--12--|
---x---x---x---x---x---x--|---x---x---x---x---x---x--|
--12--12--12--12--12--12--|--10--10--10--10--10--10--|
--------------------------|--------------------------|


   E   E   E   E   E   E      E   E   E   E   E   E
--------------------------|--------------------------|
--------------------------|--------------------------|
--14--14--14--14--14--14--|--12--12--12--12--12--12--|
---x---x---x---x---x---x--|---x---x---x---x---x---x--|
--12--12--12--12--12--12--|--10--10--10--10--10--10--|
--------------------------|--------------------------|


   E   E   E   E   E   E      E   E   E   E   E   E     Q    Q    Q
--------------------------|--------------------------|-----------------|
--------------------------|--------------------------|-----------------|
--14--14--14--14--14--14--|--12--12--12--12--12--12--|-----------------|
---x---x---x---x---x---x--|---x---x---x---x---x---x--|--0----0----0----|
--12--12--12--12--12--12--|--10--10--10--10--10--10--|--0----0----0----|
--------------------------|--------------------------|--0----0----0----|


  Q    Q    Q       Q    Q    Q       Q    Q    Q       H.
-----------------|-----------------|-----------------|---------------|
-----------------|-----------------|-----------------|---------------|
-----------------|-----------------|-----------------|---------------|
--0----0----0----|--0----0----0----|--0----0----0----|--0------------|
--0----0----0----|--0----0----0----|--0----0----0----|--0------------|
--0----0----0----|--0----0----0----|--0----0----0----|--0------------|


  H.              Q.      Q.        H.               Q    Q    Q
---------------|-----------------|----------------|-----------------|
---------------|-----------------|----------------|-----------------|
---------------|--9------10------|--2b------------|-----------------|
--L------------|-----------------|----------------|--0----0----0----|
--L------------|-----------------|----------------|--0----0----0----|
--L------------|-----------------|----------------|--0----0----0----|


  Q    Q    Q       Q    Q    Q       Q    Q    Q       E  E  E  E  E  E
-----------------|-----------------|-----------------|--------------------|
-----------------|-----------------|-----------------|--------------------|
-----------------|-----------------|-----------------|--------------------|
--0----0----0----|--0----0----0----|--0----0----0----|--8--8--8--8--8--8--|
--0----0----0----|--0----0----0----|--0----0----0----|--8--8--8--8--8--8--|
--0----0----0----|--0----0----0----|--0----0----0----|--8--8--8--8--8--8--|


  E  E  E  E  E  E     E  E  E  E  E  E     E  E  E  E  E  E
--------------------|--------------------|--------x--x--x--x--|
--------------------|--------------------|--------x--x--x--x--|
--------------------|--------------------|--------x--x--x--x--|
--8--8--8--8--8--8--|--8--8--8--8--8--8--|--8--8--x--x--x--x--|
--8--8--8--8--8--8--|--8--8--8--8--8--8--|--8--8--x--x--x--x--|
--8--8--8--8--8--8--|--8--8--8--8--8--8--|--8--8--x--x--x--x--|


  E  E  E  E  E  E     E  E  E  E  E  E     E  E  E  E  E  E
--------------------|--------------------|--------------------|
--------------------|--------------------|--------------------|
--------------------|--------------------|--------------------|
--7--7--7--0--0--0--|--7--7--7--0--0--0--|--8--8--8--8--8--8--|
--7--7--7--0--0--0--|--7--7--7--0--0--0--|--8--8--8--8--8--8--|
--7--7--7--0--0--0--|--7--7--7--0--0--0--|--8--8--8--8--8--8--|


   E   E   E   E   E   E     E  E  E  E  E  E     E  E  E  E  E  E
--------------------------|--------------------|--------------------|
--------------------------|--------------------|--------------------|
--------------------------|--------------------|--------------------|
--10--10--10--10--10--10--|--7--7--7--0--0--0--|--7--7--7--0--0--0--|
--10--10--10--10--10--10--|--7--7--7--0--0--0--|--7--7--7--0--0--0--|
--10--10--10--10--10--10--|--7--7--7--0--0--0--|--7--7--7--0--0--0--|


  E  E  E  E  E  E      E   E   E   E   E   E     E  E  E  E  E  E
--------------------|--------------------------|--------------------|
--------------------|--------------------------|--------------------|
--------------------|--------------------------|--------------------|
--8--8--8--8--8--8--|--10--10--10--10--10--10--|--7--7--7--0--0--0--|
--8--8--8--8--8--8--|--10--10--10--10--10--10--|--7--7--7--0--0--0--|
--8--8--8--8--8--8--|--10--10--10--10--10--10--|--7--7--7--0--0--0--|


  E  E  E  E  E  E     E  E  E  E  E  E      E   E   E   E   E   E
--------------------|--------------------|--------------------------|
--------------------|--------------------|--------------------------|
--------------------|--------------------|--------------------------|
--7--7--7--0--0--0--|--8--8--8--8--8--8--|--10--10--10--10--10--10--|
--7--7--7--0--0--0--|--8--8--8--8--8--8--|--10--10--10--10--10--10--|
--7--7--7--0--0--0--|--8--8--8--8--8--8--|--10--10--10--10--10--10--|


  E  E  E  E  E  E     E  E  E  E  E  E     E  E  E  E  E  E
--------------------|--------------------|--------------------|
--------------------|--------------------|--------------------|
--------------------|--------------------|--------------------|
--7--7--7--0--0--0--|--7--7--7--0--0--0--|--8--8--8--8--8--8--|
--7--7--7--0--0--0--|--7--7--7--0--0--0--|--8--8--8--8--8--8--|
--7--7--7--0--0--0--|--7--7--7--0--0--0--|--8--8--8--8--8--8--|


   E   E   E   E   E   E     W                   W
--------------------------|-------------------|-------------------|
--------------------------|-------------------|-------------------|
--------------------------|-------------------|-------------------|
--10--10--10--10--10--10--|-------------------|-------------------|
--10--10--10--10--10--10--|-------------------|-------------------|
--10--10--10--10--10--10--|-------------------|-------------------|


  W                   W                   W                   W
-------------------|-------------------|-------------------|-------------------|
-------------------|-------------------|-------------------|-------------------|
-------------------|-------------------|-------------------|-------------------|
-------------------|-------------------|-------------------|-------------------|
-------------------|-------------------|-------------------|-------------------|
-------------------|-------------------|-------------------|-------------------|


  W                   W                   W                   W
-------------------|-------------------|-------------------|-------------------|
-------------------|-------------------|-------------------|-------------------|
-------------------|-------------------|-------------------|-------------------|
-------------------|-------------------|-------------------|-------------------|
-------------------|-------------------|-------------------|-------------------|
-------------------|-------------------|-------------------|-------------------|


  W                   W                   E  E  E  E  E  E
-------------------|-------------------|--------------------|
-------------------|-------------------|--------------------|
-------------------|-------------------|--------------------|
-------------------|-------------------|--7--7--7--0--0--0--|
-------------------|-------------------|--7--7--7--0--0--0--|
-------------------|-------------------|--7--7--7--0--0--0--|


  E  E  E  E  E  E     E  E  E  E  E  E      E   E   E   E   E   E
--------------------|--------------------|--------------------------|
--------------------|--------------------|--------------------------|
--------------------|--------------------|--------------------------|
--7--7--7--0--0--0--|--8--8--8--8--8--8--|--10--10--10--10--10--10--|
--7--7--7--0--0--0--|--8--8--8--8--8--8--|--10--10--10--10--10--10--|
--7--7--7--0--0--0--|--8--8--8--8--8--8--|--10--10--10--10--10--10--|


  E  E  E  E  E  E     E  E  E  E  E  E     E  E  E  E  E  E
--------------------|--------------------|--------------------|
--------------------|--------------------|--------------------|
--------------------|--------------------|--------------------|
--7--7--7--0--0--0--|--7--7--7--0--0--0--|--8--8--8--8--8--8--|
--7--7--7--0--0--0--|--7--7--7--0--0--0--|--8--8--8--8--8--8--|
--7--7--7--0--0--0--|--7--7--7--0--0--0--|--8--8--8--8--8--8--|


   E   E   E   E   E   E     E  E  E   E   E   E     E  E  E   E   E   E
--------------------------|-----------------------|-----------------------|
--------------------------|-----------------------|-----------------------|
--------------------------|--7--7--7--10--10--10--|--9--9--9--12--12--12--|
--10--10--10--10--10--10--|--x--x--x---x---x---x--|--x--x--x---x---x---x--|
--10--10--10--10--10--10--|--5--5--5---8---8---8--|--7--7--7--10--10--10--|
--10--10--10--10--10--10--|-----------------------|-----------------------|


   E   E   E   E   E   E      E   E   E   E   E   E     E  E  E   E   E   E
--------------------------|--------------------------|-----------------------|
--------------------------|--------------------------|-----------------------|
--10--10--10--14--14--14--|--15--15--15--15--15--15--|--7--7--7--10--10--10--|
---x---x---x---x---x---x--|---x---x---x---x---x---x--|--x--x--x---x---x---x--|
---8---8---8--12--12--12--|--13--13--13--13--13--13--|--5--5--5---8---8---8--|
--------------------------|--------------------------|-----------------------|


  E  E  E   E   E   E      E   E   E   E   E   E      E   E   E   E   E   E
-----------------------|--------------------------|--------------------------|
-----------------------|--------------------------|--------------------------|
--9--9--9--12--12--12--|--10--10--10--14--14--14--|--15--15--15--15--15--15--|
--x--x--x---x---x---x--|---x---x---x---x---x---x--|---x---x---x---x---x---x--|
--7--7--7--10--10--10--|---8---8---8--12--12--12--|--13--13--13--13--13--13--|
-----------------------|--------------------------|--------------------------|


  W                   W                   W                   W
-------------------|-------------------|-------------------|-------------------|
-------------------|-------------------|-------------------|-------------------|
-------------------|-------------------|-------------------|-------------------|
--0----------------|--0----------------|--0----------------|--0----------------|
--0----------------|--0----------------|--0----------------|--0----------------|
--0----------------|--0----------------|--0----------------|--0----------------|


  W                   W                   W
-------------------|-------------------|-------------------|
-------------------|-------------------|-------------------|
-------------------|-------------------|-------------------|
--5----------------|--5----------------|--8----------------|
--5----------------|--5----------------|--8----------------|
--5----------------|--5----------------|--8----------------|


  Q     H.              W                   W
---------------------|-------------------|-------------------|
---------------------|-------------------|-------------------|
---------------------|-------------------|-------------------|
--8s----1------------|--0----------------|--0----------------|
--8s----1------------|--0----------------|--0----------------|
--8s----1------------|--0----------------|--0----------------|


  W                   W                   W                   W
-------------------|-------------------|-------------------|-------------------|
-------------------|-------------------|-------------------|-------------------|
-------------------|-------------------|-------------------|-------------------|
--0----------------|--0----------------|--5----------------|--5----------------|
--0----------------|--0----------------|--5----------------|--5----------------|
--0----------------|--0----------------|--5----------------|--5----------------|


  W                   Q     H.              W
-------------------|---------------------|-------------------|
-------------------|---------------------|-------------------|
-------------------|---------------------|-------------------|
--8----------------|--8s----1------------|--0----------------|
--8----------------|--8s----1------------|--0----------------|
--8----------------|--8s----1------------|--0----------------|


  W                   W                   W                   W
-------------------|-------------------|-------------------|-------------------|
-------------------|-------------------|-------------------|-------------------|
-------------------|-------------------|-------------------|-------------------|
--0----------------|--0----------------|--0----------------|--5----------------|
--0----------------|--0----------------|--0----------------|--5----------------|
--0----------------|--0----------------|--0----------------|--5----------------|


  W                   W                   Q     H.
-------------------|-------------------|---------------------|
-------------------|-------------------|---------------------|
-------------------|-------------------|---------------------|
--5----------------|--8----------------|--8s----1------------|
--5----------------|--8----------------|--8s----1------------|
--5----------------|--8----------------|--8s----1------------|


  W                   W                   W                   W
-------------------|-------------------|-------------------|-------------------|
-------------------|-------------------|-------------------|-------------------|
-------------------|-------------------|-------------------|-------------------|
--0----------------|--0----------------|--0----------------|--0----------------|
--0----------------|--0----------------|--0----------------|--0----------------|
--0----------------|--0----------------|--0----------------|--0----------------|


  W                   W                   W
-------------------|-------------------|-------------------|
-------------------|-------------------|-------------------|
-------------------|-------------------|-------------------|
--5----------------|--5----------------|--8----------------|
--5----------------|--5----------------|--8----------------|
--5----------------|--5----------------|--8----------------|


  Q     H.
---------------------||
---------------------||
---------------------||
--8s----1------------||
--8s----1------------||
--8s----1------------||

Guitar 2
     E  E  E  E  E  E     E  E  E  E  E  E     E  E  E  E  E  E
E||--------------------|--------------------|--------------------|
B||--------------------|--------------------|--------------------|
G||--------------------|--------------------|--------------------|
D||--0--0--0--0--0--0--|--0--0--0--0--0--0--|--0--0--0--0--0--0--|
A||--0--0--0--0--0--0--|--0--0--0--0--0--0--|--0--0--0--0--0--0--|
D||--0--0--0--0--0--0--|--0--0--0--0--0--0--|--0--0--0--0--0--0--|


  E  E  E  E  E  E     E  E  E  E  E  E     E  E  E  E  E  E
--------------------|--------------------|--------------------|
--------------------|--------------------|--------------------|
--------------------|--------------------|--------------------|
--0--0--0--0--0--0--|--8--8--8--8--8--8--|--8--8--8--8--8--8--|
--0--0--0--0--0--0--|--8--8--8--8--8--8--|--8--8--8--8--8--8--|
--0--0--0--0--0--0--|--8--8--8--8--8--8--|--8--8--8--8--8--8--|


  E  E  E  E  E  E     E  E  E  E  E  E     E  E  E  E  E  E
--------------------|--------------------|--------------------|
--------------------|--------------------|--------------------|
--------------------|--------------------|--------------------|
--8--8--8--8--8--8--|--8--8--8--8--8--8--|--0--0--0--0--0--0--|
--8--8--8--8--8--8--|--8--8--8--8--8--8--|--0--0--0--0--0--0--|
--8--8--8--8--8--8--|--8--8--8--8--8--8--|--0--0--0--0--0--0--|


  E  E  E  E  E  E     E  E  E  E  E  E     E  E  E  E  E  E
--------------------|--------------------|--------------------|
--------------------|--------------------|--------------------|
--------------------|--------------------|--------------------|
--0--0--0--0--0--0--|--0--0--0--0--0--0--|--0--0--0--0--0--0--|
--0--0--0--0--0--0--|--0--0--0--0--0--0--|--0--0--0--0--0--0--|
--0--0--0--0--0--0--|--0--0--0--0--0--0--|--0--0--0--0--0--0--|


  E  E  E  E  E  E     E  E  E  E  E  E     E  E  E  E  E  E
--------------------|--------------------|--------------------|
--------------------|--------------------|--------------------|
--------------------|--------------------|--------------------|
--8--8--8--8--8--8--|--8--8--8--8--8--8--|--8--8--8--8--8--8--|
--8--8--8--8--8--8--|--8--8--8--8--8--8--|--8--8--8--8--8--8--|
--8--8--8--8--8--8--|--8--8--8--8--8--8--|--8--8--8--8--8--8--|


  E  E  E  E  E  E     Q     E   E   E   E     Q     E   E   E   E
--------------------|-----------------------|-----------------------|
--------------------|-----------------------|-----------------------|
--------------------|-------12--12--12--12--|-------12--12--12--12--|
--8--8--8--8--8--8--|--0-----x---x---x---x--|--0-----x---x---x---x--|
--8--8--8--8--8--8--|--0----10--10--10--10--|--0----10--10--10--10--|
--8--8--8--8--8--8--|--0--------------------|--0--------------------|


  Q     E   E   E   E      E    E   E   E   Q       Q.      E   Q
-----------------------|-------------------------|-------------------|
-----------------------|-------------------------|-------------------|
-------12--12--12--12--|--12s--15--15--15--15----|---------12--12----|
--0-----x---x---x---x--|---x----x---x---x---x----|--0-------x---x----|
--0----10--10--10--10--|--10s--13--13--13--13----|--0------10--10----|
--0--------------------|-------------------------|--0----------------|


  Q.      E   Q       Q.      E   Q        E    E   E   E   E   E
-------------------|-------------------|---------------------------|
-------------------|-------------------|---------------------------|
---------12--12----|---------12--12----|--12s--15--15--15--15--15--|
--0-------x---x----|--0-------x---x----|---x----x---x---x---x---x--|
--0------10--10----|--0------10--10----|--10s--13--13--13--13--13--|
--0----------------|--0----------------|---------------------------|


  E  E  E   E   E   E     E  E  E   E   E   E      E   E   E   E   E   E
-----------------------|-----------------------|--------------------------|
-----------------------|-----------------------|--------------------------|
--7--7--7--10--10--10--|--9--9--9--12--12--12--|--10--10--10--14--14--14--|
--x--x--x---x---x---x--|--x--x--x---x---x---x--|---x---x---x---x---x---x--|
--5--5--5---8---8---8--|--7--7--7--10--10--10--|---8---8---8--12--12--12--|
-----------------------|-----------------------|--------------------------|


   E   E   E   E   E   E     E  E  E   E   E   E     E  E  E   E   E   E
--------------------------|-----------------------|-----------------------|
--------------------------|-----------------------|-----------------------|
--15--15--15--15--15--15--|--7--7--7--10--10--10--|--9--9--9--12--12--12--|
---x---x---x---x---x---x--|--x--x--x---x---x---x--|--x--x--x---x---x---x--|
--13--13--13--13--13--13--|--5--5--5---8---8---8--|--7--7--7--10--10--10--|
--------------------------|-----------------------|-----------------------|


   E   E   E   E   E   E      E  Q    Q.        E  E  E  E  E  E
--------------------------|------------------|--------------------|
--------------------------|------------------|--------------------|
--10--10--10--14--14--14--|--15--------------|--------------------|
---x---x---x---x---x---x--|---x--------------|--0--0--0--0--0--0--|
---8---8---8--12--12--12--|--13--------------|--0--0--0--0--0--0--|
--------------------------|------------------|--0--0--0--0--0--0--|


  E  E  E  E  E  E     E  E  E  E  E  E     E  E  E  E  E  E
--------------------|--------------------|--------------------|
--------------------|--------------------|--------------------|
--------------------|--------------------|--------------------|
--0--0--0--0--0--0--|--0--0--0--0--0--0--|--0--0--0--0--0--0--|
--0--0--0--0--0--0--|--0--0--0--0--0--0--|--0--0--0--0--0--0--|
--0--0--0--0--0--0--|--0--0--0--0--0--0--|--0--0--0--0--0--0--|


  E  E  E  E  E  E     E  E  E  E  E  E     E  E  E  E  E  E
--------------------|--------------------|--------------------|
--------------------|--------------------|--------------------|
--------------------|--------------------|--------------------|
--8--8--8--8--8--8--|--8--8--8--8--8--8--|--8--8--8--8--8--8--|
--8--8--8--8--8--8--|--8--8--8--8--8--8--|--8--8--8--8--8--8--|
--8--8--8--8--8--8--|--8--8--8--8--8--8--|--8--8--8--8--8--8--|


  E  E  E  E  E  E     E  E  E  E  E  E     E  E  E  E  E  E
--------------------|--------------------|--------------------|
--------------------|--------------------|--------------------|
--------------------|--------------------|--------------------|
--8--8--8--8--8--8--|--0--0--0--0--0--0--|--0--0--0--0--0--0--|
--8--8--8--8--8--8--|--0--0--0--0--0--0--|--0--0--0--0--0--0--|
--8--8--8--8--8--8--|--0--0--0--0--0--0--|--0--0--0--0--0--0--|


  E  E  E  E  E  E     E  E  E  E  E  E     E  E  E  E  E  E
--------------------|--------------------|--------------------|
--------------------|--------------------|--------------------|
--------------------|--------------------|--------------------|
--0--0--0--0--0--0--|--0--0--0--0--0--0--|--8--8--8--8--8--8--|
--0--0--0--0--0--0--|--0--0--0--0--0--0--|--8--8--8--8--8--8--|
--0--0--0--0--0--0--|--0--0--0--0--0--0--|--8--8--8--8--8--8--|


  E  E  E  E  E  E     E  E  E  E  E  E     E  E  E  E  E  E
--------------------|--------------------|--------------------|
--------------------|--------------------|--------------------|
--------------------|--------------------|--------------------|
--8--8--8--8--8--8--|--8--8--8--8--8--8--|--8--8--8--8--8--8--|
--8--8--8--8--8--8--|--8--8--8--8--8--8--|--8--8--8--8--8--8--|
--8--8--8--8--8--8--|--8--8--8--8--8--8--|--8--8--8--8--8--8--|


   Q     Q     Q        Q     Q     Q        Q     Q     Q
--------------------|--------------------|--------------------|
--------------------|--------------------|--------------------|
--19----19----19----|--19----19----19----|--18----18----18----|
---x-----x-----x----|---x-----x-----x----|---x-----x-----x----|
--17----17----17----|--17----17----17----|--16----16----16----|
--------------------|--------------------|--------------------|


   Q     Q     Q        H.              H.              H.
--------------------|----------------|---------------|---------------|
--------------------|----------------|---------------|---------------|
--18----18----18----|--15------------|--L------------|--L------------|
---x-----x-----x----|---x------------|---------------|---------------|
--16----16----16----|--13------------|--L------------|--L------------|
--------------------|----------------|---------------|---------------|


  H.              Q    Q    Q       Q    Q    Q       Q    Q    Q
---------------|-----------------|-----------------|-----------------|
---------------|-----------------|-----------------|-----------------|
--L------------|-----------------|-----------------|-----------------|
---------------|--0----0----0----|--0----0----0----|--0----0----0----|
--L------------|--0----0----0----|--0----0----0----|--0----0----0----|
---------------|--0----0----0----|--0----0----0----|--0----0----0----|


  Q    Q    Q       E  E  E  E  E  E     E  E  E  E  E  E
-----------------|--------------------|--------------------|
-----------------|--------------------|--------------------|
-----------------|--------------------|--------------------|
--0----0----0----|--8--8--8--8--8--8--|--8--8--8--8--8--8--|
--0----0----0----|--8--8--8--8--8--8--|--8--8--8--8--8--8--|
--0----0----0----|--8--8--8--8--8--8--|--8--8--8--8--8--8--|


  E  E  E  E  E  E     E  E  E  E  E  E     E  E  E  E  E  E
--------------------|--------x--x--x--x--|--------------------|
--------------------|--------x--x--x--x--|--------------------|
--------------------|--------x--x--x--x--|--------------------|
--8--8--8--8--8--8--|--8--8--x--x--x--x--|--7--7--7--0--0--0--|
--8--8--8--8--8--8--|--8--8--x--x--x--x--|--7--7--7--0--0--0--|
--8--8--8--8--8--8--|--8--8--x--x--x--x--|--7--7--7--0--0--0--|


  E  E  E  E  E  E     E  E  E  E  E  E      E   E   E   E   E   E
--------------------|--------------------|--------------------------|
--------------------|--------------------|--------------------------|
--------------------|--------------------|--------------------------|
--7--7--7--0--0--0--|--8--8--8--8--8--8--|--10--10--10--10--10--10--|
--7--7--7--0--0--0--|--8--8--8--8--8--8--|--10--10--10--10--10--10--|
--7--7--7--0--0--0--|--8--8--8--8--8--8--|--10--10--10--10--10--10--|


  E  E  E  E  E  E     E  E  E  E  E  E     E  E  E  E  E  E
--------------------|--------------------|--------------------|
--------------------|--------------------|--------------------|
--------------------|--------------------|--------------------|
--7--7--7--0--0--0--|--7--7--7--0--0--0--|--8--8--8--8--8--8--|
--7--7--7--0--0--0--|--7--7--7--0--0--0--|--8--8--8--8--8--8--|
--7--7--7--0--0--0--|--7--7--7--0--0--0--|--8--8--8--8--8--8--|


   E   E   E   E   E   E      E   E   E   E   E   E
--------------------------|--------------------------|
--------------------------|--------------------------|
--------------------------|--19--19--19--17--17--17--|
--10--10--10--10--10--10--|---x---x---x---x---x---x--|
--10--10--10--10--10--10--|--17--17--17--15--15--15--|
--10--10--10--10--10--10--|--------------------------|


   E   E   E   E   E   E      E   E   E   E   E   E     E  E    E   E   E  E
--------------------------|--------------------------|------------------------|
--------------------------|--------------------------|------------------------|
--15--15--15--14--14--14--|--12--12--12--10--10--10--|--9--9s--10--10s--9--9--|
---x---x---x---x---x---x--|---x---x---x---x---x---x--|--x--x----x---x---x--x--|
--13--13--13--12--12--12--|--10--10--10---8---8---8--|--7--7s---8---8s--7--7--|
--------------------------|--------------------------|------------------------|


   E   E   E   E   E   E      E   E   E   E   E   E
--------------------------|--------------------------|
--------------------------|--------------------------|
--19--19--19--17--17--17--|--15--15--15--14--14--14--|
---x---x---x---x---x---x--|---x---x---x---x---x---x--|
--17--17--17--15--15--15--|--13--13--13--12--12--12--|
--------------------------|--------------------------|


   E   E   E   E   E   E     E  E    E   E   E  E
--------------------------|------------------------|-----|-----|-----|-----|
--------------------------|------------------------|-----|-----|-----|-----|
--12--12--12--10--10--10--|--9--9s--10--10s--9--9--|-----|-----|-----|-----|
---x---x---x---x---x---x--|--x--x----x---x---x--x--|-----|-----|-----|-----|
--10--10--10---8---8---8--|--7--7s---8---8s--7--7--|-----|-----|-----|-----|
--------------------------|------------------------|-----|-----|-----|-----|


                                                  E  E  E  E  E  E
-----|-----|-----|-----|-----|-----|-----|-----|--------------------|
-----|-----|-----|-----|-----|-----|-----|-----|--------------------|
-----|-----|-----|-----|-----|-----|-----|-----|--------------------|
-----|-----|-----|-----|-----|-----|-----|-----|--7--7--7--0--0--0--|
-----|-----|-----|-----|-----|-----|-----|-----|--7--7--7--0--0--0--|
-----|-----|-----|-----|-----|-----|-----|-----|--7--7--7--0--0--0--|


  E  E  E  E  E  E     E  E  E  E  E  E      E   E   E   E   E   E
--------------------|--------------------|--------------------------|
--------------------|--------------------|--------------------------|
--------------------|--------------------|--------------------------|
--7--7--7--0--0--0--|--8--8--8--8--8--8--|--10--10--10--10--10--10--|
--7--7--7--0--0--0--|--8--8--8--8--8--8--|--10--10--10--10--10--10--|
--7--7--7--0--0--0--|--8--8--8--8--8--8--|--10--10--10--10--10--10--|


  E  E  E  E  E  E     E  E  E  E  E  E     E  E  E  E  E  E
--------------------|--------------------|--------------------|
--------------------|--------------------|--------------------|
--------------------|--------------------|--------------------|
--7--7--7--0--0--0--|--7--7--7--0--0--0--|--8--8--8--8--8--8--|
--7--7--7--0--0--0--|--7--7--7--0--0--0--|--8--8--8--8--8--8--|
--7--7--7--0--0--0--|--7--7--7--0--0--0--|--8--8--8--8--8--8--|


   E   E   E   E   E   E     E  E  E   E   E   E     E  E  E   E   E   E
--------------------------|-----------------------|-----------------------|
--------------------------|-----------------------|-----------------------|
--------------------------|--7--7--7--10--10--10--|--9--9--9--12--12--12--|
--10--10--10--10--10--10--|--x--x--x---x---x---x--|--x--x--x---x---x---x--|
--10--10--10--10--10--10--|--5--5--5---8---8---8--|--7--7--7--10--10--10--|
--10--10--10--10--10--10--|-----------------------|-----------------------|


   E   E   E   E   E   E      E   E   E   E   E   E     E  E  E   E   E   E
--------------------------|--------------------------|-----------------------|
--------------------------|--------------------------|-----------------------|
--10--10--10--14--14--14--|--15--15--15--15--15--15--|--7--7--7--10--10--10--|
---x---x---x---x---x---x--|---x---x---x---x---x---x--|--x--x--x---x---x---x--|
---8---8---8--12--12--12--|--13--13--13--13--13--13--|--5--5--5---8---8---8--|
--------------------------|--------------------------|-----------------------|


  E  E  E   E   E   E      E   E   E   E   E   E      E   E   E   E   E   E
-----------------------|--------------------------|--------------------------|
-----------------------|--------------------------|--------------------------|
--9--9--9--12--12--12--|--10--10--10--14--14--14--|--15--15--15--15--15--15--|
--x--x--x---x---x---x--|---x---x---x---x---x---x--|---x---x---x---x---x---x--|
--7--7--7--10--10--10--|---8---8---8--12--12--12--|--13--13--13--13--13--13--|
-----------------------|--------------------------|--------------------------|


  W                   W                   W                   W
-------------------|-------------------|-------------------|-------------------|
-------------------|-------------------|-------------------|-------------------|
-------------------|-------------------|-------------------|-------------------|
--0----------------|--0----------------|--0----------------|--0----------------|
--0----------------|--0----------------|--0----------------|--0----------------|
--0----------------|--0----------------|--0----------------|--0----------------|


  W                   W                   W
-------------------|-------------------|-------------------|
-------------------|-------------------|-------------------|
-------------------|-------------------|-------------------|
--5----------------|--5----------------|--8----------------|
--5----------------|--5----------------|--8----------------|
--5----------------|--5----------------|--8----------------|


  Q     H.              W                   W
---------------------|-------------------|-------------------|
---------------------|-------------------|-------------------|
---------------------|-------------------|-------------------|
--8s----1------------|--0----------------|--0----------------|
--8s----1------------|--0----------------|--0----------------|
--8s----1------------|--0----------------|--0----------------|


  W                   W                   W                   W
-------------------|-------------------|-------------------|-------------------|
-------------------|-------------------|-------------------|-------------------|
-------------------|-------------------|-------------------|-------------------|
--0----------------|--0----------------|--5----------------|--5----------------|
--0----------------|--0----------------|--5----------------|--5----------------|
--0----------------|--0----------------|--5----------------|--5----------------|


  W                   Q     H.              Q     Q    Q     Q
-------------------|---------------------|------------------------|
-------------------|---------------------|------------------------|
-------------------|---------------------|-------11---------11----|
--8----------------|--8s----1------------|--7----------7----------|
--8----------------|--8s----1------------|------------------------|
--8----------------|--8s----1------------|------------------------|


  Q     Q     H             Q     Q    Q     Q
-------------------------|------------------------|
-------------------------|------------------------|
-------11----11br--------|-------11---------11----|
--7----------------------|--7----------7----------|
-------------------------|------------------------|
-------------------------|------------------------|


              |----3----|
  Q     Q     Q    Q    Q       Q     Q    Q     Q
-----------------------------|------------------------|
-----------------------------|------------------------|
-------11----11----9----7----|-------11---------11----|
--7--------------------------|--9----------9----------|
-----------------------------|------------------------|
-----------------------------|------------------------|


  Q     Q     H              E    E   E   E   E   E   E   E
-------------------------|-----------------------------------|
-------------------------|-----------------------------------|
-------11----11br--------|--11s--12--12--12--12--12--12--14--|
--9----------------------|-----------------------------------|
-------------------------|-----------------------------------|
-------------------------|-----------------------------------|


   E   E   E   E    E   E    E   E     Q     Q    Q     Q
------------------------------------|------------------------|
------------------------------------|------------------------|
--14--14--14--14s--12--12s--11--11--|-------11---------11----|
------------------------------------|--7----------7----------|
------------------------------------|------------------------|
------------------------------------|------------------------|


  Q     Q     H             Q     Q    Q     Q
-------------------------|------------------------|
-------------------------|------------------------|
-------11----11br--------|-------11---------11----|
--7----------------------|--7----------7----------|
-------------------------|------------------------|
-------------------------|------------------------|


              |----3----|
  Q     Q     Q    Q    Q       Q     Q    Q     Q
-----------------------------|------------------------|
-----------------------------|------------------------|
-------11----11----9----7----|-------11---------11----|
--7--------------------------|--9----------9----------|
-----------------------------|------------------------|
-----------------------------|------------------------|


  Q     Q     H              E    E   E   E   E   E   E   E
-------------------------|-----------------------------------|
-------------------------|-----------------------------------|
-------11----11br--------|--11s--12--12--12--12--12--12--14--|
--9----------------------|-----------------------------------|
-------------------------|-----------------------------------|
-------------------------|-----------------------------------|


   E   E   E   E    E   E    E   E
------------------------------------||
------------------------------------||
--14--14--14--14s--12--12s--11--11--||
------------------------------------||
------------------------------------||
------------------------------------||


Duration Legend
---------------
W - whole
H - half
Q - quarter
E - 8th
S - 16th
T - 32nd
X - 64th
. - note dotted
|-n-|  - n-tuplets


Tablature Legend
----------------
L - tied note
x - dead note
g - grace note
(n) - ghost note
> - accentuded note
NH - natural harmonic
AH - artificial harmonic
TH - tapped harmonic
SH - semi harmonic
PH - pitch harmonic
h - hammer on
p - pull off
b - bend
br - bendRelease
pb - preBend
pbr - preBendRelease
brb - bendReleaseBend
\n/ - tremolo bar dip
\n - tremolo bar dive
-/n - tremolo bar Release up
/n\ - tremolo bar inverted dip
/n - tremolo bar return
-\n - tremolo bar Release down
S - shift slide
s - legato slide
/ -  slide into from below or out of upwards
\ -  slide into from above or out of downwards
~ - vibrato
W - wide vibrato
tr - trill
TP - tremolo picking
T - tapping
S - slap
P - pop
< - fade in
^ - brush up
v - brush down
comments
We did not receive enough feedback on this tab! Please rate:
print report bad tab
1 2 3 4 5
3 comments total.
0 reply
alvins52 wrote on September 4 2006, 04:13 pm

Thanks a lot! You're my new hero!

0 reply
UselessGlory wrote on December 10 2006, 06:14 pm

this is a very accurate tab, but it's enourmous!!!! Use the X4 or X25 to show how many times you have to repeat a riff.

0 reply
takingback182 wrote on May 6 2007, 01:12 pm

I'm guessing this is in 3/4 or 6/8 time, right? Since it only has six of each chord per measure when playing eighth notes.

I want to post or [tab]
guest
You may want to rate the tab now too:
select rating
Please do not post tabs as comments. Select "correction" instead!