Oops, an error
Loading. Please wait.

For The Workforce Drowning Tab

ver3
ver3

Whole song

Interactive

More versions @911Tabs.com
3,926 views 3 this week
no commentswrite comment
1 2 3 4 5
excellent!
x 2
Autoscroll
+/-
esc
set tempo
stop
Contributor
Tuning
D A D G B E
Hey! There's an official Ultimate Guitar app which is ideal
for learning songs when you're away from computer. Get the app
WARNING: You are trying to view
                                    content from Ultimate-Guitar.com
                                    in an unauthorized application,
                                    which is prohibited.

                                    Please use an official Ultimate
                                    Guitar Tabs application for iPhone,
                                    iPad or Android to access legitimate
                                    chords, guitar, bass, and drum tabs
                                    from Ultimate-Guitar.com database.

                                    Type "ultimate guitar tabs" in Apple
                                    App Store's or Android Market's
                                    search to find the application.
For the Workforce, Drowning
Thursday

Dropped D tuning

Intro
Guitars 1 and 2
e|---0-0-0-0--0--0--|-8-8-8-8-5--5--6--|-0-0-0-0-0--0--0--|-8-8-8-8-5--5--6--|
B|-6-6-6-6-6--6--6--|-6-6-6-6-6--6--6--|-6-6-6-6-6--6--6--|-6-6-6-6-6--6--6--|
G|-7-7-7-7-7--7--7--|-7-7-7-7-7--7--7--|-7-7-7-7-7--7--7--|-7-7-7-7-7--7--7--|
D|-0-0-0-0-0--0--0--|-0-0-0-0-0--0--0--|-0-0-0-0-0--0--0--|-0-0-0-0-0--0--0--|
A|-0-0-0-0-0--0--0--|-0-0-0-0-0--0--0--|-0-0-0-0-0--0--0--|-0-0-0-0-0--0--0--|
D|-0-0-0-0-0--0--0--|-0-0-0-0-0--0--0--|-0-0-0-0-0--0--0--|-0-0-0-0-0--0--0--|

Verse x2
Guitar 1
e|-0------------|-8p0---6p0---5p0---6p0-|-5--5--5--5--5--5--6--6--6--6--6--6-|
B|-6------------|-----------------------|-6--6--6--6--6--6--6--6--6--6--6--6-|
G|-7---------7--|-----7-----7-----7----7|-7--7--7--7--7--7--7--7--7--7--7--7-|
D|-0------------|-----------------------|------------------------------------|
A|-0------------|-----------------------|------------------------------------|
D|-0------------|-----------------------|------------------------------------|
Guitar 2
e|--------------|-----------------------|-5-----5--5--5--5--6-----6--6--6--6-|
B|--------------|-----------------------|-6-----6--6--6--6--6-----6--6--6--6-|
G|-7------------|-(7)-------------------|-7-----7--7--7--7--7-----7--7--7--7-|
D|-0------------|-(0)-------------------|------------------------------------|
A|-0------------|-(0)-------------------|------------------------------------|
D|-0------------|-(0)-------------------|------------------------------------|

Guitar 1
e|-5--5--5--5--5--5--6--6--6--6--6--6-|-0------------|-8p0---6p0---5p0---6p0-|
B|-6--6--6--6--6--6--6--6--6--6--6--6-|-6------------|-----------------------|
G|-7--7--7--7--7--7--7--7--7--7--7--7-|-7---------7--|-----7-----7-----7----7|
D|------------------------------------|-0------------|-----------------------|
A|------------------------------------|-0------------|-----------------------|
D|------------------------------------|-0------------|-----------------------|
Guitar 2
e|-5-----5--5--5--5--0--0--0--0--0--0-|--------------|-5-5-5-5-5-5-5-5-5-5-5-|
B|-6-----6--6--6--6--6--6--6--6--6--6-|--------------|-5-5-5-5-5-5-5-5-5-5-5-|
G|-7-----7--7--7--7--7--7--7--7--7--7-|-7------------|-7-7-7-7-7-7-7-7-7-7-7-|
D|-------------------8--8--8--8--8--8-|-0------------|-----------------------|
A|------------------------------------|-0------------|-----------------------|
D|------------------------------------|-0------------|-----------------------|

Guitar 1
e|-5--5--5--5--5--5--6--6--6--6--6--6--|--5--5--5--5--5--5--6--6--6--6--6--6-|
B|-6--6--6--6--6--6--6--6--6--6--6--6--|--6--6--6--6--6--6--6--6--6--6--6--6-|
G|-7--7--7--7--7--7--7--7--7--7--7--7--|--7--7--7--7--7--7--7--7--7--7--7--7-|
D|-------------------------------------|-------------------------------------|
A|-------------------------------------|-------------------------------------|
D|-------------------------------------|-------------------------------------|
Guitar 2
e|13-13-13-13-13-13-13-13-13-13-13-13--|-13----13-13-13-13-13----13-13-13-13-|
B|13-13-13-13-13-13-13-13-13-13-13-13--|-15p13-13-13-13-13-15p13-13-13-13-13-|
G|15-15-15-15-15-15-15-15-15-15-15-15--|-15----15-15-15-15-15----15-15-15-15-|
D|-------------------------------------|-------------------------------------|
A|-------------------------------------|-------------------------------------|
D|-------------------------------------|-------------------------------------|

Chorus
Guitar 1
e|-0-0-0-0-0--0--0--|-8-8-8-8-5--5--6--|-------------------------------------|
B|-6-6-6-6-6--6--6--|-6-6-6-6-6--6--6--|-------------------------------------|
G|-7-7-7-7-7--7--7--|-7-7-7-7-7--7--7--|-10-10-10--9--9--9-10-10-10--9-10-10-|
D|-0-0-0-0-0--0--0--|-0-0-0-0-0--0--0--|-10-10-10-10-10-10-10-10-10-10-10-10-|
A|-0-0-0-0-0--0--0--|-0-0-0-0-0--0--0--|--8--8--8--8--8--8--8--8--8--8--8--8-|
D|-0-0-0-0-0--0--0--|-0-0-0-0-0--0--0--|--8--8--8--8--8--8--8--8--8--8--8--8-|
Guitar 2
e|-0-0-0-0-0--0--0--|-8-8-8-8-5--5--6--|-------------------------------------|
B|-6-6-6-6-6--6--6--|-6-6-6-6-6--6--6--|-------------------------------------|
G|-7-7-7-7-7--7--7--|-7-7-7-7-7--7--7--|--7-----7--7-----7--7-----7--7-----7-|
D|-0-0-0-0-0--0--0--|-0-0-0-0-0--0--0--|--8-----8--8-----8--8-----8--8-----8-|
A|-0-0-0-0-0--0--0--|-0-0-0-0-0--0--0--|--8-----8--8-----8--8-----8--8-----8-|
D|-0-0-0-0-0--0--0--|-0-0-0-0-0--0--0--|--8-----8--8-----8--8-----8--8-----8-|

Guitar 1
e|--------------------------------|-0-0-0-0-0---0---0--|-8-8-8-8-5---5---6---|
B|--------------------------------|-6-6-6-6-6---6---6--|-6-6-6-6-6---6---6---|
G|-10-10--9--9--9/15-15-15-14-14--|-7-7-7-7-7---7---7--|-7-7-7-7-7---7---7---|
D|--x--x--x--x--x/-x--x--x--x--x--|-0-0-0-0-0---0---0--|-0-0-0-0-0---0---0---|
A|--8--8--7--7--7/13-13-13-12-12--|-0-0-0-0-0---0---0--|-0-0-0-0-0---0---0---|
D|--------------------------------|-0-0-0-0-0---0---0--|-0-0-0-0-0---0---0---|
Guitar 2
e|--------------------------------|-0-0-0-0-0---0---0--|-8-8-8-8-5---5---6---|
B|--------------------------------|-6-6-6-6-6---6---6--|-6-6-6-6-6---6---6---|
G|--9-----9--9-----9--9-----9--9--|-7-7-7-7-7---7---7--|-7-7-7-7-7---7---7---|
D|-10----10-10----10-10----10-10--|-0-0-0-0-0---0---0--|-0-0-0-0-0---0---0---|
A|-10----10-10----10-10----10-10--|-0-0-0-0-0---0---0--|-0-0-0-0-0---0---0---|
D|-10----10-10----10-10----10-10--|-0-0-0-0-0---0---0--|-0-0-0-0-0---0---0---|

Guitar 1
e|-------------------------------------|-------------------------------------|
B|-------------------------------------|-------------------------------------|
G|-10-10-10--9--9--9-10-10-10--9-10-10-|-9/10-10-10-\9--9--9/-12-12-12-12-12-|
D|-10-10-10-10-10-10-10-10-10-10-10-10-|-x/-x--x--x-\x--x--x/--x--x--x--x--x-|
A|--8--8--8--8--8--8--8--8--8--8--8--8-|-7/-8--8--8-\7--7--7/-10-10-10-10-10-|
D|--8--8--8--8--8--8--8--8--8--8--8--8-|-------------------------------------|
Guitar 2
e|-------------------------------------|-------------------------------------|
B|-------------------------------------|-------------------------------------|
G|--7-----7--7-----7--7-----7--7-----7-|-6-----6--6-----6--6------6--6-----6-|
D|--8-----8--8-----8--8-----8--8-----8-|-7-----7--7-----7--7------7--7-----7-|
A|--8-----8--8-----8--8-----8--8-----8-|-7-----7--7-----7--7------7--7-----7-|
D|--8-----8--8-----8--8-----8--8-----8-|-7-----7--7-----7--7------7--7-----7-|

Verse x2
Guitar 1
e|-------------------12----10-------|-----------------12-----10--------------|
B|-------------10-p0-------------10-|-----------10-p0--------------10--------|
G|-------10-p0----------------------|-----10-p0------------------------------|
D|-12-------------------------------|-12-------------------------------------|
A|----------------------------------|----------------------------------------|
D|----------------------------------|----------------------------------------|
Guitar 2
e|--------------------------------0-|----------------------------------------|
B|-15-15-15-15-15-15-15-15-15-15--0-|----------------------------------------|
G|-14-14-14-14-14-14-14-14-14-14--0-|--7-----14-------12---------9-----------|
D|--0--0--0--0--0--0--0--0--0--0--0-|--x------x--------x---------x-----------|
A|--0--0--0--0--0--0--0--0--0--0--0-|--5--p0-12----p0-10------p0-7----p0-----|
D|--0--0--0--0--0--0--0--0--0--0--0-|----------------------------------------|

Guitar 1
e|--5----------------------------------|--5----------------------------------|
B|--------6-----5-----5----h6-----5----|--------6-----5-----5----h6-----5----|
G|-------------------------------------|-------------------------------------|
D|-------------------------------------|-------------------------------------|
A|-------------------------------------|-------------------------------------|
D|-------------------------------------|-------------------------------------|
Guitar 2
e|-15-15-15-15-15-15-17-17-17-17-17-17-|-15-15-15-15-15-15-15-15-15-15-15-15-|
B|-13-13-13-13-13-13-13-13-13-13-13-13-|-13-13-13-13-13-13-13-13-13-13-13-13-|
G|-15-15-15-15-15-15-15-15-15-15-15-15-|--x--x--x--x--x--x--x--x--x--x--x--x-|
D|-------------------------------------|-15-15-15-15-15-15-14-14-14-14-14-14-|
A|-------------------------------------|-------------------------------------|
D|-------------------------------------|-------------------------------------|

Guitar 1
e|---------------------12--10-------------|------------------12--10----------|
B|-------------10--p0---------------10----|-----------10-p0------------10----|
G|-----10--p0-----------------------------|-----10-p0------------------------|
D|-12-------------------------------------|-12-------------------------------|
A|----------------------------------------|----------------------------------|
D|----------------------------------------|----------------------------------|
Guitar 2                                                          
e|---------------------------------------------------------------------------|
B|--3---3---3---3---3/-10--10--10--10--10-|----------------------------------|
G|--2---2---2---2---2/--9---9---9---9---9-|--7---7/14----14-\12--12\-9----0--|
D|--0---0---0---0---0---0---0---0---0---0-|--x---x/-x-----x-\-x---x\-x----0--|
A|--0---0---0---0---0---0---0---0---0---0-|--5---5/12----12-\10--10\-7----0--|
D|--0---0---0---0---0---0---0---0---0---0-|----------------------------------|


Pre-chorus
Guitar 1
e|-------------------------------------|-------------------------------------|
B|-10----------------11----------------|-10----------------11----------------|
G|-12----------------12----------------|-12----------------12----------------|
D|-------------------------------------|-------------------------------------|
A|-------------------------------------|-------------------------------------|
D|-------------------------------------|-------------------------------------|
   ///               ///                 ///               ///
Guitar 2
e|-15-15-15-15-15-15-17-17-17-17-17-17-|-15-15-15-15-15-15-15-15-15-15-15-15-|
B|-13-13-13-13-13-13-13-13-13-13-13-13-|-13-13-13-13-13-13-13-13-13-13-13-13-|
G|-15-15-15-15-15-15-15-15-15-15-15-15-|--x--x--x--x--x--x--x--x--x--x--x--x-|
D|-------------------------------------|-15-15-15-15-15-15-14-14-14-14-14-14-|
A|-------------------------------------|-------------------------------------|
D|-------------------------------------|-------------------------------------|

Guitar 1
e|-------------------------------------|-------------------------------------|
B|-17----------------17----------------|-17----------------------------------|
G|-19----------------21----------------|-19------------------15---17---19----|
D|-------------------------------------|----------------------x----x----x----|
A|-------------------------------------|---------------------13---15---17----|
D|-------------------------------------|-------------------------------------|
   ///               ///                 ///
Guitar 2
e|-------------------------------------|-------------------------------------|
B|-------------------------------------|-------------------------------------|
G|-12-12-12-12-12-12-14-14-14-14-14-14-|-15-15-15-15-15-15---15---17---19----|
D|--x--x--x--x--x--x--x--x--x--x--x--x-|--x--x--x--x--x--x----x----x----x----|
A|-10-10-10-10-10-10-12-12-12-12-12-12-|-13-13-13-13-13-13---13---15---17----|
D|-------------------------------------|-------------------------------------|

Chorus x1

Bridge
Guitar 1
e|-0-0-0-0-0--0--0-|-0--0--0--0--0--0-|-0--0--0--0--0--0-|-0--0--0--0--0--0--|
B|-6-6-6-6-6--6--6-|-6--6--6--6--6--6-|-6--6--6--6--6--6-|-6--6--6--6--6--6--|
G|-7-7-7-7-7--7--7-|-7--7--7--7--7--7-|-7--7--7--7--7--7-|-7--7--7--7--7--7--|
D|-0-0-0-0-0--0--0-|-0--0--0--0--0--0-|-0--0--0--0--0--0-|-0--0--0--0--0--0--|
A|-0-0-0-0-0--0--0-|-0--0--0--0--0--0-|-0--0--0--0--0--0-|-0--0--0--0--0--0--|
D|-0-0-0-0-0--0--0-|-0--0--0--0--0--0-|-0--0--0--0--0--0-|-0--0--0--0--0--0--|
Guitar 2
e|-0-0-0-0-0--0--0-|-0--0--0--0--0--0-|-0--0--0--0--0--0-|-0--0--0--0--0--0--|
B|-6-6-6-6-6--6--6-|-6--6--6--6--6--6-|-6--6--6--6--6--6-|-6--6--6--6--6--6--|
G|-7-7-7-7-7--7--7-|-7--7--7--7--7--7-|-7--7--7--7--7--7-|-7--7--7--7--7--7--|
D|-0-0-0-0-0--0--0-|-0--0--0--0--0--0-|-0--0--0--0--0--0-|-0--0--0--0--0--0-0|
A|-0-0-0-0-0--0--0-|-0--0--0--0--0--0-|-0--0--0--0--0--0-|-0--0--0--0--0--0-0|
D|-0-0-0-0-0--0--0-|-0--0--0--0--0--0-|-0--0--0--0--0--0-|-0--0--0--0--0--000|

Guitar 1
e|-----------|------------|------------|------------|------------|-----------|
B|-----------|------------|------------|------------|------------|-----------|
G|-----------|------------|------------|------------|------------|-----------|
D|-----------|------------|------------|------------|------------|-----------|
A|-----------|------------|------------|------------|------------|-----------|
D|-----------|------------|------------|------------|------------|-----------|
 |Guitar 2
e|-----------|------------|------------|------------|------------|-----------|
B|-----------|------------|------------|------------|------------|-----------|
G|-----------|------------|------------|------------|------------|-----------|
D|-(0)-------|-(0)--------|-(0)--------|-(0)--------|-(0)--------|-----------|
A|-(0)-------|-(0)--------|-(0)--------|-(0)--------|-(0)--------|-----------|
D|-(0)-------|-(0)--------|-(0)--------|-(0)--------|-(0)--------|-----------|

Guitar 1
e|------------------------------------|-----------------------------------10-|
B|------------------------------------|-----------------------------------10-|
G|------------------------------------|-----------------------------------10-|
D|------------------------------------|--------------------------------------|
A|------------------------------------|--------------------------------------|
D|------------------------------------|--------------------------------------|
 |Guitar 2
e|------------------------------------|--------------------------------------|
B|------------------------------------|--------------------------------------|
G|------------------------------------|--------------------------------------|
D|--0---------------------------------|-(0)----------------------------------|
A|--0---------------------------------|-(0)----------------------------------|
D|--0---------------------------------|-(0)----------------------------------|

Guitar 1
e|-13-10-10-10-10-10---10-|-10-------10-10-10---10-|-12-10-10-10-10-10---10--|
B|-10-10-11-13-10-11---10-|-13p11p10-11-10-10---10-|-10-10-11-13-10-11---10--|
G|-10-10-10-10-10-10---10-|-10-------10-10-12---10-|-10-10-10-10-10-10---10--|
D|------------------------|------------------------|-------------------------|
A|------------------------|------------------------|-------------------------|
D|------------------------|------------------------|-------------------------|
 |Guitar 2
e|------------------------|------------------------|-------------------------|
B|------------------------|------------------------|-------------------------|
G|------------------------|------------------------|-------------------------|
D|-(0)--------------------|-(0)--------------------|-(0)---------------------|
A|-(0)--------------------|-(0)--------------------|-(0)---------------------|
D|-(0)--------------------|-(0)--------------------|-(0)---------------------|

Guitar 1
e|-10-------10-10-10---10-|-13-10-10-10-10-10---10-|-10-------10-10-10---10--|
B|-13p11p10-11-10-10---10-|-10-10-11-13-10-11---10-|-13p11p10-11-10-10---10--|
G|-10-------10-10-12---10-|-10-10-10-10-10-10---10-|-10-------10-10-12---10--|
D|------------------------|------------------------|-------------------------|
A|------------------------|------------------------|-------------------------|
D|------------------------|------------------------|-------------------------|
 |Guitar 2
e|------------------------|------------------------|-------------------------|
B|------------------------|------------------------|-------------------------|
G|------------------------|------------------------|-------------------------|
D|------------------------|------------------------|-------------------------|
A|------------------------|------------------------|-------------------------|
D|------------------------|------------------------|-------------------------|

Guitar 1
e|-12-10-10-10-10-10---10-|-10-------10-10-10---10-(-13-10-10-10-10-10---10--|
B|-10-10-11-13-10-11---10-|-13p11p10-11-10-10---10-(-10-10-11-13-10-11---10--|
G|-10-10-10-10-10-10---10-|-10-------10-10-12---10-(-10-10-10-10-10-10---10--|
D|------------------------|------------------------(-------------------------|
A|------------------------|------------------------(-------------------------|
D|------------------------|------------------------(-------------------------|
 |Guitar 2
e|------------------------|---------------------13-(-13-13-13-12-12-12---12--|
B|------------------------|---------------------10-(-10-10-10-10-10-10---10--|
G|------------------------|---------------------10-(-10-10-10-10-10-10---10--|
D|------------------------|------------------------(-------------------------|
A|------------------------|------------------------(-------------------------|
D|------------------------|------------------------(-------------------------|

Guitar 1
e|-10------10-10-10-10--10-|-12-10-10-10-10-10--10-|-10------10-10-10-10--10-)
B|-13p11p1010-11-10-10--10-|-10-10-11-13-10-11--10-|-13p11p1010-11-10-10--10-)
G|-10------10-10-10-12--10-|-10-10-10-10-10-10--10-|-10------10-10-10-12--10-)
D|-------------------------|-----------------------|-------------------------)
A|-------------------------|-----------------------|-------------------------)
D|-------------------------|-----------------------|-------------------------)
 |Guitar 2
e|-12--12--12-10-10-10--10-|-10-10-10-10-10-10--10-|-10--10--10-10-10-10--10-)
B|-10--10--10-11-11-11--11-|-11-11-11-13-13-13--10-|-10--10--13-13-13-13--10-)
G|-10--10--10-10-10-10--10-|-10-10-10-10-10-10--10-|-10--10--10-10-10-10--10-)
D|-------------------------|-----------------------|-------------------------)
A|-------------------------|-----------------------|-------------------------)
D|-------------------------|-----------------------|-------------------------)

Repeat the section in parentheses once

Guitar 1
e|------------------------|------------------------|-------------------------|
B|------------------------|------------------------|-------------------------|
G|------------------------|------------------------|-------------------------|
D|--0--0--0--0----------7-|--7--7--7-------------8-|--8--8--8------------10--|
A|--0--0--0--0----------7-|--7--7--7-------------8-|--8--8--8------------10--|
D|--0--0--0--0----------7-|--7--7--7-------------8-|--8--8--8------------10--|
 |Guitar 2
e|-13-13-13-12-12-12---12-|-12-12-12-10-10-10---10-|-10-10-10-10-10-10---10--|
B|-10-10-10-10-10-10---10-|-10-10-10-11-11-11---11-|-11-11-11-13-13-13---10--|
G|-10-10-10-10-10-10---10-|-10-10-10-10-10-10---10-|-10-10-10-10-10-10---10--|
D|------------------------|------------------------|-------------------------|
A|------------------------|------------------------|-------------------------|
D|------------------------|------------------------|-------------------------|

Guitar 1
e|------------------------|------------------------|-------------------------|
B|------------------------|------------------------|-------------------------|
G|------------------------|------------------------|-------------------------|
D|-10-10-10-------------0-|--0--0--0-------------7-|--7--7--7----------------|
A|-10-10-10-------------0-|--0--0--0-------------7-|--7--7--7----------------|
D|-10-10-10-------------0-|--0--0--0-------------7-|--7--7--7----------------|
 |Guitar 2
e|-10-10-10-10-10-10---13-|-13-13-13-12-12-12---12-|-10-10-10-10-10-10---10--|
B|-10-10-13-13-13-13---13-|-10-10-10-10-10-10---10-|-11-11-11-13-13-13---10--|
G|-10-10-10-10-10-10---10-|-10-10-10-10-10-10---10-|-10-10-10-10-10-10---10--|
D|------------------------|------------------------|-------------------------|
A|------------------------|------------------------|-------------------------|
D|------------------------|------------------------|-------------------------|

Breakdown
Guitar 1
e|--------------------------------|------------------------------------------|
B|--------------------------------|--3---------------------------------------|
G|-10-10-10-10------9--9--9--9----|--2--------------12--12--12--12--12--12---|
D|--8--8--8--8------7--7--7--7----|--0--------------10--10--10--10--10--10---|
A|--8--8--8--8------7--7--7--7----|--0--------------10--10--10--10--10--10---|
D|--8--8--8--8------7--7--7--7----|--0--------------10--10--10--10--10--10---|
 |Guitar 2
e|--------------------------------|------------------------------------------|
B|--------------------------------|--3---------------------------------------|
G|-10-10-10-10------9--9--9--9----|--2--------------12--12--12--12--12--12---|
D|--8--8--8--8------7--7--7--7----|--0--------------10--10--10--10--10--10---|
A|--8--8--8--8------7--7--7--7----|--0--------------10--10--10--10--10--10---|
D|--8--8--8--8------7--7--7--7----|--0--------------10--10--10--10--10--10---|

Guitar 1
e|--------------------------------|------------------------------------------|
B|--------------------------------|------------------------------------------|
G|-10-10-10-10------9--9--9--9----|--14^r14---------12--12--12--12--12--12---|
D|--8--8--8--8------7--7--7--7----|---x---x---------10--10--10--10--10--10---|
A|--8--8--8--8------7--7--7--7----|--12^r12---------10--10--10--10--10--10---|
D|--8--8--8--8------7--7--7--7----|-----------------10--10--10--10--10--10---|
 |Guitar 2
e|--------------------------------|------------------------------------------|
B|--------------------------------|--3---------------------------------------|
G|-10-10-10-10------9--9--9--9----|--2--------------12--12--12--12--12--12---|
D|--8--8--8--8------7--7--7--7----|--0--------------10--10--10--10--10--10---|
A|--8--8--8--8------7--7--7--7----|--0--------------10--10--10--10--10--10---|
D|--8--8--8--8------7--7--7--7----|--0--------------10--10--10--10--10--10---|

Guitar 1
e|---------------------------------------------------------------------------|
B|---------------------------------------------------------------------------|
G|---10--10--10--10--10--10--10--10---9---9---9---9---9---9---9---9----------|
D|----8---8---8---8---8---8---8---8---7---7---7---7---7---7---7---7----------|
A|----8---8---8---8---8---8---8---8---7---7---7---7---7---7---7---7----------|
D|----8---8---8---8---8---8---8---8---7---7---7---7---7---7---7---7----------|
 |Guitar 2
e|---------------------------------------------------------------------------|
B|---------------------------------------------------------------------------|
G|---12-/14--14--14--14--14--12--12--12-/14--14--14--14--14--12--12----------|
D|----x-/-x---x---x---x---x---x---x---x-/-x---x---x---x---x---x---x----------|
A|---10-/12--12--12--12--12--10--10--10-/12--12--12--12--12--10--10----------|
D|---------------------------------------------------------------------------|

Guitar 1
e|---------------------------------------------------------------------------|
B|----3---3---3---3---3---3---3---3------------------------------------------|
G|----2---2---2---2---2---2---2---2--12--12--12--12--12--12--12--12----------|
D|----0---0---0---0---0---0---0---0--10--10--10--10--10--10--10--10----------|
A|----0---0---0---0---0---0---0---0--10--10--10--10--10--10--10--10----------|
D|----0---0---0---0---0---0---0---0--10--10--10--10--10--10--10--10----------|
 |Guitar 2
e|---------------------------------------------------------------------------|
B|---------------------------------------------------------------------------|
G|---12-\10--10--10--10--10--10--10---9--10---9--10---9--10--10-/12----------|
D|----x-\-x---x---x---x---x---x---x---x---x---x---x---x---x---x-/-x----------|
A|---10-\-8---8---8---8---8---8---8---8---8---8---8---8---8---8-/10----------|
D|---------------------------------------------------------------------------|

Guitar 1
e|---------------------------------------------------------------------------|
B|---------------------------------------------------------------------------|
G|---10--10--10--10--10--10--10--10---9---9---9---9---9---9---9---9----------|
D|----8---8---8---8---8---8---8---8---7---7---7---7---7---7---7---7----------|
A|----8---8---8---8---8---8---8---8---7---7---7---7---7---7---7---7----------|
D|----8---8---8---8---8---8---8---8---7---7---7---7---7---7---7---7----------|
Guitar 2
e|---------------------------------------------------------------------------|
B|---------------------------------------------------------------------------|
G|---12-/14--14--14--14--14--14--15--15-\14--14--14--14--14------------------|
D|----x-/-x---x---x---x---x---x---x---x-\-x---x---x---x---x------------------|
A|---10-/12--12--12--12--12--12--13--13-\12--12--12--12--12------------------|
D|------------------------------------------------------------0---0----------|

Guitar 1
e|---------------------------------------------------------------------------|
B|----3---3---3---3---3---3---3---3------------------------------------------|
G|----2---2---2---2---2---2---2---2--12--12--12--12--12--12--12--12----------|
D|----0---0---0---0---0---0---0---0--10--10--10--10--10--10--10--10----------|
A|----0---0---0---0---0---0---0---0--10--10--10--10--10--10--10--10----------|
D|----0---0---0---0---0---0---0---0--10--10--10--10--10--10--10--10----------|
Guitar 2
e|---------------------------------------------------------------------------|
B|---------------------------------------------------------------------------|
G|---12-\10--10--10--10--10--10---9---9--10---9--10--10---9---7---7----------|
D|----x-\-x---x---x---x---x---x---x---x---x---x---x---x---x---x---x----------|
A|---10-\-8---8---8---8---8---8---8---8---8---8---8---8---7---5---5----------|
D|---------------------------------------------------------------------------|


Guitar 1
e|---------------------------------------------------------------------------|
B|---------------------------------------------------------------------------|
G|---10--10--10--10--10--10--10--10---9---9---9---9---9---9---9---9----------|
D|----8---8---8---8---8---8---8---8---7---7---7---7---7---7---7---7----------|
A|----8---8---8---8---8---8---8---8---7---7---7---7---7---7---7---7----------|
D|----8---8---8---8---8---8---8---8---7---7---7---7---7---7---7---7----------|
Guitar 2
e|---13--13--13--13----------12--12--12--12--12--12--12--12--13--13----------|
B|---13--13--13--13--13--13--13--13--13--13--13--13--13--13--13--13----------|
G|---12--12--12--12--12--12--12--12--12--12--12--12--12--12--12--12----------|
D|---------------------------------------------------------------------------|
A|---------------------------------------------------------------------------|
D|---------------------------------------------------------------------------|

Guitar 1
e|---------------------------------------------------------------------------|
B|----3---3---3---3---3---3---3---3------------------------------------------|
G|----2---2---2---2---2---2---2---2--12--12--12--12--12--12--12--12----------|
D|----0---0---0---0---0---0---0---0--10--10--10--10--10--10--10--10----------|
A|----0---0---0---0---0---0---0---0--10--10--10--10--10--10--10--10----------|
D|----0---0---0---0---0---0---0---0--10--10--10--10--10--10--10--10----------|
Guitar 2 
e|---13--13--12--12--12--12--12--12--10--10--10--10--10--10--10--10----------|
B|---13--13--13--13--13--13--13--13--13--13--13--13--13--13--13--13----------|
G|---12--12--12--12--12--12--12--12--12--12--12--12--12--12--12--12----------|
D|---------------------------------------------------------------------------|
A|---------------------------------------------------------------------------|
D|---------------------------------------------------------------------------|

Guitar 1
e|------------------------------------------------|--------------------------|
B|------------------------------------------------|-3--3--3--3--3--3--3--3---|
G|-10-10-10-10-10-10-10-10--9--9--9--9--9--9--9--9|-2--2--2--2--2--2--2--2-12|
D|--8--8--8--8--8--8--8--8--7--7--7--7--7--7--7--7|-0--0--0--0--0--0--0--0-10|
A|--8--8--8--8--8--8--8--8--7--7--7--7--7--7--7--7|-0--0--0--0--0--0--0--0-10|
D|--8--8--8--8--8--8--8--8--7--7--7--7--7--7--7--7|-0--0--0--0--0--0--0--0-10|
Guitar 2
e|-10-10-10-10-10-10-12-12-12-12-12-12-12-12-12-13|13-13-12-12-12-12-------15|
B|-13-13-13-13-13-13-13-13-13-13-13-13-13-13-13-13|13-13-13-13-13-13-13-13--x|
G|-12-12-12-12-12-12-12-12-12-12-12-12-12-12-12-12|12-12-12-12-12-12--0--0-12|
D|------------------------------------------------|-------------------0--0---|
A|------------------------------------------------|--------------------------|
D|------------------------------------------------|--------------------------|

Outro
Guitar 1
e|-0-0-0-0-0--0--0--|-8-8-8-8-5--5--6--|-0-0-0-0-0--0--0--|-8-8-8-8-5--5--6--|
B|-6-6-6-6-6--6--6--|-6-6-6-6-6--6--6--|-6-6-6-6-6--6--6--|-6-6-6-6-6--6--6--|
G|-7-7-7-7-7--7--7--|-7-7-7-7-7--7--7--|-7-7-7-7-7--7--7--|-7-7-7-7-7--7--7--|
D|-0-0-0-0-0--0--0--|-0-0-0-0-0--0--0--|-0-0-0-0-0--0--0--|-0-0-0-0-0--0--0--|
A|-0-0-0-0-0--0--0--|-0-0-0-0-0--0--0--|-0-0-0-0-0--0--0--|-0-0-0-0-0--0--0--|
D|-0-0-0-0-0--0--0--|-0-0-0-0-0--0--0--|-0-0-0-0-0--0--0--|-0-0-0-0-0--0--0--|
 |Guitar 2
e|-0-0-0-0-0--0--0--|-8-8-8-8-5--5--6--|-0-0-0-0-0--0--0--|-8-8-8-8-5--5--6--|
B|-6-6-6-6-6--6--6--|-6-6-6-6-6--6--6--|-6-6-6-6-6--6--6--|-6-6-6-6-6--6--6--|
G|-7-7-7-7-7--7--7--|-7-7-7-7-7--7--7--|-7-7-7-7-7--7--7--|-7-7-7-7-7--7--7--|
D|-0-0-0-0-0--0--0--|-0-0-0-0-0--0--0--|-0-0-0-0-0--0--0--|-0-0-0-0-0--0--0--|
A|-0-0-0-0-0--0--0--|-0-0-0-0-0--0--0--|-0-0-0-0-0--0--0--|-0-0-0-0-0--0--0--|
D|-0-0-0-0-0--0--0--|-0-0-0-0-0--0--0--|-0-0-0-0-0--0--0--|-0-0-0-0-0--0--0--|

Guitar 1
e|-5--5--5--5--5--5--6--6--6--6--6--6-|--5--5--5--5--5--5--------------------|
B|-6--6--6--6--6--6--6--6--6--6--6--6-|--6--6--6--6--6--6-----3----3----3----|
G|-7--7--7--7--7--7--7--7--7--7--7--7-|--7--7--7--7--7--7-----2----2----2----|
D|------------------------------------|-----------------------0----0----0----|
A|------------------------------------|-----------------------0----0----0----|
D|------------------------------------|-----------------------0----0----0----|
 |Guitar 2
e|------------------------------------|--------------------------------------|
B|------------------------------------|-----------------------3----3----3----|
G|-7--7--7--7--7--7-/9--9--9--9--9--9-|-10-10-10-10-10-10-----2----2----2----|
D|-x--x--x--x--x--x-/x--x--x--x--x--x-|--x--x--x--x--x--x-----0----0----0----|
A|-5--5--5--5--5--5-/7--7--7--7--7--7-|--8--8--8--8--8--8-----0----0----0----|
D|------------------------------------|-----------------------0----0----0----|

h   | hammer-on
p   | pull-off
/   | slide up
\   | slide down
/// | tremolo picking
note in parentheses | tied note
x   | muted note
^   |half bend
r   |release
comments
We did not receive enough feedback on this tab! Please rate:
print report bad tab
1 2 3 4 5
I want to post or [tab]
guest
You may want to rate the tab now too:
select rating
Please do not post tabs as comments. Select "correction" instead!