Oops, an error
Loading. Please wait.

Friends In The Armed Forces Bass Tab

613 views 1 this week
no commentswrite comment
1 2 3 4 5
excellent!
x 1
Autoscroll
+/-
esc
set tempo
stop
Contributor
WARNING: You are trying to view
                                    content from Ultimate-Guitar.com
                                    in an unauthorized application,
                                    which is prohibited.

                                    Please use an official Ultimate
                                    Guitar Tabs application for iPhone,
                                    iPad or Android to access legitimate
                                    chords, guitar, bass, and drum tabs
                                    from Ultimate-Guitar.com database.

                                    Type "ultimate guitar tabs" in Apple
                                    App Store's or Android Market's
                                    search to find the application.
-------------------------------------------------------------------------------
          Friends In The Armed Forces - Thursday
-------------------------------------------------------------------------------

Tabbed By : Nathan Schaffert
e-mail / screenname: sk8tbs152@aim.com

Tuning: Dropped D

Intro (0:08)
G|-----------------------------------------------------------------|
D|-----------------------------------------------------------------|
A|-9-9-9-9-9-9-9-9-0-0-0-0-0-0-0-0-2-2-2-2-2-2-2-2-------2-2-2-2-2-|
D|-------------------------------------------------0-0-0-----------|
   1 + 2 + 3 + 4 + 1 + 2 + 3 + 4 + 1 + 2 + 3 + 4 + 1 + 2 + 3 + 4 +
G|-----------------------------------------------------------------|
D|-----------------------------------------------------------------|
A|-9-9-9-9-9-9-9-9-0-0-0-0-0-0-0-0-2-2-2-2-2-2-2-2-------2-2-2-2-2-|
D|-------------------------------------------------0-0-0-----------|
   1 + 2 + 3 + 4 + 1 + 2 + 3 + 4 + 1 + 2 + 3 + 4 + 1 + 2 + 3 + 4 +
G|-----------------------------------------------------------------|
D|-----------------------------------------------------------------|
A|-9-9-9-9-9-9-9-9-0-0-0-0-0-0-0-0-2-2-2-2-2-2-2-2-------2-2-2-2-2-|
D|-------------------------------------------------0-0-0-----------|
   1 + 2 + 3 + 4 + 1 + 2 + 3 + 4 + 1 + 2 + 3 + 4 + 1 + 2 + 3 + 4 +
G|-----------------------------------------------------------------|
D|-----------------------------------------------------------------|
A|-9-9-9-9-9-9-9-9-0-0-0-0-0-0-0-0-2-2-2-2-2-2-2-2-------2-2-2-2-2-|
D|-------------------------------------------------0-0-0-----------|
   1 + 2 + 3 + 4 + 1 + 2 + 3 + 4 + 1 + 2 + 3 + 4 + 1 + 2 + 3 + 4 +

Verse (0:28)
 
G|-----------------------------------------------------------------|
D|-----------------------------------------------------------------|
A|-----------------------------------------------------------------|
D|-0-0-0-4---4-0-4---4-0-4---4-0---0-0-0-4---4-0-4---4-0-4---4-0---|
   1 + 2 + 3 + 4 + 1 + 2 + 3 + 4 + 1 + 2 + 3 + 4 + 1 + 2 + 3 + 4 +
G|-----------------------------------------------------------------|
D|-----------------------------------------------------------------|
A|-----------------------------------------------------------------|
D|-0-0-0-4---4-0-4---4-0-4---4-0---0-0-0-4---4-0-4---4-0-4---4-0---|
   1 + 2 + 3 + 4 + 1 + 2 + 3 + 4 + 1 + 2 + 3 + 4 + 1 + 2 + 3 + 4 +
G|-----------------------------------------------------------------|
D|-----------------------------------------------------------------|
A|-2-2-2-2-2-2-2-2-0-0-0-0-0-0-0-0-2-2-2-2-2-2-2-2-0-0-0-0-0-0-0-0-|
D|-----------------------------------------------------------------|
   1 + 2 + 3 + 4 + 1 + 2 + 3 + 4 + 1 + 2 + 3 + 4 + 1 + 2 + 3 + 4 +
G|-----------------------------------------------------------------|
D|-----------------------------------------------------------------|
A|-----------------------------------------------------------------|
D|-0-0-0-4---4-0-4---4-0-4---4-0---0-0-0-4---4-0-4---4-0-4---4-0---|
   1 + 2 + 3 + 4 + 1 + 2 + 3 + 4 + 1 + 2 + 3 + 4 + 1 + 2 + 3 + 4 +
G|-----------------------------------------------------------------|
D|-----------------------------------------------------------------|
A|-2-2-2-2-2-2-2-2-----------------2-2-2-2-2-2-2-2-----------------|
D|-----------------0-0-0-0-0-0-0-0-----------------0-0-0-0-0-0-0-0-|
   1 + 2 + 3 + 4 + 1 + 2 + 3 + 4 + 1 + 2 + 3 + 4 + 1 + 2 + 3 + 4 +

Chorus (0:54)
G|-----------------------------------------------------------------|
D|-----------------------------------------------------------------|
A|-9-9-9-9-9-9-9-9-0-0-0-0-0-0-0-0-2-2-2-2-2-2-2-2/5-5-5-2-2-2-2-2/|
D|-----------------------------------------------------------------|
   1 + 2 + 3 + 4 + 1 + 2 + 3 + 4 + 1 + 2 + 3 + 4 + 1 + 2 + 3 + 4 +
G|-----------------------------------------------------------------|
D|-----------------------------------------------------------------|
A|-9-9-9-9-9-9-9-9-0-0-0-0-0-0-0-0-2-2-2-2-2-2-2-2-------2-2-2-2-2-|
D|-------------------------------------------------0-0-0-----------|
   1 + 2 + 3 + 4 + 1 + 2 + 3 + 4 + 1 + 2 + 3 + 4 + 1 + 2 + 3 + 4 +
G|-----------------------------------------------------------------|
D|-----------------------------------------------------------------|
A|-----------------0-0-0-0-0-0-0-0-2-2-2-2-2-2-2-2-------2-2-2-2-2-|
D|-4-4-4-4-4-4-4-4---------------------------------0-0-0-----------|
   1 + 2 + 3 + 4 + 1 + 2 + 3 + 4 + 1 + 2 + 3 + 4 + 1 + 2 + 3 + 4 +
G|-----------------------------------------------------------------|
D|-----------------------------------------------------------------|
A|-----------------0-0-0-0-0-0-0-0-2-2-2-2-2-2-2-2/5-5-5-2-2-2-2-2-|
D|-4-4-4-4-4-4-4-4-------------------------------------------------|
   1 + 2 + 3 + 4 + 1 + 2 + 3 + 4 + 1 + 2 + 3 + 4 + 1 + 2 + 3 + 4 +

Verse (1:15)
G|-----------------------------------------------------------------|
D|-----------------------------------------------------------------|
A|-----------------------------------------------------------------|
D|---------------------------------0-0-0-4---4-0-4---4-0-4---4-0---|
   1 + 2 + 3 + 4 + 1 + 2 + 3 + 4 + 1 + 2 + 3 + 4 + 1 + 2 + 3 + 4 +
G|-----------------------------------------------------------------|
D|-----------------------------------------------------------------|
A|-----------------------------------------------------------------|
D|-0-0-0-4---4-0-4---4-0-4---4-0---0-0-0-4---4-0-4---4-0-4---4-0---|
   1 + 2 + 3 + 4 + 1 + 2 + 3 + 4 + 1 + 2 + 3 + 4 + 1 + 2 + 3 + 4 +
G|-----------------------------------------------------------------|
D|-----------------------------------------------------------------|
A|-2-2-2-2-2-2-2-2-0-0-0-0-0-0-0-0-2-2-2-2-2-2-2-2-5-5-5-5-5-5-5-5-|
D|-----------------------------------------------------------------|
   1 + 2 + 3 + 4 + 1 + 2 + 3 + 4 + 1 + 2 + 3 + 4 + 1 + 2 + 3 + 4 +
G|-----------------------------------------------------------------|
D|-----------------------------------------------------------------|
A|-----------------------------------------------------------------|
D|-0-0-0-4---4-0-4---4-0-4---4-0---0-0-0-4---4-0-4---4-0-4---4-0---|
   1 + 2 + 3 + 4 + 1 + 2 + 3 + 4 + 1 + 2 + 3 + 4 + 1 + 2 + 3 + 4 +
G|-----------------------------------------------------------------|
D|-----------------------------------------------------------------|
A|-2-2-2-2-2-2-2-2-2-2-2-2-2-2-2-2-5-5-5-5-5-5-5-5-7-7-7-7-7-7-7-7-|
D|-----------------------------------------------------------------|
   1 + 2 + 3 + 4 + 1 + 2 + 3 + 4 + 1 + 2 + 3 + 4 + 1 + 2 + 3 + 4 +

Chorus (1:41)
G|-----------------------------------------------------------------|
D|-----------------------------------------------------------------|
A|-9-9-9-9-9-9-9-9-0-0-0-0-0-0-0-0-2-2-2-2-2-2-2-2/5-5-5-2-2-2-2-2/|
D|-----------------------------------------------------------------|
   1 + 2 + 3 + 4 + 1 + 2 + 3 + 4 + 1 + 2 + 3 + 4 + 1 + 2 + 3 + 4 +
G|-----------------------------------------------------------------|
D|-----------------------------------------------------------------|
A|-9-9-9-9-9-9-9-9-0-0-0-0-0-0-0-0-2-2-2-2-2-2-2-2-------2-2-2-2-2-|
D|-------------------------------------------------0-0-0-----------|
   1 + 2 + 3 + 4 + 1 + 2 + 3 + 4 + 1 + 2 + 3 + 4 + 1 + 2 + 3 + 4 +
G|-----------------------------------------------------------------|
D|-----------------------------------------------------------------|
A|-----------------0-0-0-0-0-0-0-0-2-2-2-2-2-2-2-2-------2-2-2-2-2-|
D|-4-4-4-4-4-4-4-4---------------------------------0-0-0-----------|
   1 + 2 + 3 + 4 + 1 + 2 + 3 + 4 + 1 + 2 + 3 + 4 + 1 + 2 + 3 + 4 +
G|-----------------------------------------------------------------|
D|-----------------------------------------------------------------|
A|-----------------0-0-0-0-0-0-0-0-2-2-2-2-2-2-2-2/5-5-5-2-2-2-2-2-|
D|-4-4-4-4-4-4-4-4-------------------------------------------------|
   1 + 2 + 3 + 4 + 1 + 2 + 3 + 4 + 1 + 2 + 3 + 4 + 1 + 2 + 3 + 4 +

Bridge (2:01)
G|-----------------------------------------------------------------|
D|-----------------------------------------------------------------|
A|-----------------------------------------------------------------|
D|-4---4-------------------4-2-4-2---------------------------------|
   1 + 2 + 3 + 4 + 1 + 2 + 3 + 4 + 1 + 2 + 3 + 4 + 1 + 2 + 3 + 4 +
G|-----------------------------------------------------------------|
D|-----------------------------------------------------------------|
A|---------5-------\-----------------------------------------------|
D|-0---0-------------------0-2-4-2---------------2-2-----2-2-2-2-2-|
   1 + 2 + 3 + 4 + 1 + 2 + 3 + 4 + 1 + 2 + 3 + 4 + 1 + 2 + 3 + 4 +
G|-----------------------------------------------------------------|
D|-----------------------------------------------------------------|
A|---------------------------2/9-7-------------------------7-9-7---|
D|-4---4-------------------4---------------------------------------|
   1 + 2 + 3 + 4 + 1 + 2 + 3 + 4 + 1 + 2 + 3 + 4 + 1 + 2 + 3 + 4 +
G|-----------------------------------------------------------------|
D|-----------------------------------------------------------------|
A|-5-----------------------7-5-7-4-----------------4-----4-4-4-2---|
D|-----------------------------------------------------------------|
   1 + 2 + 3 + 4 + 1 + 2 + 3 + 4 + 1 + 2 + 3 + 4 + 1 + 2 + 3 + 4 +
G|-----------------------------------------------------------------|
D|-----------------------------------------------------------------|
A|-----------------------------------------------------------------|
D|-4---4-------------------4-2-4-2---------------------------------|
   1 + 2 + 3 + 4 + 1 + 2 + 3 + 4 + 1 + 2 + 3 + 4 + 1 + 2 + 3 + 4 +
G|-----------------------------------------------------------------|
D|-----------------------------------------------------------------|
A|---------5-------\-----------------------------------------------|
D|-0---0-------------------0-2-4-2---------------2-2-----2-2-2-2-2-|
   1 + 2 + 3 + 4 + 1 + 2 + 3 + 4 + 1 + 2 + 3 + 4 + 1 + 2 + 3 + 4 +
G|-----------------------------------------------------------------|
D|-----------------------------------------------------------------|
A|---------------------------2/9-7-------------------------7-9-7---|
D|-4---4-------------------4---------------------------------------|
   1 + 2 + 3 + 4 + 1 + 2 + 3 + 4 + 1 + 2 + 3 + 4 + 1 + 2 + 3 + 4 +
G|-----------------------------------------------------------------|
D|-----------------------------------------------------------------|
A|-5-----------------------7-5-7-4-----------------4-----4-4-4-2---|
D|-----------------------------------------------------------------|
   1 + 2 + 3 + 4 + 1 + 2 + 3 + 4 + 1 + 2 + 3 + 4 + 1 + 2 + 3 + 4 +

Bridge Cont. (2:42)
G|-----------------------------------------------------------------|
D|-----------------------------------------------------------------|
A|-2-----2-----2---2---------------2-----2-----2---2---------------|
D|-----------------------------------------------------------------|
   1 + 2 + 3 + 4 + 1 + 2 + 3 + 4 + 1 + 2 + 3 + 4 + 1 + 2 + 3 + 4 +
G|-----------------------------------------------------------------|
D|-----------------------------------------------------------------|
A|-5-----5-----5---5-----------------------------------------------|
D|---------------------------------2-----2-----2-/-14--------------|
   1 + 2 + 3 + 4 + 1 + 2 + 3 + 4 + 1 + 2 + 3 + 4 + 1 + 2 + 3 + 4 +
G|-----------------------------------------------------------------|
D|-----------------------------------------------------------------|
A|-----------------------------------------------------------------|
D|-9-----9-----9---9---------------9-----9-----9---9---------------|
   1 + 2 + 3 + 4 + 1 + 2 + 3 + 4 + 1 + 2 + 3 + 4 + 1 + 2 + 3 + 4 +
G|-----------------------------------------------------------------|
D|-----------------------------------------------------------------|
A|-----------------------------------------------------------------|
D|-12----12----12--12--------------14----14----14--14--------------|
   1 + 2 + 3 + 4 + 1 + 2 + 3 + 4 + 1 + 2 + 3 + 4 + 1 + 2 + 3 + 4 +
   ^     ^     ^ these are 12s and 14s   ^     ^   ^ 
G|-----------------------------------------------------------------|
D|-----------------------------------------------------------------|
A|-----------------------------------------------------------------|
D|-----------------------------------------------------------------|
   1 + 2 + 3 + 4 + 1 + 2 + 3 + 4 + 1 + 2 + 3 + 4 + 1 + 2 + 3 + 4 +
G|-----------------------------------------------------------------|
D|-----------------------------------------------------------------|
A|-------------------------------------------------------2-----2---|
D|-------------------------------------------------0---------------|
   1 + 2 + 3 + 4 + 1 + 2 + 3 + 4 + 1 + 2 + 3 + 4 + 1 + 2 + 3 + 4 +

Ending (3:13)
G|-----------------------------------------------------------------|
D|-----------------------------------------------------------------|
A|-----------------0-0-0-0-0-0-0-0-2-2-2-2-2-2-2-2/5-5-5-2-2-2-2-2-|
D|-4-4-4-4-4-4-4-4-------------------------------------------------|
   1 + 2 + 3 + 4 + 1 + 2 + 3 + 4 + 1 + 2 + 3 + 4 + 1 + 2 + 3 + 4 +
G|-----------------------------------------------------------------|
D|-----------------------------------------------------------------|
A|-----------------0-0-0-0-0-0-0-0-2-2---------2-2-----------------|
D|-4-4-4-4-4-4-4-4-----------------------0-0---------0-0-----------|
   1 + 2 + 3 + 4 + 1 + 2 + 3 + 4 + 1 + 2 + 3 + 4 + 1 + 2 + 3 + 4 +
G|-----------------------------------------------------------------|
D|-----------------------------------------------------------------|
A|-----------------2-2---------2-2---------------------------------|
D|-----------------------0-0---------0-0---------------------------|
   1 + 2 + 3 + 4 + 1 + 2 + 3 + 4 + 1 + 2 + 3 + 4 + 1 + 2 + 3 + 4 +
G|-----------------------------------------------------------------|
D|-----------------------------------------------------------------|
A|-2-2---------2-2---------------------------------2-2---------2-2-|
D|-------0-0---------0-0---------------------------------0-0-------|
   1 + 2 + 3 + 4 + 1 + 2 + 3 + 4 + 1 + 2 + 3 + 4 + 1 + 2 + 3 + 4 +
G|--------------------------------|
D|--------------------------------|
A|--------------------------------|
D|-0-0----------------------------|
   1 + 2 + 3 + 4 + 1 + 2 + 3 + 4 +

G|-----------------------------------------------------------------|
D|-----------------------------------------------------------------|
A|-----------------0-0-0-0-0-0-0-0-2-2-2-2-2-2-2-2/5-5-5-2-2-2-2-2/|
D|-4-4-4-4-4-4-4-4-------------------------------------------------|
   1 + 2 + 3 + 4 + 1 + 2 + 3 + 4 + 1 + 2 + 3 + 4 + 1 + 2 + 3 + 4 +
G|-----------------------------------------------------------------|
D|-----------------------------------------------------------------|
A|-----------------0-0-0-0-0-0-0-0-2-2-2-2-2-2-2-2-------2-2-2-2-2-|
D|-4-4-4-4-4-4-4-4---------------------------------0-0-0-----------|
   1 + 2 + 3 + 4 + 1 + 2 + 3 + 4 + 1 + 2 + 3 + 4 + 1 + 2 + 3 + 4 +
G|-----------------------------------------------------------------|
D|-----------------------------------------------------------------|
A|-9-9-9-9-9-9-9-9-0-0-0-0-0-0-0-0-2-2-2-2-2-2-2-2-------2-2-2-2-2-|
D|-------------------------------------------------0-0-0-----------|
   1 + 2 + 3 + 4 + 1 + 2 + 3 + 4 + 1 + 2 + 3 + 4 + 1 + 2 + 3 + 4 +
G|----------------------------------------------------------------||
D|----------------------------------------------------------------||
A|-9-9-9-9-9-9-9-9-0-0-0-0-0-0-0-0-2-2---------2-2----------------||
D|---------------------------------------0-0---------0-0----------||
   1 + 2 + 3 + 4 + 1 + 2 + 3 + 4 + 1 + 2 + 3 + 4 + 1 + 2 + 3 + 4 +

| /  slide up
| \  slide down
| h  hammer-on
| p  pull-off
| ~  vibrato
| +  harmonic
| x  Mute note

***e-mail or IM (sk8tbs152) me for the 5-String version***
===============================================================================
comments
We did not receive enough feedback on this tab! Please rate:
print report bad tab
1 2 3 4 5
I want to post or [tab]
guest
You may want to rate the tab now too:
select rating
Please do not post tabs as comments. Select "correction" instead!