Oops, an error
Loading. Please wait.

Marches And Maneuvers Bass Tab

ver1
ver1

Whole song

Interactive

More versions @911Tabs.com
173 views 1 this week
no commentswrite comment
1 2 3 4 5
please rate
add to favorites launch autoscroll
font size
0
reset
Autoscroll
+/-
esc
set tempo
stop
Contributor
WARNING: You are trying to view
                                    content from Ultimate-Guitar.com
                                    in an unauthorized application,
                                    which is prohibited.

                                    Please use an official Ultimate
                                    Guitar Tabs application for iPhone,
                                    iPad or Android to access legitimate
                                    chords, guitar, bass, and drum tabs
                                    from Ultimate-Guitar.com database.

                                    Type "ultimate guitar tabs" in Apple
                                    App Store's or Android Market's
                                    search to find the application.
   4/4                                                  3x
G||---------------------------|---------------------------||
D||*--------------------------|--------------------------*||
A||*--7--7--7--7--7--7--7--7--|--7--7--7--7--7--7--7--7--*||
D||---------------------------|---------------------------||

-------------------|--------------------|-------------------|--------------------|
-------------------|--------------------|-------------------|--------------------|
-------------------|--------------------|-------------------|----8---------------|
--8----------------|----8--8------------|--8----------------|-------8------------|

-------------------|----------------------|-------------------|----------------------|
-------------------|----------------------|-------------------|----------------------|
-------------------|--------5-------------|-------------------|----5---5-------------|
--0----------------|----0-----------------|--0----------------|----------------------|

||---------------------------|---------------------------||
||*--------------------------|--------------------------*||
||*--------------------------|--------------------------*||
||---2--2--2--2--2--2--2--2--|--2--2--2--2--2--2--2--2---||

-------------------|--------------------|-------------------|--------------------|
-------------------|--------------------|-------------------|--------------------|
-------------------|----8---------------|-------------------|--------------------|
--8----------------|-------8------------|--8----------------|----8--8------------|

-------------------|--------------------|--------------------------|-----------------|
-------------------|--------------------|--------------------------|-----------------|
-------------------|----8---------------|--------------8--8--8--8--|-----------------|
--8----------------|-------8------------|--8--8--8--8--------------|--8--8--8--8-----|


 3/4 - verse
|-------------------|-------------------|-------------------|-------------------|
|-------------------|-------------------|-------------------|-------------------|
|-------------------|-------------------|-------------------|-------------------|
|--0----0--0--0--2--|--2--2--2--3--3----|--0----0--0--0--2--|--2--2--2--3--3----|

 4/4
|-------------------------|-------------------------|
|-------------------------|-------------------------|
|-------------------------|-------------------------|
|--8--8--8--7--7--8--8----|--8--8--8--7--7--8--8----|

 3/4
|-------------------|-------------------|-------------------|-------------------|
|-------------------|-------------------|-------------------|-------------------|
|-------------------|-------------------|-------------------|-------------------|
|--0----0--0--0--2--|--2--2--2--3--3----|--0----0--0--0--2--|--2--2--2--3--3----|


  4/4 - chorus
||---------------------------|--------------------------|
||*--------------------------|--------------------------|
||*--------------------------|-----------------8--8--8--|
||---8--8--8--8--8--8--8--8--|--8--8--8--8--8-----------|

----------------------------------|----------------------------------|
----------------------------------|----------------------------------|
--10--10--10----------------------|----------------------------------|
--------------10--10--10--10--10--|--10--10--10--10--10--10--10--10--|

3/4
-------------------|--------------------|--------------------|---------------------||
-------------------|--------------------|--------------------|--------------------*||
-------------------|--------------------|--------------------|--------------------*||
--0----0--0--0--0--|--8--8--8--8--8--8--|--0--0--0--0--0--0--|--7--7--7--7--7--7---||

 3/4
|-------------------|--------------------|--------------------|--------------------|
|-------------------|--------------------|--------------------|--------------------|
|-------------------|--------------------|--------------------|--------------------|
|--0----0--0--0--0--|--8--8--8--8--8--8--|--0--0--0--0--0--0--|--7--7--7--7--7--7--|


 middle.
|---------------|------------------|------------------|--------------------|
|---------------|------------------|------------------|--------------------|
|---------------|------------------|------------------|--------------------|
|--4------------|--4----4-------4--|--5------------5--|--5-----5-----5-----|

|--------------------|--------------------|--------------------|--------------------|
|--------------------|--------------------|--------------------|--------------------|
|--------------------|--------------------|--------------------|--------------------|
|--9--9--9--9--9--9--|--9--9--9--9--9--9--|--7--7--7--7--7--7--|--7--7--7--7--7--7--|

|---------------|------------------|------------------|--------------------|
|---------------|------------------|------------------|--------------------|
|---------------|------------------|------------------|--------------------|
|--4------------|--4----4-------4--|--5------------5--|--5-----5-----5-----|

|--------------------|--------------------|--------------------|--------------------|
|--------------------|--------------------|--------------------|--------------------|
|--------------------|--------------------|--------------------|--------------------|
|--9--9--9--9--9--9--|--9--9--9--9--9--9--|--8--8--8--8--8--8--|--8--8--8--8--8--8--|

|--------------|-------------------|------------------|-------------------|
|--------------|-------------------|------------------|-------------------|
|--------------|-------------------|------------------|-------------------|
|--------------|--0----0--0--10/---|--0----0--0--8/---|--0----0--0--12/---|

                      4/4
|--------------------|--------------------------|-----------------------------|
|--------------------|--------------------------|-----------------------------|
|--------------------|--------------------------|-----------------------------|
|--5--5--5--5--5--5--|--8--8--8--8--8--8--8--8--|--8--8--8--8--8--10--10--10--|

--------------------------|--------------------------|
--------------------------|--------------------------|
--------------------------|--------------------------|
--8--8--8--8--8--8--8--8--|--8--8--8--8--8--8--8--8--|


 break a.
|---------------------|---------------------|-------------------|-------------------|
|---------------------|---------------------|-------------------|-------------------|
|---------------------|---------------------|-------------------|-------------------|
|--10----10-----------|--10----10-----------|--9----9-----------|--9----9-----------|

--------------------|--------------------|--------------------|---------------------|
--------------------|--------------------|--------------------|---------------------|
--------------------|--------------------|--5-------------5/--|--12----12-----------|
--7----7------------|--7----7------------|---------0----------|---------------------|

----------------------|-------------------------|--------------------|
----------------------|-------------------------|--------------------|
----------------------|------12------10------8--|--------------------|
--10----10------------|--10---------------------|--9----9------------|

--------------------|-------------------|---------------------|---------------------|
--------------------|-------------------|---------------------|---------------------|
-------8------------|-------------------|--------7------------|--5-------------5/---|
--9---------9-------|--7----7-----------|--7--7-------7-------|---------0-----------|

--------------------------|----------------------|----------------------|
--------------------------|----------------------|----------------------|
--12----12--12----12------|----------------------|----------------------|
--------------------------|--10----10------------|--10----10------------|

-------------------|-------------------|---------------------|----------------------|
-------------------|-------------------|---------------------|----------------------|
-------------------|-------------------|----------7--7-------|--------7----7--------|
--9----9-----------|--9----9-----------|--7----7-------------|--7--7----------------|

---------------------|--------------------------|------------------|
---------------------|--------------------------|------------------|
--5-------------5/---|--12----12--12----12------|------------------|
---------0-----------|--------------------------|------------------|


 break b.
-----------------------|---------------------|---------------------|
-----------------------|---------------------|---------------------|
-----------------------|---------------------|---------------------|
--7--7--7--------10----|--------------7--10--|--7/---0--2-----3----|

------------------|-----------------------|---------------------|
------------------|-----------------------|---------------------|
------------------|-----------------------|---------------------|
------------------|--7--7--7--------10----|--------------7--10--|

-------------------------|--------------------------|
-------------------------|--------------------------|
-------------------------|--------------------------|
--7/---2--2--2--2--2--2--|--3--3--3--3--3--3--3--3--|


 outro                                                       6x (once plus 5 repeats)
|------------------------------------||------------------------||
|*----------------------------------*||*----------------------*||
|*--7-7-7-7-7-7-7-7-7-7-7-7-7-7-7-7-*||*----------------------*||
|------------------------------------||---8----8----8----8-----||

----------------------|--------------------------------------|
----------------------|--------------------------------------|
------------8----8/---|--13-13-13-13-13-13-13-13-13-13-13-13-|
--8----8--------------|--------------------------------------|

3/4       this part is hard to hear
--------------------|--------------------|--------------------|
--------------------|--------------------|--------------------|
--------------------|--------------------|--------------------|
--0----15--0--15/---|--0----17--0--17/---|--0----12--0--12/---|

------------------------||
------------------------||
------------------------||
--10--10--10--10--10----||
comments
We did not receive enough feedback on this tab! Please rate:
print report bad tab
1 2 3 4 5
I want to post or [tab]
guest
You may want to rate the tab now too:
select rating
Please do not post tabs as comments. Select "correction" instead!