Oops, an error
Loading. Please wait.

Marches And Maneuvers Tab

ver1
ver1

Intro

Whole song

Interactive

More versions @911Tabs.com
1,030 views 6 this week
no commentswrite comment
1 2 3 4 5
worth learning
x 1
Autoscroll
+/-
esc
set tempo
stop
Contributor
Tuning
D A D G B E
Hey! There's an official Ultimate Guitar app which is ideal
for learning songs when you're away from computer. Get the app
WARNING: You are trying to view
                                    content from Ultimate-Guitar.com
                                    in an unauthorized application,
                                    which is prohibited.

                                    Please use an official Ultimate
                                    Guitar Tabs application for iPhone,
                                    iPad or Android to access legitimate
                                    chords, guitar, bass, and drum tabs
                                    from Ultimate-Guitar.com database.

                                    Type "ultimate guitar tabs" in Apple
                                    App Store's or Android Market's
                                    search to find the application.
Thursday     Marches and Maneuvers

  Intro
  Guitar 1
e|-------------------------------------------------|-------------------------------------------------|
B|-------------------------------------------------|-------------------------------------------------|
G|-7--7--7--7--7--7--7--7---9--9--9--9--9--9--9--9-|-10-10-10-10-10-10-10-10-10-10-10-10-10-10-10-10-|x2
D|-0--0--0--0--0--0--0--0---0--0--0--0--0--0--0--0-|--0--0--0--0--0--0--0--0--0--0--0--0--0--0--0--0-|
A|-------------------------------------------------|-------------------------------------------------|
D|-------------------------------------------------|-------------------------------------------------|

  Guitar 1
e|-------------------------------------------------|-------------------------------------------------|
B|-------------------------------------------------|-------------------------------------------------|
G|-7--7--7--7--7--7--7--7---9--9--9--9--9--9--9--9-|-10-10-10-10-10-10-10-10-10-10-10-10-10-10-10-10-|
D|-9--9--9--9--9--9--9--9---9--9--9--9--9--9--9--9-|--9--9--9--9--9--9--9--9--9--9--9--9--9--9--9--9-|
A|-7--7--7--7--7--7--7--7---7--7--7--7--7--7--7--7-|--7--7--7--7--7--7--7--7--7--7--7--7--7--7--7--7-|
D|-------------------------------------------------|-------------------------------------------------|
 |Guitar 2
           |
e|-0-----------------------0-----------------------|-0-----------------------------------------------|
B|-1-----------------------5-----------------------|-5-----------------------------------------------|
G|-2-----------------------4-----------------------|-4-----------------------------------------------|
D|-0-----------------------0-----------------------|-0-----------------------------------------------|
A|-------------------------------------------------|-------------------------------------------------|
D|-------------------------------------------------|-------------------------------------------------|

  Guitar 1
e|-------------------------------------------------|-------------------------------------------------|
B|-------------------------------------------------|-------------------------------------------------|
G|-7--7--7--7--7--7--7--7---9--9--9--9--9--9--9--9-|-10-10-10-10-10-10-10-10--10-10-10-10-10-10-10-10|
D|-8--8--8--8--8--8--8--8---8--8--8--8--8--8--8--8-|--8--8--8--8--8--8--8--8---8--8--8--8--8--8--8--8|
A|-8--8--8--8--8--8--8--8---8--8--8--8--8--8--8--8-|--8--8--8--8--8--8--8--8---8--8--8--8--8--8--8--8|
D|-8--8--8--8--8--8--8--8---8--8--8--8--8--8--8--8-|--8--8--8--8--8--8--8--8---8--8--8--8--8--8--8--8|
 |Guitar 2
           |
e|----------0------------------------0-------------|-----------0------------------------0--------------|
B|-------1--------1-----1---------1--------1-----1-|--------1--------1-----1---------1--------1-----1--|
G|----2--------------2---------2--------------2----|-----2--------------2---------2--------------2-----|
D|-0------------------------0----------------------|--0------------------------0-----------------------|
A|-------------------------------------------------|---------------------------------------------------|
D|-------------------------------------------------|---------------------------------------------------|
   Let ring--------------------------------------------------------------------------------------------|

  Guitar 1
e|-------------------------------------------------|-------------------------------------------------|
B|-------------------------------------------------|--------------------------8--8--8--8--8--8--8--8-|
G|-7--7--7--7--7--7--7--7---9--9--9--9--9--9--9--9-|-10-10-10-10-10-10-10-10-10-10-10-10-10-10-10-10-|
D|-0--0--0--0--0--0--0--0---0--0--0--0--0--0--0--0-|--0--0--0--0--0--0--0--0--0--0--0--0--0--0--0--0-|
A|-------------------------------------------------|-------------------------------------------------|
D|-------------------------------------------------|-------------------------------------------------|
 |Guitar 2
           |
e|-------------------------------------------------|-------------------------------------------------|
B|-------------------------------------------------|-------------------------------------------------|
G|-9--9--9--9--9--9--9--9---7--7--7--7--7--7--7--7-|--5--5--5--5--5--5--5--5--5--5--5--5--5--5--5--5-|
D|-0--0--0--0--0--0--0--0---0--0--0--0--0--0--0--0-|--0--0--0--0--0--0--0--0--0--0--0--0--0--0--0--0-|
A|-------------------------------------------------|-------------------------------------------------|
D|-------------------------------------------------|-------------------------------------------------|

  Guitar 1
e|-------------------------------------------------|-------------------------------------------------|
B|-------------------------------------------------|-------------------------------------------------|
G|-7--7--7--7--7--7--7--7---9--9--9--9--9--9--9--9-|-10-10-10-10-10-10-10-10-10-10-10-10-10-10-10-10-|
D|-9--9--9--9--9--9--9--9---9--9--9--9--9--9--9--9-|--9--9--9--9--9--9--9--9--9--9--9--9--9--9--9--9-|
A|-7--7--7--7--7--7--7--7---7--7--7--7--7--7--7--7-|--7--7--7--7--7--7--7--7--7--7--7--7--7--7--7--7-|
D|-------------------------------------------------|-------------------------------------------------|
 |Guitar 2
           |
e|----------0------------------------0-------------|-----------0------------------------0--------------|
B|-------1--------1-----1---------1--------1-----1-|--------1--------1-----1---------1--------1-----1--|
G|----2--------------2---------2--------------2----|-----2--------------2---------2--------------2-----|
D|-0------------------------0----------------------|--0------------------------0-----------------------|
A|-------------------------------------------------|---------------------------------------------------|
D|-------------------------------------------------|---------------------------------------------------|
   Let ring--------------------------------------------------------------------------------------------|

  Guitar 1
e|-------------------------------------------------|-------------------------------------------------|
B|-------------------------------------------------|-------------------------------------------------|
G|-7--7--7--7--7--7--7--7---9--9--9--9--9--9--9--9-|-10-10-10-10-10-10-10-10--10-10-10-10-10-10-10-10|
D|-8--8--8--8--8--8--8--8---8--8--8--8--8--8--8--8-|--8--8--8--8--8--8--8--8---8--8--8--8--8--8--8--8|
A|-8--8--8--8--8--8--8--8---8--8--8--8--8--8--8--8-|--8--8--8--8--8--8--8--8---8--8--8--8--8--8--8--8|
D|-8--8--8--8--8--8--8--8---8--8--8--8--8--8--8--8-|--8--8--8--8--8--8--8--8---8--8--8--8--8--8--8--8|
 |Guitar 2
           |
e|-------------------------------------------------|-------------------------------------------------|
B|-------------------------------------------------|-------------------------------------------------|
G|-7--7--7--7--7--7--7--7---9--9--9--9--9--9--9--9-|-10-10-10-10-10-10-10-10-10-10-10-10-10-10-10-10-|
D|-0--0--0--0--0--0--0--0---0--0--0--0--0--0--0--0-|--0--0--0--0--0--0--0--0--0--0--0--0--0--0--0--0-|
A|-------------------------------------------------|-------------------------------------------------|
D|-------------------------------------------------|-------------------------------------------------|

  Guitar 1
e|-------------------------------------------------|-------------------------------------------------|
B|-------------------------------------------------|-10-10-10-10-10-10-10-10--10-10-10-10-10-10-10-10|
G|12-12-12-12-12-12-12-12--12-12-12-12-12-12-12-12-|-12-12-12-12-12-12-12-12--12-12-12-12-12-12-12-12|
D|-8--8--8--8--8--8--8--8---8--8--8--8--8--8--8--8-|--8--8--8--8--8--8--8--8---8--8--8--8--8--8--8--8|
A|-8--8--8--8--8--8--8--8---8--8--8--8--8--8--8--8-|--8--8--8--8--8--8--8--8---8--8--8--8--8--8--8--8|
D|-8--8--8--8--8--8--8--8---8--8--8--8--8--8--8--8-|--8--8--8--8--8--8--8--8---8--8--8--8--8--8--8--8|
 |Guitar 2
           |
e|-------------------------------------------------|-------------------------------------------------|
B|-------------------------------------------------|-------------------------------------------------|
G|-9--9--9--9--9--9--9--9---9--9--9--9--9--9--9--9-|-14-14-14-14-14-14-14-14--14-14-14-14-14-14-14-14|
D|-0--0--0--0--0--0--0--0---0--0--0--0--0--0--0--0-|--0--0--0--0--0--0--0--0---0--0--0--0--0--0--0--0|
A|-------------------------------------------------|-------------------------------------------------|
D|-------------------------------------------------|-------------------------------------------------|

  Verse
  Guitar 1 (Distortion)
e|--------------------------|--------------------------|----------------------------------------------|
B|-10-10-10-----------------|-10-10-10-----------------|----------------------------------------------|
G|--7--7--7-9-9-9-9-9/10-10-|--7--7--7-9-9-9-9-9/10-10-|-10-10-10--9--9--9-10---10-10-10--9--9--9-10--|
D|--0--0--0-0-0-0-0-0--0--0-|--0--0--0-0-0-0-0-0--0--0-|--8--8--8--8--8--8--8----8--8--8--8--8--8--8--|
A|--0--0--0-----------------|--0--0--0-----------------|--8--8--8--8--8--8--8----8--8--8--8--8--8--8--|
D|--0--0--0-----------------|--0--0--0-----------------|--8--8--8--8--8--8--8----8--8--8--8--8--8--8--|
 |  let ring--------------|    let ring---------------------------------------------------------------|
           | x3
 |Guitar 2 (Distortion)
           |
e|--------------------------|--------------------------|----------------------------------------------|
B|-10-10-10-9-9-9-9-9/10-10-|-10-10-10-9-9-9-9-9/10-10-|-10-10-10--9--9/10-10---10-10-10--9--9/10-10--|
G|--7--7--7-9-9-9-9-9/10-10-|--7--7--7-9-9-9-9-9/10-10-|--7--7--7--9--9/10-10----7--7--7--9--9/10-10--|
D|--0--0--0-0-0-0-0-0--0--0-|--0--0--0-0-0-0-0-0--0--0-|----------------------------------------------|
A|--0--0--0-----------------|--0--0--0-----------------|----------------------------------------------|
D|--0--0--0-----------------|--0--0--0-----------------|----------------------------------------------|
    Let ring--------------|    let ring---------------------------------------------------------------|

  Guitar 1 (Distortion)
e|---------------------12----------------12--------|-----------------------10------------------10----|
B|------------8-----------------8----------------8-|---------------8-----------------8---------------|
G|-10---10--------10--------10------10-------10----|----10-----9-------9---------9---------9---------|
D|-------------------------------------------------|-------------------------------------------------|
A|-------------------------------------------------|-------------------------------------------------|
D|-------------------------------------------------|-------------------------------------------------|
 |  let
   |
 |Guitar 2  (Distortion)
           |
e|-------------------------------------------------|-------------------------------------------------|
B|-------------------------------------------------|-------------------------------------------------|
G|10-10-10-10-10-10-10-10--10-10-10-10-10-10-10/12-|--12-12-12-12-12-12-12-12-12-12-12-12-12-12-12\--|
D|-8--8--8-10-10-10-10-10--10-10-10-10--8--8-10/12-|--12-12-12-10-10-10-10-10-10-10-10-10-10-10-10\--|
A|-8--8--8--8--8--8--8--8---8--8--8--8--8--8--8/10-|--10-10-10-10-10-10-10-10-10-10-10-10-10-10-10\--|
D|-8--8--8--8--8--8--8--8---8--8--8--8--8--8--8/10-|--10-10-10-10-10-10-10-10-10-10-10-10-10-10-10\--|

  Pre Chorus
  Guitars 1 & 2  (Distortion)
e|---------------------6-----6-----6-----6-----6---|---------------------------5----5----5----5----5-|
B|---------------------x-----x-----x-----x-----x---|---------------------------x----x----x----x----x-|
G|---------------------3-----3-----3-----3-----3---|---------------------------2----2----2----2----2-|
D|---0-----0-----0---------------------------------|---0----0----0----0----0-------------------------|
A|---0-----0-----0---------------------------------|---0----0----0----0----0-------------------------|
D|---0-----0-----0---------------------------------|---0----0----0----0----0-------------------------|

  Guitar 1 (Distortion)
e|-------------------------------------------------|-------------------------------------------------|
B|-------------------------------------------------|-------------------------------------------------|
G|10-10-10-10-10-10-10-10--10-10-10-10-10-10-10/12-|--12-12-12-12-12-12-12-12-12-12-12-12-12-12-12\--|
D|-8--8--8-10-10-10-10-10--10-10-10-10--8--8-10/12-|--12-12-12-10-10-10-10-10-10-10-10-10-10-10-10\--|
A|-8--8--8--8--8--8--8--8---8--8--8--8--8--8--8/10-|--10-10-10-10-10-10-10-10-10-10-10-10-10-10-10\--|
D|-8--8--8--8--8--8--8--8---8--8--8--8--8--8--8/10-|--10-10-10-10-10-10-10-10-10-10-10-10-10-10-10\--|
 |Guitar 2 (Distortion)
           |
e|---------------------12----------------12--------|-----------------------10------------------10--|
B|------------8-----------------8----------------8-|---------------8-----------------8-------------|
G|-10---10--------10--------10------10-------10----|----10-----9-------9---------9---------9-------|
D|-------------------------------------------------|-----------------------------------------------|
A|-------------------------------------------------|-----------------------------------------------|
D|-------------------------------------------------|-----------------------------------------------|
    Let ring---------------------------------------------------------------------------------------|

  Chorus
  Guitars 1 & 2 (Distortion)
e|-------------------------6----6----6----6----6---|-------------------------5----5----5----5----5---|
B|-------------------------x----x----x----x----x---|-------------------------x----x----x----x----x---|
G|-------------------------3----3----3----3----3---|-------------------------2----2----2----2----2---|
D|--0-----0-----0-----0----------------------------|--0-----0-----0-----0----------------------------|
A|--0-----0-----0-----0----------------------------|--0-----0-----0-----0----------------------------|
D|--0-----0-----0-----0----------------------------|--0-----0-----0-----0----------------------------|

  Guitar 1 (Distortion)
e|-------------------------6----6----6----6----6---|-------------------------5----5----5----5----5---|
B|-------------------------x----x----x----x----x---|-------------------------x----x----x----x----x---|
G|-------------------------3----3----3----3----3---|-------------------------2----2----2----2----2---|
D|--0-----0-----0-----0----------------------------|--0-----0-----0-----0----------------------------|
A|--0-----0-----0-----0----------------------------|--0-----0-----0-----0----------------------------|
D|--0-----0-----0-----0----------------------------|--0-----0-----0-----0----------------------------|
 |Guitar 2  (Distortion)
           |
e|-------------------------6----6----6----6----6---|-------------------------5----5----5----5----5---|
B|-------------------------6----6----6----6----6---|-------------------------5----5----5----5----5---|
G|-------------------------3----3----3----3----3---|-------------------------2----2----2----2----2---|
D|--0-----0-----0-----0----0----0----0----0----0---|--0-----0-----0-----0----0----0----0----0----0---|
A|--0-----0-----0-----0----------------------------|--0-----0-----0-----0----------------------------|
D|--0-----0-----0-----0----------------------------|--0-----0-----0-----0----------------------------|

  Bridge
  Guitar 1 (Distortion)
e|-------------------------------------------------|-------------------------------------------------|
B|-------------------------------------------------|-------------------------------------------------|
G|----2------2-------2-----2-------2-----2-----2---|---4-------4---------4------4-----4----4-----4---|
D|----4------4-------4-----4-------4-----4-----4---|---5-------5---------5------5-----5----5-----5---|
A|----4------4-------4-----4-------4-----4-----4---|---5-------5---------5------5-----5----5-----5---|
D|----4------4-------4-----4-------4-----4-----4---|---5-------5---------5------5-----5----5-----5---|
 |Guitar 2 (Distortion)
           |
e|-------------------------------------------------|-------------------------------------------------|
B|---------------------------------7-----7---------|-------------------------------------------------|
G|----6------6-------------6-------6-----6---------|---6-/11--11--11^12r11-----11----11---11----11/14|
D|----4------4-------------4-------4-----4-----4---|---x-/-x---x---x------------x-----x----x-----x--x|
A|----4------4-------------4-------------------4---|---4-/-9---9---9------------9-----9----9-----9/12|
D|----4------4-------------4-----------------------|-------------------------------------------------|

  Guitar 1 (Distortion)
e|-------------------------------------------------|-------------------------------------------------|
B|-------------------------------------------------|-------------------------------------------------|
G|---7---7---7-----7---7---7---7---7---7-------6---|--6---6---6---6---6---6---6---6---6---6---6---6--|
D|---9---9---9-----9---9---9---9---9---9---0---7---|--7---7---7---7---7---7---7---7---7---7---7---7--|
A|---9---9---9-----9---9---9---9---9---9-------7---|--7---7---7---7---7---7---7---7---7---7---7---7--|
D|---9---9---9-----9---9---9---9---9---9-------7---|--7---7---7---7---7---7---7---7---7---7---7---7--|
 |Guitar 2 (Distortion)
           |
e|-------------------------------------------------|-------------------------------------------------|
B|-------------------------------------------------|-------------------------------------------------|
G|--14--14--14----14--14--14--14--14--14--14-\11---|-11--\9---9---9-------9---9---9---9---9---9------|
D|---x---x---x-----x---x---x---x---x---x---x-\-x---|--x--\x---x---x-------x---x---x---x---x---x------|
A|--12--12--12----12--12--12--12--12--12--12-\-9---|--9--\7---7---7-------7---7---7---7---7---7------|
D|-------------------------------------------------|-------------------------------------------------|

  Guitar 1 (Distortion)
e|-------------------------------------------------|-------------------------------------------------|
B|-------------------------------------------------|-------------------------------------------------|
G|---2---------2---------2----2----------2----2-/4-|---4---------4----4----4----4----------4-----4/--|
D|---4---------4---------4----4----------4----4-/5-|---5---------5----5----5----5----------5-----5/--|
A|---4---------4---------4----4----------4----4-/5-|---5---------5----5----5----5----------5-----5/--|
D|---4---------4---------4----4----------4----4-/5-|---5---------5----5----5----5----------5-----5/--|
 |Guitar 2 (Distortion)
           |
e|-------------------------------------------------|-------------------------------------------------|
B|-------------------------------------------------|-------------------------------------------------|
G|---6----6----6---------6----6----6----------6--6-|---6---/7----7----7----7----7-----7----7-----7/--|
D|---4----4----4---------4----4----4----------x--x-|---x---/x----x----x----x----x-----x----x-----x/--|
A|---4----4----4---------4----4----4----------4--4-|---4---/5----5----5----5----5-----5----5-----5/--|
D|---4----4----4---------4----4----4---------------|-------------------------------------------------|

  Guitar 1 (Distortion)
e|-------------------------------------------------|-------------------------------------------------|
B|-------------------------------------------------|-------------------------------------------------|
G|---7---7---7---7---7---7---7---7---7---7---7---7-|---7---7---7---7---7---7---7------7---7--7--7----|
D|---9---9---9---9---9---9---9---9---9---9---9---9-|---8---8---8---8---8---8---8------8---8--8--8----|
A|---9---9---9---9---9---9---9---9---9---9---9---9-|---8---8---8---8---8---8---8------8---8--8--8----|
D|---9---9---9---9---9---9---9---9---9---9---9---9-|---8---8---8---8---8---8---8------8---8--8--8----|
 |Guitar 2 (Distortion)    											     |
e|-------------------------------------------------|-------------------------------------------------|
B|-------------------------------------------------|-------------------------------------------------|
G|--1919191919191919191919191919191919191919191919-|--19191919191919191919212121-21^^r21-21----21----|
D|---x-x-x-x-x-x-x-x-x-x-x-x-x-x-x-x-x-x-x-x-x-x-x-|---x-x-x-x-x-x-x-x-x-x-x-x-x----------x-----x--0-|
A|--1717171717171717171717171616161616161616161617-|--17171717171717171717191919---------19----19--0-|
D|-------------------------------------------------|-----------------------------------------------0-|
                                                                              Let ring|
  Verse
  Guitar 1 (Distortion)
e|-------------------------------------------------|-------------------------------------------------|
B|-------------------------------------------------|---10---10---10----------------------------------|
G|-------------------------------------------------|----7----7----7---9---9---9---9---9--/10---10----|
D|-------------------------------------------------|----0----0----0---0---0---0---0---0----0----0----|
A|-------------------------------------------------|----0----0----0----------------------------------|
D|-------------------------------------------------|----0----0----0----------------------------------|
 |                                                      let
   |
 |Guitar 2 (Distortion)
           |
e|-------------------------------------------------|-----------------------------------------------|
B|---10---10---10---9---9---9---9---9--/10---10----|---10---10---10---9---9---9---9---9--/10---10--|
G|----7----7----7---9---9---9---9---9--/10---10----|----7----7----7---9---9---9---9---9--/10---10--|
D|----0----0----0---0---0---0---0---0----0----0----|----0----0----0---0---0---0---0---0----0----0--|
A|----0----0----0----------------------------------|----0----0----0--------------------------------|
D|----0----0----0----------------------------------|----0----0----0--------------------------------|
      Let ring--------------------------------|         let ring-----------------------------------|

  Guitar 1 (Distortion)
e|-------------------------------------------------|-------------------------------------------------|
B|---10---10---10----------------------------------|-------------------------------------------------|
G|----7----7----7---9---9---9---9---9--/10---10----|--10-10-10--9--9--9-10-----10-10-10--9--9--9-10--|
D|----0----0----0---0---0---0---0---0----0----0----|---8--8--8--8--8--8--8------8--8--8--8--8--8--8--|
A|----0----0----0----------------------------------|---8--8--8--8--8--8--8------8--8--8--8--8--8--8--|
D|----0----0----0----------------------------------|---8--8--8--8--8--8--8------8--8--8--8--8--8--8--|
 |    let ring---------------------------------------------------------------------------------------|
           |
 |Guitar 2 (Distortion)
           |
e|-------------------------------------------------|-------------------------------------------------|
B|---10---10---10---9---9---9---9---9--/10---10----|--10-10-10--9--9-10-10-----10-10-10--9--9-10-10--|
G|----7----7----7---9---9---9---9---9--/10---10----|---7--7--7--9--9-10-10------7--7--7--9--9-10-10--|
D|----0----0----0---0---0---0---0---0----0----0----|---0--0--0--0--0--0--0------0--0--0--0--0--0--0--|
A|----0----0----0----------------------------------|-------------------------------------------------|
D|----0----0----0----------------------------------|-------------------------------------------------|
      Let ring---------------------------------------------------------------------------------------|

  Guitar 1 (Distortion)
e|--------------------------|--------------------------|----------------------------------------------|
B|-10-10-10-----------------|-10-10-10-----------------|----------------------------------------------|
G|--7--7--7-9-9-9-9-9/10-10-|--7--7--7-9-9-9-9-9/10-10-|-10-10-10--9--9--9-10---10-10-10--9--9--9-10--|
D|--0--0--0-0-0-0-0-0--0--0-|--0--0--0-0-0-0-0-0--0--0-|--8--8--8--8--8--8--8----8--8--8--8--8--8--8--|
A|--0--0--0-----------------|--0--0--0-----------------|--8--8--8--8--8--8--8----8--8--8--8--8--8--8--|
D|--0--0--0-----------------|--0--0--0-----------------|--8--8--8--8--8--8--8----8--8--8--8--8--8--8--|
 |  let ring--------------|    let ring---------------------------------------------------------------|
           |
 | Guitar 2 (Distortion)
           |
e|--------------------------|--------------------------|----------------------------------------------|
B|-10-10-10-9-9-9-9-9/10-10-|-10-10-10-9-9-9-9-9/10-10-|-10-10-10--9--9/10-10---10-10-10--9--9/10-10--|
G|--7--7--7-9-9-9-9-9/10-10-|--7--7--7-9-9-9-9-9/10-10-|--7--7--7--9--9/10-10----7--7--7--9--9/10-10--|
D|--0--0--0-0-0-0-0-0--0--0-|--0--0--0-0-0-0-0-0--0--0-|----------------------------------------------|
A|--0--0--0-----------------|--0--0--0-----------------|----------------------------------------------|
D|--0--0--0-----------------|--0--0--0-----------------|----------------------------------------------|
    Let ring--------------|    let ring---------------------------------------------------------------|

  Guitar 1 (Distortion)
e|-------------------------------------------------|-----------------------------------------------|
B|---10---10---10----------------------------------|---10---10---10--------------------------------|
G|----7----7----7---9---9---9---9---9--/10---10----|----7----7----7---9---9---9---9---9--/10---10--|
D|----0----0----0---0---0---0---0---0----0----0----|----0----0----0---0---0---0---0---0----0----0--|
A|----0----0----0----------------------------------|----0----0----0--------------------------------|
D|----0----0----0----------------------------------|----0----0----0--------------------------------|
 |   let ring--------------------------------------------------------------------------------------|        let
   |
 |Guitar 2  (Distortion)
           |
e|-------------------------------------------------|-----------------------------------------------|
B|---10---10---10---9---9---9---9---9--/10---10----|---10---10---10---9---9---9---9---9--/10---10--|
G|----7----7----7---9---9---9---9---9--/10---10----|----7----7----7---9---9---9---9---9--/10---10--|
D|----0----0----0---0---0---0---0---0----0----0----|----0----0----0---0---0---0---0---0----0----0--|
A|----0----0----0----------------------------------|----0----0----0--------------------------------|
D|----0----0----0----------------------------------|----0----0----0--------------------------------|
     Let ring---------------------------------|        let ring------------------------------------|

  Guitar 1 (Distortion)
e|---------------------12----------------12--------|-----------------------10------------------10----|
B|------------8-----------------8----------------8-|---------------8-----------------8---------------|
G|-10---10--------10--------10------10-------10----|----10-----9-------9---------9---------9---------|
D|-------------------------------------------------|-------------------------------------------------|
A|-------------------------------------------------|-------------------------------------------------|
D|-------------------------------------------------|-------------------------------------------------|
 |  let
   |
 | Guitar 2 (Distortion)
           |
e|-------------------------------------------------|-------------------------------------------------|
B|-------------------------------------------------|-------------------------------------------------|
G|10-10-10-10-10-10-10-10--10-10-10-10-10-10-10/12-|--12-12-12-12-12-12-12-12-12-12-12-12-12-12-12\--|
D|-8--8--8-10-10-10-10-10--10-10-10-10--8--8-10/12-|--12-12-12-10-10-10-10-10-10-10-10-10-10-10-10\--|
A|-8--8--8--8--8--8--8--8---8--8--8--8--8--8--8/10-|--10-10-10-10-10-10-10-10-10-10-10-10-10-10-10\--|
D|-8--8--8--8--8--8--8--8---8--8--8--8--8--8--8/10-|--10-10-10-10-10-10-10-10-10-10-10-10-10-10-10\--|

Pre-Chorus
Guitars 1 & 2 (Distortion)
e|---------------------6-----6-----6-----6-----6---|---------------------------5----5----5----5----5-|
B|---------------------x-----x-----x-----x-----x---|---------------------------x----x----x----x----x-|
G|---------------------3-----3-----3-----3-----3---|---------------------------2----2----2----2----2-|
D|---0-----0-----0---------------------------------|---0----0----0----0----0-------------------------|
A|---0-----0-----0---------------------------------|---0----0----0----0----0-------------------------|
D|---0-----0-----0---------------------------------|---0----0----0----0----0-------------------------|

Guitar 1 (Distortion)
e|-------------------------------------------------|-------------------------------------------------|
B|-------------------------------------------------|-------------------------------------------------|
G|10-10-10-10-10-10-10-10--10-10-10-10-10-10-10/12-|--12-12-12-12-12-12-12-12-12-12-12-12-12-12-12\--|
D|-8--8--8-10-10-10-10-10--10-10-10-10--8--8-10/12-|--12-12-12-10-10-10-10-10-10-10-10-10-10-10-10\--|
A|-8--8--8--8--8--8--8--8---8--8--8--8--8--8--8/10-|--10-10-10-10-10-10-10-10-10-10-10-10-10-10-10\--|
D|-8--8--8--8--8--8--8--8---8--8--8--8--8--8--8/10-|--10-10-10-10-10-10-10-10-10-10-10-10-10-10-10\--|
 |Guitar 2  (Distortion)
           |
e|---------------------12----------------12--------|-----------------------10------------------10--|
B|------------8-----------------8----------------8-|---------------8-----------------8-------------|
G|-10---10--------10--------10------10-------10----|----10-----9-------9---------9---------9-------|
D|-------------------------------------------------|-----------------------------------------------|
A|-------------------------------------------------|-----------------------------------------------|
D|-------------------------------------------------|-----------------------------------------------|
    Let ring---------------------------------------------------------------------------------------|
Chorus
Guitars 1 & 2 (Distortion)
e|-------------------------6----6----6----6----6---|-------------------------5----5----5----5----5---|
B|-------------------------x----x----x----x----x---|-------------------------x----x----x----x----x---|
G|-------------------------3----3----3----3----3---|-------------------------2----2----2----2----2---|
D|--0-----0-----0-----0----------------------------|--0-----0-----0-----0----------------------------|
A|--0-----0-----0-----0----------------------------|--0-----0-----0-----0----------------------------|
D|--0-----0-----0-----0----------------------------|--0-----0-----0-----0----------------------------|

  Guitar 1 (Distortion)
e|-------------------------6----6----6----6----6---|-------------------------5----5----5----5----5---|
B|-------------------------x----x----x----x----x---|-------------------------x----x----x----x----x---|
G|-------------------------3----3----3----3----3---|-------------------------2----2----2----2----2---|
D|--0-----0-----0-----0----------------------------|--0-----0-----0-----0----------------------------|
A|--0-----0-----0-----0----------------------------|--0-----0-----0-----0----------------------------|
D|--0-----0-----0-----0----------------------------|--0-----0-----0-----0----------------------------|
 | Guitar 2 (Distortion)
           |
e|-------------------------6----6----6----6----6---|-------------------------5----5----5----5----5---|
B|-------------------------6----6----6----6----6---|-------------------------5----5----5----5----5---|
G|-------------------------3----3----3----3----3---|-------------------------2----2----2----2----2---|
D|--0-----0-----0-----0----0----0----0----0----0---|--0-----0-----0-----0----0----0----0----0----0---|
A|--0-----0-----0-----0----------------------------|--0-----0-----0-----0----------------------------|
D|--0-----0-----0-----0----------------------------|--0-----0-----0-----0----------------------------|

  Interlude
  Guitar 1 (Distortion)
e|-------------------------------------------------|-------------------------------------------------|
B|-------------------------------------------------|-------------------------------------------------|
G|---------17----17----17--------15----15----15----|------14---14---14---12---12---12---12---12--14\-|
D|----0----12----12----12----0---12----12----12----|--0---12---12---12---12---12---12---12---12--12\-|
A|----0----------------------0---------------------|--0------------------------------------------12\-|
D|----0----------------------0---------------------|--0----------------------------------------------|
 |Guitar 2 (Distortion)
           |
e|-------------------------------------------------|-------------------------------------------------|
B|-------------------------------------------------|-------------------------------------------------|
G|---------17-----0----17q^------15-----0----15q^--|------14----0---14q^-----------------------------|
D|----0-----x-----0-----x----0----x-----0-----x----|--0----x----0----x---12---12---12---12---12-/14\-|
A|----0----15----------15q^--0---13----------13q^--|--0---12--------12q^-10---10---10---10---10-/12\-|
D|----0----------------------0---------------------|--0------------------10---10---10---10---10-/12\-|

  Guitar 1 (Distortion)
e|-------------------------------------------------|-------------------------------------------------|
B|-------------------------------------------------|-------------------------------------------------|
G|-10-10-10--9-10-10-10-10-10-10-10-10-10-/12-12---|-10-10-10--9-10-10-10-10-10-10-10-10-10-10-10-10-|
D|--8--8--8--8-10-10-10-10-10-10-10-10-10-/12-12---|-10-10-10--8-10-10-10-10-10-10-10-10-10-10-10-10-|
A|--8--8--8--8--8--8--8--8--8--8--8--8--8-/10-10---|--8--8--8--8--8--8--8--8--8--8--8--8--8--8--8--8-|
D|--8--8--8--8--8--8--8--8--8--8--8--8--8-/10-10---|--8--8--8--8--8--8--8--8--8--8--8--8--8--8--8--8-|
 |Guitar 2 (Distortion)
           |
e|-------------------------------------------------|-------------------------------------------------|
B|-------------------------------------------------|-------------------------------------------------|
G|-10-10-10--9-10-10-10-10-10-10-10--9-10--10-10-10|-10-10-10--9-10-10-10-10-10-10-10--9-10-10-10-10-|
D|--8--8--8--8--8--8--8--8--8--8--8--8--8---8--8--8|--8--8--8--8--8--8--8--8--8--8--8--8--8--8--8--8-|
A|--8--8--8--8--8--8--8--8--8--8--8--8--8---8--8--8|--8--8--8--8--8--8--8--8--8--8--8--8--8--8--8--8-|
D|-------------------------------------------------|-------------------------------------------------|

  Bridge
  Guitar 1
e|-------------------------------------------------|-------------------------------------------------|
B|-------------------------------------------------|-------------------------------------------------|
G|-10-10-10--9--9--9--7--7-10-10-10--9--9--9--7--7-|-10-10-10--9--9--9--7--7-10-10-10--9--9--9--7--7-|
D|-10-10-10-10-10-10-10-10-10-10-10-10-10-10-10-10-|--9--9--9--9--9--9--9--9--9--9--9--9--9--9--9--9-|
A|-------------------------------------------------|-------------------------------------------------|
D|-------------------------------------------------|-------------------------------------------------|
 |Guitar 2
           |
e|-------------------------------------------------|-------------------------------------------------|
B|-------------------------------------------------|-------------------------------------------------|
G|-10-p9-------------------10-p9-------------------|-10-p9--9----------------10-p9--9----------------|
D|-------12-10-------------------12-10-------------|----------12-10-------------------12-10----------|
A|-------------12-10-------------------12-10-------|----------------12-10-------------------12-10----|
D|-------------------12-10-------------------12-10-|----------------------12----------------------12-|

  Guitar 1
e|-------------------------------------------------|-------------------------------------------------|
B|-------------------------------------------------|-10-10-10-10-10-10-10--8--8--8--8--8--8--8--8--8-|
G|-10-10-10--9--9--9--7--7-10-10-10--9--9--9--7--7-|-10-10-10-10-10-10-10-10-10-10-10-10-10-10-10-10-|
D|--8--8--8--8--8--8--8--8--8--8--8--8--8--8--8--8-|-------------------------------------------------|
A|-------------------------------------------------|-------------------------------------------------|
D|-------------------------------------------------|-------------------------------------------------|
 |Guitar 2
           |
e|-------------------------------------------------|-------------------------------------------------|
B|-------------------------------------------------|-------------------------------------------------|
G|-10-p9-------------------10-p9-------------------|-10-p9--9----------------10-p9--9----------------|
D|-------12-10-------------------12-10-------------|----------12-10-------------------12-10----------|
A|-------------12-10-------------------12-10-------|----------------12-10-------------------12-10----|
D|-------------------12-10-------------------12-10-|----------------------12----------------------12-|

  Guitar 1
e|-------------------------------------------------|-------------------------------------------------|
B|-------------------------------------------------|-------------------------------------------------|
G|-10-10-10--9--9--9--7--7-10-10-10--9--9--9--7--7-|-10-10-10--9--9--9--7--7-10-10-10--9--9--9--7--7-|
D|-10-10-10-10-10-10-10-10-10-10-10-10-10-10-10-10-|--9--9--9--9--9--9--9--9--9--9--9--9--9--9--9--9-|
A|-------------------------------------------------|-------------------------------------------------|
D|-------------------------------------------------|-------------------------------------------------|
 |Guitar 2
           |
e|-------------------------------------------------|-------------------------------------------------|
B|-------------------------------------------------|-------------------------------------------------|
G|-10-p9-------------------10-p9-------------------|-10-p9--9----------------10-p9--9----------------|
D|-------12-10-------------------12-10-------------|----------12-10-------------------12-10----------|
A|-------------12-10-------------------12-10-------|----------------12-10-------------------12-10----|
D|-------------------12-10-------------------12-10-|----------------------12----------------------12-|

  Guitar 1
e|-------------------------------------------------|-------------------------------------------------|
B|-------------------------------------------------|-10-10-10-10-10-10-10--8--8--8--8--8--8--8--8--8-|
G|-10-10-10--9--9--9--7--7-10-10-10--9--9--9--7--7-|-10-10-10-10-10-10-10-10-10-10-10-10-10-10-10-10-|
D|--8--8--8--8--8--8--8--8--8--8--8--8--8--8--8--8-|-------------------------------------------------|
A|-------------------------------------------------|-------------------------------------------------|
D|-------------------------------------------------|-------------------------------------------------|
 |Guitar 2
           |
e|-------------------------------------------------|-------------------------------------------------|
B|-------------------------------------------------|-------------------------------------------------|
G|-10-p9-------------------10-p9-------------------|-12-10--9-12-10--9-12-10--9-12-10--9-12-10--9-12-|
D|-------12-10-------------------12-10-------------|-------------------------------------------------|
A|-------------12-10-------------------12-10-------|-------------------------------------------------|
D|-------------------12-10-------------------12-10-|-------------------------------------------------|

  Guitar 1
e|--0--0--0--0--0--0--0--0--0--0--0--0--0--0--0--0-|--0--0--0--0--0--0--0--0--0--0--0--0--0--0--0--0-|
B|-10-10-10-10-10-10-10-10-13-13-13-13-13-13-13-13-|--5--5--5--5--5--5--5--5--6--6--6--6--6--6--6--6-|
G|-------------------------------------------------|-------------------------------------------------|
D|-------------------------------------------------|-------------------------------------------------|
A|-------------------------------------------------|-------------------------------------------------|
D|-------------------------------------------------|-------------------------------------------------|
 |Guitar 2
           |
e|-------------------------------------------------|-------------------------------------------------|
B|-10-10-10-10-10-10-10-10--8--8--8--8--8--8--8--8-|--8--8--8--8--8-10-10-10-10-10-10-10-10--8--8--8-|
G|-10-10-10-10-10-10-10-10-10-10-10-10-10-10-10-10-|-10-10-10-10-10-10-10-10-10-10-10-10-10-10-10-10-|
D|-10-10-10-10-10-10-10-10-10-10-10-10-10-10-10-10-|--9--9--9--9--9--9--9--9--9--9--9--9--9--9--9--9-|
A|-------------------------------------------------|-------------------------------------------------|
D|-------------------------------------------------|-------------------------------------------------|

  Guitar 1
e|--0--0--0--0--0--0--0--0--0--0--0--0--0--0--0--0-|--0--0--0--0--0--0--0--0--0--0--0--0--0--0--0--0-|
B|-10-10-10-10-10-10-10-10-13-13-13-13-13-13-13-13-|--5--5--5--5--5--5--5--5--6--6--6--6--6--6--6--6-|
G|-------------------------------------------------|-------------------------------------------------|
D|-------------------------------------------------|-------------------------------------------------|
A|-------------------------------------------------|-------------------------------------------------|
D|-------------------------------------------------|-------------------------------------------------|
 |Guitar 2
           |
e|-------------------------------------------------|--0--0--0--0--0--0--0--0--8--8--8--8--8--8--8--8-|
B|--8--8--8--8--8--8--8-10-10-10-10-10-10--8--8--8-|-10-10-10-10-10-10-10-10--8--8--8--8--8--8--8--8-|
G|-10-10-10-10-10-10-10-10-10-10-10-10-10-10-10-10-|-10-10-10-10-10-10-10-10-10-10-10-10-10-10-10-10-|
D|--8--8--8--8--8--8--8--8--8--8--8--8--8--8--8--8-|-------------------------------------------------|
A|-------------------------------------------------|-------------------------------------------------|
D|-------------------------------------------------|-------------------------------------------------|

  Guitar 1
e|-------------------------------------------------|--------------------------------------------------|
B|-10----10----10----13----13----13----13----13----|--5-----5-----5-----6-----6-----6-----6-----6-----|

x4
D|--7-p0--7-p0--7-p0-10-p0-10-p0-10-p0-10-p0-10-p0-|--2-p0--2-p0--2-p0--3-p0--3-p0--3-p0--3-p0--3-p0--|
A|-------------------------------------------------|--------------------------------------------------|
D|-------------------------------------------------|--------------------------------------------------|
   Let ring-------------------------------------------------------------------------------------------|

  Guitar 1
e|-------------------------------------------------|-------------------------------------------------|
B|-------------------------------------------------|-------------------------------------------------|
G|--9--9--9-----9--9--9--9--9--9--9--9--9--9--9----|--9--9--9--9--9--9--9--9--9--9--9--9--9--9--9--9-|
D|--x--x--x-----x--x--x--x--x--x--x--x--x--x--x----|--x--x--x--x--x--x--x--x--x--x--x--x--x--x--x--x-|
A|--7--7--7-----7--7--7--7--7--7--7--7--7--7--7----|--7--7--7--7--7--7--7--7--7--7--7--7--7--7--7--7-|
D|-------------------------------------------------|-------------------------------------------------|

  Guitar 1
e|----------0------------------------0-------------|-----------0------------------------0--------------|
B|-------1--------1-----1---------1--------1-----1-|--------1--------1-----1---------1--------1-----1--|

x2
D|-0------------------------0----------------------|--0------------------------0-----------------------|
A|-------------------------------------------------|---------------------------------------------------|
D|-------------------------------------------------|---------------------------------------------------|
   Let ring--------------------------------------------------------------------------------------------|

  Outro
  Guitar 1 (Distortion)
e|-------------------------------------------------|-------------------------------------------------|
B|-------------------------------------------------|-------------------------------------------------|
G|--------10----0----10q^---------12----0----12q^--|--------14----0----14----17---17---17---17---17--|
D|---0-----x----0-----x------0-----x----0-----x----|---0-----x----0-----x-----x----x----x----x----x--|
A|---0-----8----0-----8q^----0----10----0----10q^--|---0----12----0----12----15---15---15---15---15--|
D|---0-----------------------0---------------------|---0---------------------------------------------|
 |Guitar 2 (Distortion)
           |
e|-------------------------------------------------|-------------------------------------------------|
B|-------------------------------------------------|-------------------------------------------------|
G|--------10---10----10-----------12---12----12----|--------14---14----14-----7----7----7----7----7--|
D|---0-----x----0-----x------0-----x----0-----x----|---0-----x----0-----x-----5----5----5----5----5--|
A|---0-----8----0-----8------0----10----0----10----|---0----12----0----12-----3----3----3----3----3--|
D|---0-----------------------0---------------------|---0----------0----------------------------------|

h=hammer-on
p=pull-off
^=1/2 bend
^^=full bend
q^=1/4 bend
/=slide up
\=slide down
comments
We did not receive enough feedback on this tab! Please rate:
print report bad tab
1 2 3 4 5
I want to post or [tab]
guest
You may want to rate the tab now too:
select rating
Please do not post tabs as comments. Select "correction" instead!