Oops, an error
Loading. Please wait.

War All The Time Tab

ver1
ver1

Album

Whole song

Interactive

More versions @911Tabs.com
5,893 views 6 this week
1 commentread comment
1 2 3 4 5
excellent!
x 3
Autoscroll
+/-
esc
set tempo
stop
Contributor
WARNING: You are trying to view
                                    content from Ultimate-Guitar.com
                                    in an unauthorized application,
                                    which is prohibited.

                                    Please use an official Ultimate
                                    Guitar Tabs application for iPhone,
                                    iPad or Android to access legitimate
                                    chords, guitar, bass, and drum tabs
                                    from Ultimate-Guitar.com database.

                                    Type "ultimate guitar tabs" in Apple
                                    App Store's or Android Market's
                                    search to find the application.
Thursday
War All the Time
 1. For the Workforce, Drowning
 2. Between Rupture and Rapture
 3. Division St.
 4. Signals Over the Air
 5. Marches and Maneuvers
 6. Asleep in the Chapel
 7. This Song Brought to You by a Falling Bomb
 8. Steps Ascending
 9. War All the Time
10. M. Shepard
11. Tomorrow I’ll Be You

All Songs on this album are in dropped D tuning except number 10.

===============================================================================
h   | hammer-on
p   | pull-off
/   | slide up
\   | slide down
/// | tremolo picking
(n) | tied note
x   | muted note
f^  | full bend
h^  | half bend
q^  | quarter bend
hold| hold bend
r   | release
.   | staccato note
^   | arpeggio
NH  | natural harmonic
~   | vibrato

1. For The Workforce, Drowning

Intro
Guitars 1 and 2
e|---0-0-0-0--0--0--|-8-8-8-8-5--5--6--|-0-0-0-0-0--0--0--|-8-8-8-8-5--5--6--|
B|-6-6-6-6-6--6--6--|-6-6-6-6-6--6--6--|-6-6-6-6-6--6--6--|-6-6-6-6-6--6--6--|
G|-7-7-7-7-7--7--7--|-7-7-7-7-7--7--7--|-7-7-7-7-7--7--7--|-7-7-7-7-7--7--7--|
D|-0-0-0-0-0--0--0--|-0-0-0-0-0--0--0--|-0-0-0-0-0--0--0--|-0-0-0-0-0--0--0--|
A|-0-0-0-0-0--0--0--|-0-0-0-0-0--0--0--|-0-0-0-0-0--0--0--|-0-0-0-0-0--0--0--|
D|-0-0-0-0-0--0--0--|-0-0-0-0-0--0--0--|-0-0-0-0-0--0--0--|-0-0-0-0-0--0--0--|

Verse x2
Guitar 1
e|-0------------|-8p0---6p0---5p0---6p0-|-5--5--5--5--5--5--6--6--6--6--6--6-|
B|-6------------|-----------------------|-6--6--6--6--6--6--6--6--6--6--6--6-|
G|-7---------7--|-----7-----7-----7----7|-7--7--7--7--7--7--7--7--7--7--7--7-|
D|-0------------|-----------------------|------------------------------------|
A|-0------------|-----------------------|------------------------------------|
D|-0------------|-----------------------|------------------------------------|
Guitar 2
e|--------------|-----------------------|-5-----5--5--5--5--6-----6--6--6--6-|
B|--------------|-----------------------|-6-----6--6--6--6--6-----6--6--6--6-|
G|-7------------|-(7)-------------------|-7-----7--7--7--7--7-----7--7--7--7-|
D|-0------------|-(0)-------------------|------------------------------------|
A|-0------------|-(0)-------------------|------------------------------------|
D|-0------------|-(0)-------------------|------------------------------------|

Guitar 1
e|-5--5--5--5--5--5--6--6--6--6--6--6-|-0------------|-8p0---6p0---5p0---6p0-|
B|-6--6--6--6--6--6--6--6--6--6--6--6-|-6------------|-----------------------|
G|-7--7--7--7--7--7--7--7--7--7--7--7-|-7---------7--|-----7-----7-----7----7|
D|------------------------------------|-0------------|-----------------------|
A|------------------------------------|-0------------|-----------------------|
D|------------------------------------|-0------------|-----------------------|
Guitar 2
e|-5-----5--5--5--5--0--0--0--0--0--0-|--------------|-5-5-5-5-5-5-5-5-5-5-5-|
B|-6-----6--6--6--6--6--6--6--6--6--6-|--------------|-5-5-5-5-5-5-5-5-5-5-5-|
G|-7-----7--7--7--7--7--7--7--7--7--7-|-7------------|-7-7-7-7-7-7-7-7-7-7-7-|
D|-------------------8--8--8--8--8--8-|-0------------|-----------------------|
A|------------------------------------|-0------------|-----------------------|
D|------------------------------------|-0------------|-----------------------|

Guitar 1
e|-5--5--5--5--5--5--6--6--6--6--6--6--|--5--5--5--5--5--5--6--6--6--6--6--6-|
B|-6--6--6--6--6--6--6--6--6--6--6--6--|--6--6--6--6--6--6--6--6--6--6--6--6-|
G|-7--7--7--7--7--7--7--7--7--7--7--7--|--7--7--7--7--7--7--7--7--7--7--7--7-|
D|-------------------------------------|-------------------------------------|
A|-------------------------------------|-------------------------------------|
D|-------------------------------------|-------------------------------------|
Guitar 2
e|13-13-13-13-13-13-13-13-13-13-13-13--|-13----13-13-13-13-13----13-13-13-13-|
B|13-13-13-13-13-13-13-13-13-13-13-13--|-15p13-13-13-13-13-15p13-13-13-13-13-|
G|15-15-15-15-15-15-15-15-15-15-15-15--|-15----15-15-15-15-15----15-15-15-15-|
D|-------------------------------------|-------------------------------------|
A|-------------------------------------|-------------------------------------|
D|-------------------------------------|-------------------------------------|

Chorus
Guitar 1
e|-0-0-0-0-0--0--0--|-8-8-8-8-5--5--6--|-------------------------------------|
B|-6-6-6-6-6--6--6--|-6-6-6-6-6--6--6--|-------------------------------------|
G|-7-7-7-7-7--7--7--|-7-7-7-7-7--7--7--|-10-10-10--9--9--9-10-10-10--9-10-10-|
D|-0-0-0-0-0--0--0--|-0-0-0-0-0--0--0--|-10-10-10-10-10-10-10-10-10-10-10-10-|
A|-0-0-0-0-0--0--0--|-0-0-0-0-0--0--0--|--8--8--8--8--8--8--8--8--8--8--8--8-|
D|-0-0-0-0-0--0--0--|-0-0-0-0-0--0--0--|--8--8--8--8--8--8--8--8--8--8--8--8-|
Guitar 2
e|-0-0-0-0-0--0--0--|-8-8-8-8-5--5--6--|-------------------------------------|
B|-6-6-6-6-6--6--6--|-6-6-6-6-6--6--6--|-------------------------------------|
G|-7-7-7-7-7--7--7--|-7-7-7-7-7--7--7--|--7-----7--7-----7--7-----7--7-----7-|
D|-0-0-0-0-0--0--0--|-0-0-0-0-0--0--0--|--8-----8--8-----8--8-----8--8-----8-|
A|-0-0-0-0-0--0--0--|-0-0-0-0-0--0--0--|--8-----8--8-----8--8-----8--8-----8-|
D|-0-0-0-0-0--0--0--|-0-0-0-0-0--0--0--|--8-----8--8-----8--8-----8--8-----8-|

Guitar 1
e|--------------------------------|-0-0-0-0-0---0---0--|-8-8-8-8-5---5---6---|
B|--------------------------------|-6-6-6-6-6---6---6--|-6-6-6-6-6---6---6---|
G|-10-10--9--9--9/15-15-15-14-14--|-7-7-7-7-7---7---7--|-7-7-7-7-7---7---7---|
D|--x--x--x--x--x/-x--x--x--x--x--|-0-0-0-0-0---0---0--|-0-0-0-0-0---0---0---|
A|--8--8--7--7--7/13-13-13-12-12--|-0-0-0-0-0---0---0--|-0-0-0-0-0---0---0---|
D|--------------------------------|-0-0-0-0-0---0---0--|-0-0-0-0-0---0---0---|
Guitar 2
e|--------------------------------|-0-0-0-0-0---0---0--|-8-8-8-8-5---5---6---|
B|--------------------------------|-6-6-6-6-6---6---6--|-6-6-6-6-6---6---6---|
G|--9-----9--9-----9--9-----9--9--|-7-7-7-7-7---7---7--|-7-7-7-7-7---7---7---|
D|-10----10-10----10-10----10-10--|-0-0-0-0-0---0---0--|-0-0-0-0-0---0---0---|
A|-10----10-10----10-10----10-10--|-0-0-0-0-0---0---0--|-0-0-0-0-0---0---0---|
D|-10----10-10----10-10----10-10--|-0-0-0-0-0---0---0--|-0-0-0-0-0---0---0---|

Guitar 1
e|-------------------------------------|-------------------------------------|
B|-------------------------------------|-------------------------------------|
G|-10-10-10--9--9--9-10-10-10--9-10-10-|-9/10-10-10-\9--9--9/-12-12-12-12-12-|
D|-10-10-10-10-10-10-10-10-10-10-10-10-|-x/-x--x--x-\x--x--x/--x--x--x--x--x-|
A|--8--8--8--8--8--8--8--8--8--8--8--8-|-7/-8--8--8-\7--7--7/-10-10-10-10-10-|
D|--8--8--8--8--8--8--8--8--8--8--8--8-|-------------------------------------|
Guitar 2
e|-------------------------------------|-------------------------------------|
B|-------------------------------------|-------------------------------------|
G|--7-----7--7-----7--7-----7--7-----7-|-6-----6--6-----6--6------6--6-----6-|
D|--8-----8--8-----8--8-----8--8-----8-|-7-----7--7-----7--7------7--7-----7-|
A|--8-----8--8-----8--8-----8--8-----8-|-7-----7--7-----7--7------7--7-----7-|
D|--8-----8--8-----8--8-----8--8-----8-|-7-----7--7-----7--7------7--7-----7-|

Verse x2
Guitar 1
e|-------------------12----10-------|-----------------12-----10--------------|
B|-------------10-p0-------------10-|-----------10-p0--------------10--------|
G|-------10-p0----------------------|-----10-p0------------------------------|
D|-12-------------------------------|-12-------------------------------------|
A|----------------------------------|----------------------------------------|
D|----------------------------------|----------------------------------------|
Guitar 2
e|--------------------------------0-|----------------------------------------|
B|-15-15-15-15-15-15-15-15-15-15--0-|----------------------------------------|
G|-14-14-14-14-14-14-14-14-14-14--0-|--7-----14-------12---------9-----------|
D|--0--0--0--0--0--0--0--0--0--0--0-|--x------x--------x---------x-----------|
A|--0--0--0--0--0--0--0--0--0--0--0-|--5--p0-12----p0-10------p0-7----p0-----|
D|--0--0--0--0--0--0--0--0--0--0--0-|----------------------------------------|

Guitar 1
e|--5----------------------------------|--5----------------------------------|
B|--------6-----5-----5----h6-----5----|--------6-----5-----5----h6-----5----|
G|-------------------------------------|-------------------------------------|
D|-------------------------------------|-------------------------------------|
A|-------------------------------------|-------------------------------------|
D|-------------------------------------|-------------------------------------|
Guitar 2
e|-15-15-15-15-15-15-17-17-17-17-17-17-|-15-15-15-15-15-15-15-15-15-15-15-15-|
B|-13-13-13-13-13-13-13-13-13-13-13-13-|-13-13-13-13-13-13-13-13-13-13-13-13-|
G|-15-15-15-15-15-15-15-15-15-15-15-15-|--x--x--x--x--x--x--x--x--x--x--x--x-|
D|-------------------------------------|-15-15-15-15-15-15-14-14-14-14-14-14-|
A|-------------------------------------|-------------------------------------|
D|-------------------------------------|-------------------------------------|

Guitar 1
e|---------------------12--10-------------|------------------12--10----------|
B|-------------10--p0---------------10----|-----------10-p0------------10----|
G|-----10--p0-----------------------------|-----10-p0------------------------|
D|-12-------------------------------------|-12-------------------------------|
A|----------------------------------------|----------------------------------|
D|----------------------------------------|----------------------------------|
Guitar 2
e|---------------------------------------------------------------------------|
B|--3---3---3---3---3/-10--10--10--10--10-|----------------------------------|
G|--2---2---2---2---2/--9---9---9---9---9-|--7---7/14----14-\12--12\-9----0--|
D|--0---0---0---0---0---0---0---0---0---0-|--x---x/-x-----x-\-x---x\-x----0--|
A|--0---0---0---0---0---0---0---0---0---0-|--5---5/12----12-\10--10\-7----0--|
D|--0---0---0---0---0---0---0---0---0---0-|----------------------------------|


Pre-chorus
Guitar 1
e|-------------------------------------|-------------------------------------|
B|-10----------------11----------------|-10----------------11----------------|
G|-12----------------12----------------|-12----------------12----------------|
D|-------------------------------------|-------------------------------------|
A|-------------------------------------|-------------------------------------|
D|-------------------------------------|-------------------------------------|
   ///               ///                 ///               ///
Guitar 2
e|-15-15-15-15-15-15-17-17-17-17-17-17-|-15-15-15-15-15-15-15-15-15-15-15-15-|
B|-13-13-13-13-13-13-13-13-13-13-13-13-|-13-13-13-13-13-13-13-13-13-13-13-13-|
G|-15-15-15-15-15-15-15-15-15-15-15-15-|--x--x--x--x--x--x--x--x--x--x--x--x-|
D|-------------------------------------|-15-15-15-15-15-15-14-14-14-14-14-14-|
A|-------------------------------------|-------------------------------------|
D|-------------------------------------|-------------------------------------|

Guitar 1
e|-------------------------------------|-------------------------------------|
B|-17----------------17----------------|-17----------------------------------|
G|-19----------------21----------------|-19------------------15---17---19----|
D|-------------------------------------|----------------------x----x----x----|
A|-------------------------------------|---------------------13---15---17----|
D|-------------------------------------|-------------------------------------|
   ///               ///                 ///
Guitar 2
e|-------------------------------------|-------------------------------------|
B|-------------------------------------|-------------------------------------|
G|-12-12-12-12-12-12-14-14-14-14-14-14-|-15-15-15-15-15-15---15---17---19----|
D|--x--x--x--x--x--x--x--x--x--x--x--x-|--x--x--x--x--x--x----x----x----x----|
A|-10-10-10-10-10-10-12-12-12-12-12-12-|-13-13-13-13-13-13---13---15---17----|
D|-------------------------------------|-------------------------------------|

Chorus x1

Bridge
Guitar 1
e|-0-0-0-0-0--0--0-|-0--0--0--0--0--0-|-0--0--0--0--0--0-|-0--0--0--0--0--0--|
B|-6-6-6-6-6--6--6-|-6--6--6--6--6--6-|-6--6--6--6--6--6-|-6--6--6--6--6--6--|
G|-7-7-7-7-7--7--7-|-7--7--7--7--7--7-|-7--7--7--7--7--7-|-7--7--7--7--7--7--|
D|-0-0-0-0-0--0--0-|-0--0--0--0--0--0-|-0--0--0--0--0--0-|-0--0--0--0--0--0--|
A|-0-0-0-0-0--0--0-|-0--0--0--0--0--0-|-0--0--0--0--0--0-|-0--0--0--0--0--0--|
D|-0-0-0-0-0--0--0-|-0--0--0--0--0--0-|-0--0--0--0--0--0-|-0--0--0--0--0--0--|
Guitar 2
e|-0-0-0-0-0--0--0-|-0--0--0--0--0--0-|-0--0--0--0--0--0-|-0--0--0--0--0--0--|
B|-6-6-6-6-6--6--6-|-6--6--6--6--6--6-|-6--6--6--6--6--6-|-6--6--6--6--6--6--|
G|-7-7-7-7-7--7--7-|-7--7--7--7--7--7-|-7--7--7--7--7--7-|-7--7--7--7--7--7--|
D|-0-0-0-0-0--0--0-|-0--0--0--0--0--0-|-0--0--0--0--0--0-|-0--0--0--0--0--0-0|
A|-0-0-0-0-0--0--0-|-0--0--0--0--0--0-|-0--0--0--0--0--0-|-0--0--0--0--0--0-0|
D|-0-0-0-0-0--0--0-|-0--0--0--0--0--0-|-0--0--0--0--0--0-|-0--0--0--0--0--000|

Guitar 1
e|-----------|------------|------------|------------|------------|-----------|
B|-----------|------------|------------|------------|------------|-----------|
G|-----------|------------|------------|------------|------------|-----------|
D|-----------|------------|------------|------------|------------|-----------|
A|-----------|------------|------------|------------|------------|-----------|
D|-----------|------------|------------|------------|------------|-----------|
 |Guitar 2
e|-----------|------------|------------|------------|------------|-----------|
B|-----------|------------|------------|------------|------------|-----------|
G|-----------|------------|------------|------------|------------|-----------|
D|-(0)-------|-(0)--------|-(0)--------|-(0)--------|-(0)--------|-----------|
A|-(0)-------|-(0)--------|-(0)--------|-(0)--------|-(0)--------|-----------|
D|-(0)-------|-(0)--------|-(0)--------|-(0)--------|-(0)--------|-----------|

Guitar 1
e|------------------------------------|-----------------------------------10-|
B|------------------------------------|-----------------------------------10-|
G|------------------------------------|-----------------------------------10-|
D|------------------------------------|--------------------------------------|
A|------------------------------------|--------------------------------------|
D|------------------------------------|--------------------------------------|
 |Guitar 2
e|------------------------------------|--------------------------------------|
B|------------------------------------|--------------------------------------|
G|------------------------------------|--------------------------------------|
D|--0---------------------------------|-(0)----------------------------------|
A|--0---------------------------------|-(0)----------------------------------|
D|--0---------------------------------|-(0)----------------------------------|

Guitar 1
e|-13-10-10-10-10-10---10-|-10-------10-10-10---10-|-12-10-10-10-10-10---10--|
B|-10-10-11-13-10-11---10-|-13p11p10-11-10-10---10-|-10-10-11-13-10-11---10--|
G|-10-10-10-10-10-10---10-|-10-------10-10-12---10-|-10-10-10-10-10-10---10--|
D|------------------------|------------------------|-------------------------|
A|------------------------|------------------------|-------------------------|
D|------------------------|------------------------|-------------------------|
 |Guitar 2
e|------------------------|------------------------|-------------------------|
B|------------------------|------------------------|-------------------------|
G|------------------------|------------------------|-------------------------|
D|-(0)--------------------|-(0)--------------------|-(0)---------------------|
A|-(0)--------------------|-(0)--------------------|-(0)---------------------|
D|-(0)--------------------|-(0)--------------------|-(0)---------------------|

Guitar 1
e|-10-------10-10-10---10-|-13-10-10-10-10-10---10-|-10-------10-10-10---10--|
B|-13p11p10-11-10-10---10-|-10-10-11-13-10-11---10-|-13p11p10-11-10-10---10--|
G|-10-------10-10-12---10-|-10-10-10-10-10-10---10-|-10-------10-10-12---10--|
D|------------------------|------------------------|-------------------------|
A|------------------------|------------------------|-------------------------|
D|------------------------|------------------------|-------------------------|
 |Guitar 2
e|------------------------|------------------------|-------------------------|
B|------------------------|------------------------|-------------------------|
G|------------------------|------------------------|-------------------------|
D|------------------------|------------------------|-------------------------|
A|------------------------|------------------------|-------------------------|
D|------------------------|------------------------|-------------------------|

Guitar 1
e|-12-10-10-10-10-10---10-|-10-------10-10-10---10-(-13-10-10-10-10-10---10--|
B|-10-10-11-13-10-11---10-|-13p11p10-11-10-10---10-(-10-10-11-13-10-11---10--|
G|-10-10-10-10-10-10---10-|-10-------10-10-12---10-(-10-10-10-10-10-10---10--|
D|------------------------|------------------------(-------------------------|
A|------------------------|------------------------(-------------------------|
D|------------------------|------------------------(-------------------------|
 |Guitar 2
e|------------------------|---------------------13-(-13-13-13-12-12-12---12--|
B|------------------------|---------------------10-(-10-10-10-10-10-10---10--|
G|------------------------|---------------------10-(-10-10-10-10-10-10---10--|
D|------------------------|------------------------(-------------------------|
A|------------------------|------------------------(-------------------------|
D|------------------------|------------------------(-------------------------|

Guitar 1
e|-10------10-10-10-10--10-|-12-10-10-10-10-10--10-|-10------10-10-10-10--10-)
B|-13p11p1010-11-10-10--10-|-10-10-11-13-10-11--10-|-13p11p1010-11-10-10--10-)
G|-10------10-10-10-12--10-|-10-10-10-10-10-10--10-|-10------10-10-10-12--10-)
D|-------------------------|-----------------------|-------------------------)
A|-------------------------|-----------------------|-------------------------)
D|-------------------------|-----------------------|-------------------------)
 |Guitar 2
e|-12--12--12-10-10-10--10-|-10-10-10-10-10-10--10-|-10--10--10-10-10-10--10-)
B|-10--10--10-11-11-11--11-|-11-11-11-13-13-13--10-|-10--10--13-13-13-13--10-)
G|-10--10--10-10-10-10--10-|-10-10-10-10-10-10--10-|-10--10--10-10-10-10--10-)
D|-------------------------|-----------------------|-------------------------)
A|-------------------------|-----------------------|-------------------------)
D|-------------------------|-----------------------|-------------------------)

Repeat the section in parentheses once

Guitar 1
e|------------------------|------------------------|-------------------------|
B|------------------------|------------------------|-------------------------|
G|------------------------|------------------------|-------------------------|
D|--0--0--0--0----------7-|--7--7--7-------------8-|--8--8--8------------10--|
A|--0--0--0--0----------7-|--7--7--7-------------8-|--8--8--8------------10--|
D|--0--0--0--0----------7-|--7--7--7-------------8-|--8--8--8------------10--|
 |Guitar 2
e|-13-13-13-12-12-12---12-|-12-12-12-10-10-10---10-|-10-10-10-10-10-10---10--|
B|-10-10-10-10-10-10---10-|-10-10-10-11-11-11---11-|-11-11-11-13-13-13---10--|
G|-10-10-10-10-10-10---10-|-10-10-10-10-10-10---10-|-10-10-10-10-10-10---10--|
D|------------------------|------------------------|-------------------------|
A|------------------------|------------------------|-------------------------|
D|------------------------|------------------------|-------------------------|

Guitar 1
e|------------------------|------------------------|-------------------------|
B|------------------------|------------------------|-------------------------|
G|------------------------|------------------------|-------------------------|
D|-10-10-10-------------0-|--0--0--0-------------7-|--7--7--7----------------|
A|-10-10-10-------------0-|--0--0--0-------------7-|--7--7--7----------------|
D|-10-10-10-------------0-|--0--0--0-------------7-|--7--7--7----------------|
 |Guitar 2
e|-10-10-10-10-10-10---13-|-13-13-13-12-12-12---12-|-10-10-10-10-10-10---10--|
B|-10-10-13-13-13-13---13-|-10-10-10-10-10-10---10-|-11-11-11-13-13-13---10--|
G|-10-10-10-10-10-10---10-|-10-10-10-10-10-10---10-|-10-10-10-10-10-10---10--|
D|------------------------|------------------------|-------------------------|
A|------------------------|------------------------|-------------------------|
D|------------------------|------------------------|-------------------------|

Breakdown
Guitar 1
e|--------------------------------|------------------------------------------|
B|--------------------------------|--3---------------------------------------|
G|-10-10-10-10------9--9--9--9----|--2--------------12--12--12--12--12--12---|
D|--8--8--8--8------7--7--7--7----|--0--------------10--10--10--10--10--10---|
A|--8--8--8--8------7--7--7--7----|--0--------------10--10--10--10--10--10---|
D|--8--8--8--8------7--7--7--7----|--0--------------10--10--10--10--10--10---|
 |Guitar 2
e|--------------------------------|------------------------------------------|
B|--------------------------------|--3---------------------------------------|
G|-10-10-10-10------9--9--9--9----|--2--------------12--12--12--12--12--12---|
D|--8--8--8--8------7--7--7--7----|--0--------------10--10--10--10--10--10---|
A|--8--8--8--8------7--7--7--7----|--0--------------10--10--10--10--10--10---|
D|--8--8--8--8------7--7--7--7----|--0--------------10--10--10--10--10--10---|

Guitar 1
e|--------------------------------|------------------------------------------|
B|--------------------------------|------------------------------------------|
G|-10-10-10-10------9--9--9--9----|--14^r14---------12--12--12--12--12--12---|
D|--8--8--8--8------7--7--7--7----|---x---x---------10--10--10--10--10--10---|
A|--8--8--8--8------7--7--7--7----|--12^r12---------10--10--10--10--10--10---|
D|--8--8--8--8------7--7--7--7----|-----------------10--10--10--10--10--10---|
 |Guitar 2
e|--------------------------------|------------------------------------------|
B|--------------------------------|--3---------------------------------------|
G|-10-10-10-10------9--9--9--9----|--2--------------12--12--12--12--12--12---|
D|--8--8--8--8------7--7--7--7----|--0--------------10--10--10--10--10--10---|
A|--8--8--8--8------7--7--7--7----|--0--------------10--10--10--10--10--10---|
D|--8--8--8--8------7--7--7--7----|--0--------------10--10--10--10--10--10---|

Guitar 1
e|-------------------------------------------------|
B|-------------------------------------------------|
G|-10-10-10-10-10-10-10-10--9--9--9--9--9--9--9--9-|
D|--8--8--8--8--8--8--8--8--7--7--7--7--7--7--7--7-|
A|--8--8--8--8--8--8--8--8--7--7--7--7--7--7--7--7-|
D|--8--8--8--8--8--8--8--8--7--7--7--7--7--7--7--7-|
 |Guitar 2                                         |
e|-------------------------------------------------|
B|-------------------------------------------------|
G|-12/14-14-14-14-14-12-12-12/14-14-14-14-14-12-12-|
D|--x--x--x--x--x--x--x--x--x--x--x--x--x--x--x--x-|
A|-10/12-12-12-12-12-10-10-10/12-12-12-12-12-10-10-|
D|-------------------------------------------------|

Guitar 1
e|-------------------------------------------------|
B|--3--3--3--3--3--3--3--3-------------------------|
G|--2--2--2--2--2--2--2--2-12-12-12-12-12-12-12-12-|
D|--0--0--0--0--0--0--0--0-10-10-10-10-10-10-10-10-|
A|--0--0--0--0--0--0--0--0-10-10-10-10-10-10-10-10-|
D|--0--0--0--0--0--0--0--0-10-10-10-10-10-10-10-10-|
 |Guitar 2                                         |
e|-------------------------------------------------|
B|-------------------------------------------------|
G|-12\10-10-10-10-10-10-10--9-10--9-10--9-10-10/12-|
D|--x--x--x--x--x--x--x--x--x--x--x--x--x--x--x--x-|
A|-10\-8--8--8--8--8--8--8--8--8--8--8--8--8--8/10-|
D|-------------------------------------------------|

Guitar 1
e|-------------------------------------------------|
B|-------------------------------------------------|
G|-10-10-10-10-10-10-10-10--9--9--9--9--9--9--9--9-|
D|--8--8--8--8--8--8--8--8--7--7--7--7--7--7--7--7-|
A|--8--8--8--8--8--8--8--8--7--7--7--7--7--7--7--7-|
D|--8--8--8--8--8--8--8--8--7--7--7--7--7--7--7--7-|
 |Guitar 2                                         |
e|-------------------------------------------------|
B|-------------------------------------------------|
G|-12/14-14-14-14-14-14-15-15\14-14-14-14-14-------|
D|--x--x--x--x--x--x--x--x--x--x--x--x--x--x-------|
A|-10/12-12-12-12-12-12-13-13-12-12-12-12-12-------|
D|--------------------------------------------0--0-|

Guitar 1
e|-------------------------------------------------|
B|--3--3--3--3--3--3--3--3-------------------------|
G|--2--2--2--2--2--2--2--2-12-12-12-12-12-12-12-12-|
D|--0--0--0--0--0--0--0--0-10-10-10-10-10-10-10-10-|
A|--0--0--0--0--0--0--0--0-10-10-10-10-10-10-10-10-|
D|--0--0--0--0--0--0--0--0-10-10-10-10-10-10-10-10-|
 |Guitar 2                                         |
e|-------------------------------------------------|
B|-------------------------------------------------|
G|-12\10-10-10-10-10-10--9--9-10--9-10-10--9--7--7-|
D|--x--x--x--x--x--x--x--x--x--x--x--x--x--x--x--x-|
A|-10\-8--8--8--8--8--8--8--8--8--8--8--8--7--5--5-|
D|-------------------------------------------------|


Guitar 1
e|-------------------------------------------------|
B|-------------------------------------------------|
G|-10-10-10-10-10-10-10-10--9--9--9--9--9--9--9--9-|
D|--8--8--8--8--8--8--8--8--7--7--7--7--7--7--7--7-|
A|--8--8--8--8--8--8--8--8--7--7--7--7--7--7--7--7-|
D|--8--8--8--8--8--8--8--8--7--7--7--7--7--7--7--7-|
 |Guitar 2                                         |
e|-13-13-13-13-------12-12-12-12-12-12-12-12-13-13-|
B|-13-13-13-13-13-13-13-13-13-13-13-13-13-13-13-13-|
G|-12-12-12-12-12-12-12-12-12-12-12-12-12-12-12-12-|
D|-------------------------------------------------|
A|-------------------------------------------------|
D|-------------------------------------------------|

Guitar 1
e|-------------------------------------------------|
B|--3--3--3--3--3--3--3--3-------------------------|
G|--2--2--2--2--2--2--2--2-12-12-12-12-12-12-12-12-|
D|--0--0--0--0--0--0--0--0-10-10-10-10-10-10-10-10-|
A|--0--0--0--0--0--0--0--0-10-10-10-10-10-10-10-10-|
D|--0--0--0--0--0--0--0--0-10-10-10-10-10-10-10-10-|
 |Guitar 2                                         |
e|-13-13-12-12-12-12-12-12-10-10-10-10-10-10-10-10-|
B|-13-13-13-13-13-13-13-13-13-13-13-13-13-13-13-13-|
G|-12-12-12-12-12-12-12-12-12-12-12-12-12-12-12-12-|
D|-------------------------------------------------|
A|-------------------------------------------------|
D|-------------------------------------------------|

Guitar 1
e|------------------------------------------------|--------------------------|
B|------------------------------------------------|-3--3--3--3--3--3--3--3---|
G|-10-10-10-10-10-10-10-10--9--9--9--9--9--9--9--9|-2--2--2--2--2--2--2--2-12|
D|--8--8--8--8--8--8--8--8--7--7--7--7--7--7--7--7|-0--0--0--0--0--0--0--0-10|
A|--8--8--8--8--8--8--8--8--7--7--7--7--7--7--7--7|-0--0--0--0--0--0--0--0-10|
D|--8--8--8--8--8--8--8--8--7--7--7--7--7--7--7--7|-0--0--0--0--0--0--0--0-10|
Guitar 2
e|-10-10-10-10-10-10-12-12-12-12-12-12-12-12-12-13|13-13-12-12-12-12-------15|
B|-13-13-13-13-13-13-13-13-13-13-13-13-13-13-13-13|13-13-13-13-13-13-13-13--x|
G|-12-12-12-12-12-12-12-12-12-12-12-12-12-12-12-12|12-12-12-12-12-12--0--0-12|
D|------------------------------------------------|-------------------0--0---|
A|------------------------------------------------|--------------------------|
D|------------------------------------------------|--------------------------|

Outro
Guitar 1
e|-0-0-0-0-0--0--0--|-8-8-8-8-5--5--6--|-0-0-0-0-0--0--0--|-8-8-8-8-5--5--6--|
B|-6-6-6-6-6--6--6--|-6-6-6-6-6--6--6--|-6-6-6-6-6--6--6--|-6-6-6-6-6--6--6--|
G|-7-7-7-7-7--7--7--|-7-7-7-7-7--7--7--|-7-7-7-7-7--7--7--|-7-7-7-7-7--7--7--|
D|-0-0-0-0-0--0--0--|-0-0-0-0-0--0--0--|-0-0-0-0-0--0--0--|-0-0-0-0-0--0--0--|
A|-0-0-0-0-0--0--0--|-0-0-0-0-0--0--0--|-0-0-0-0-0--0--0--|-0-0-0-0-0--0--0--|
D|-0-0-0-0-0--0--0--|-0-0-0-0-0--0--0--|-0-0-0-0-0--0--0--|-0-0-0-0-0--0--0--|
 |Guitar 2
e|-0-0-0-0-0--0--0--|-8-8-8-8-5--5--6--|-0-0-0-0-0--0--0--|-8-8-8-8-5--5--6--|
B|-6-6-6-6-6--6--6--|-6-6-6-6-6--6--6--|-6-6-6-6-6--6--6--|-6-6-6-6-6--6--6--|
G|-7-7-7-7-7--7--7--|-7-7-7-7-7--7--7--|-7-7-7-7-7--7--7--|-7-7-7-7-7--7--7--|
D|-0-0-0-0-0--0--0--|-0-0-0-0-0--0--0--|-0-0-0-0-0--0--0--|-0-0-0-0-0--0--0--|
A|-0-0-0-0-0--0--0--|-0-0-0-0-0--0--0--|-0-0-0-0-0--0--0--|-0-0-0-0-0--0--0--|
D|-0-0-0-0-0--0--0--|-0-0-0-0-0--0--0--|-0-0-0-0-0--0--0--|-0-0-0-0-0--0--0--|

Guitar 1
e|-5-5-5-5-5-5-6-6-6-6-6-6-|--5--5--5--5--5--5---------------|
B|-6-6-6-6-6-6-6-6-6-6-6-6-|--6--6--6--6--6--6---3---3---3---|
G|-7-7-7-7-7-7-7-7-7-7-7-7-|--7--7--7--7--7--7---2---2---2---|
D|-------------------------|---------------------0---0---0---|
A|-------------------------|---------------------0---0---0---|
D|-------------------------|---------------------0---0---0---|
 |Guitar 2                                                   |
e|-------------------------|---------------------------------|
B|-------------------------|---------------------3---3---3---|
G|-7-7-7-7-7-7/9-9-9-9-9-9-|-10-10-10-10-10-10---2---2---2---|
D|-x-x-x-x-x-x-x-x-x-x-x-x-|--x--x--x--x--x--x---0---0---0---|
A|-5-5-5-5-5-5/7-7-7-7-7-7-|--8--8--8--8--8--8---0---0---0---|
D|-------------------------|---------------------0---0---0---|

==============================================================================
2. Between Rupture and Rapture

Intro
Guitar 1
e|---------------------------------|-----------------------------------|
B|---------------------------------|-----------------------------------|
G|-4-4-4-4-4-4-4-4-4-4-4-4-4-4-4-4-|-4-4-4-4-4-4-4-4-4-4-4-4-4-4-4-4---|
D|---------------------------------|-----------------------------------|
A|---------------------------------|-----------------------------------|
D|---------------------------------|-----------------------------------|
   PM------------------------------------------------------------------|

Guitar 1
e|----------------------------------|---------------------------------|
B|----------------------------------|---------------------------------|
G|--4-4-4-4-4-4-4-4-2h4-4-4-4-4-4-4-|-2h4-4-4-4-4-4-4-4-4-4-4-4-4-4-4-|
D|----------------------------------|---------------------------------|
A|----------------------------------|---------------------------------|
D|----------------------------------|---------------------------------|
 |  PM------------|     PM--------|       PM------------|             |
 |Guitar 2                                                            |
e|----------------------------------|---------------------------------|
B|----------------------------------|---------------------------------|
G|-11--------------\7---------------|\4-------------------------------|
D|--9--------------\7---------------|\2-------------------------------|
A|--9--------------\5---------------|\2-------------------------------|
D|--9--------------\5---------------|\2-------------------------------|

Guitar 1
e|----------------------------------|---------------------------------|
B|----------------------------------|---------------------------------|
G|--4-4-4-4-4-4-4-4-2h4-4-4-4-4-4-4-|-2h4-4-4-4-4-4-4-4-4-4-4-4-4-4-4-|
D|----------------------------------|---------------------------------|
A|----------------------------------|---------------------------------|
D|----------------------------------|---------------------------------|
 |  PM------------|     PM--------|       PM------------|             |
 |Guitar 2                            let ring                        |
e|----------------------------------|---------------------------------|
B|----------------------------------|---------------------------------|
G|/11--------------\7---------------|-------0-------------------------|
D|/-9--------------\7---------------|-----2---------------------------|
A|/-9--------------\5---------------|---2-----------------------------|
D|/-9--------------\5---------------|-2-------------------------------|

Verse
Guitar 1
e|----------------------------------|----------------------------------|
B|--2-2-2-3-3-3-3---3-3-3-5-5-5-3-5-|-3-3-3-3-3-3-3-/7-7-7-7-7-7-7-0---|
G|--2-2-2-2-2-2-2-0-4-4-4-4-4-4-4-4-|-4-4-4-4-4-4-4-/7-7-7-7-7-7-7-0---|
D|----------------------------------|----------------------------------|
A|----------------------------------|----------------------------------|
D|----------------------------------|----------------------------------|
 |Guitar 2                                                             |
e|----------------------------------|----------------------------------|
B|----------------------------------|----------------------------------|
G|-11---------------9---------------|-4--------------------------------|
D|--9--------------10---------------|-2--------------------------------|
A|--9-------------\-7---------------|\2--------------------------------|
D|--9-------------\-7---------------|\2--------------------------------|

Guitar 1
e|----------------------------------|-----------------------------------------|
B|--2-2-2-3-3-3-3---3-3-3-5-5-5-3-5-|-3-3-3-3-3-3-3-3/10-10-10-10-10-10-10-10-|
G|--2-2-2-2-2-2-2-0-4-4-4-4-4-4-4-4-|-4-4-4-4-4-4-4-4/11-11-11-11-11-11-11-11-|
D|----------------------------------|-----------------------------------------|
A|----------------------------------|-----------------------------------------|
D|----------------------------------|-----------------------------------------|
 |                                                                            |
 |Guitar 2                            let ring                                |
e|----------------------------------|-----------------------------------------|
B|----------------------------------|-----------------------------------------|
G|-11---------------9---------------|-------0---------------------------------|
D|--9--------------10---------------|-----2-----------------------------------|
A|--9-------------\-7---------------|---2-------------------------------------|
D|--9-------------\-7---------------|-2---------------------------------------|

Guitar 1
e|------------|
B|-7-7----7-7-|
G|-0-0----0-0-|
D|-9-9----9-9-|
A|------------|
D|------------|

Chorus (distortion)
Guitar 1
e|--------------------------------------------|-------------------------------|
B|--------------------------------------------|-------------------------------|
G|11-11-11-11-11-11-11-11-11\7--7--7--7-7-7-7-|-4-4-4-4-4-4-4-4-4-4-4-4-4-4-4-|
D|-9--9--9--9--9--9--9--9--9\5--5--5--5-5-5-5-|-2-2-2-2-2-2-2-2-2-2-2-2-2-2-2-|
A|-9--9--9--9--9--9--9--9--9\5--5--5--5-5-5-5-|-2-2-2-2-2-2-2-2-2-2-2-2-2-2-2-|
D|-9--9--9--9--9--9--9--9--9\5--5--5--5-5-5-5-|-2-2-2-2-2-2-2-2-2-2-2-2-2-2-2-|
 |Guitar 2                                                                    |
e|--------------------------------------------|-------------------------------|
B|--------------------------------------------|-------------------------------|
G|11-11-11-11-11-11-11-\9-9/11-11-11-11\7-7\--|-4-4-4-4-4-4-4-4-4-4-4-4-4-4-4-|
D|-x--x--x--x--x--x--x-\x-x/-x--x--x--x\x-x\--|-x-x-x-x-x-x-x-x-x-x-x-x-x-x-x-|
A|-9--9--9--9--9--9--9-\7-7/-9--9--9--9\5-5\--|-2-2-2-2-2-2-2-2-2-2-2-2-2-2-2-|
D|--------------------------------------------|-------------------------------|

Guitar 1
e|--------------------------------------------|-------------------------------|
B|--------------------------------------------|-------------------------------|
G|11-11-11-11-11-11-11-11-11\7--7--7--7-7-7-7-|-4-4-4-4-4-4-4-4-4-4-4-4-4-4-4-|
D|-9--9--9--9--9--9--9--9--9\5--5--5--5-5-5-5-|-2-2-2-2-2-2-2-2-2-2-2-2-2-2-2-|
A|-9--9--9--9--9--9--9--9--9\5--5--5--5-5-5-5-|-2-2-2-2-2-2-2-2-2-2-2-2-2-2-2-|
D|-9--9--9--9--9--9--9--9--9\5--5--5--5-5-5-5-|-2-2-2-2-2-2-2-2-2-2-2-2-2-2-2-|
 |Guitar 2                                                                    |
e|--------------------------------------------|-------------------------------|
B|--------------------------------------------|-------------------------------|
G|11-11-11-11-11-11-11-\9-9/11-11-11-11\7-7\--|-4-4-4-4-4-4-4-4-4h^---4-4-4-4-|
D|-x--x--x--x--x--x--x-\x-x/-x--x--x--x\x-x\--|-x-x-x-x-x-x-x-x-x-----x-x-x-x-|
A|-9--9--9--9--9--9--9-\7-7/-9--9--9--9\5-5\--|-2-2-2-2-2-2-2-2-2h^---2-2-2-2-|
D|--------------------------------------------|-------------------------------|

Guitar 1
e|-------------------------------------------------|---------------------------------|
B|-------------------------------------------------|---------------------------------|
G|-11-11-11-11-11-11-11-11-11\-9--9--9--9--9--9--9-|-4-4-4-4-4-4-4-4-4-4-4-4-4-4-4---|
D|--9--9--9--9--9--9--9--9--9\10-10-10-10-10-10-10-|-2-2-2-2-2-2-2-2-2-2-2-2-2-2-2---|
A|--9--9--9--9--9--9--9--9--9\-7--7--7--7--7--7--7-|-2-2-2-2-2-2-2-2-2-2-2-2-2-2-2---|
D|--9--9--9--9--9--9--9--9--9\-7--7--7--7--7--7--7-|-2-2-2-2-2-2-2-2-2-2-2-2-2-2-2---|
 |Guitar 2                                                                           |
e|-------------------------------------------------|---------------------------------|
B|-------------------------------------------------|---------------------------------|
G|--4--4--4--4--4--4--4--4--5--5--5--5--5--5--5--5-|-4-4-4-4-4-4-4-4-4-4-4-4-4-4-4-4-|
D|--x--x--x--x--x--x--x--x--x--x--x--x--x--x--x--x-|-x-x-x-x-x-x-x-x-x-x-x-x-x-x-x-x-|
A|--2--2--2--2--2--2--2--2--3--3--3--3--3--3--3--3-|-2-2-2-2-2-2-2-2-2-2-2-2-2-2-2-2-|
D|-------------------------------------------------|---------------------------------|

Guitar 1
e|-------------------------------------------------|---------------------------------|
B|-------------------------------------------------|---------------------------------|
G|-11-11-11-11-11-11-11-11-11\-9--9--9--9--9--9--9-|-4-4-4-4-4-4-4-4-4---4-4-4-4-4-4-|
D|--9--9--9--9--9--9--9--9--9\10-10-10-10-10-10-10-|-2-2-2-2-2-2-2-2-2---2-2-2-2-2-2-|
A|--9--9--9--9--9--9--9--9--9\-7--7--7--7--7--7--7-|-2-2-2-2-2-2-2-2-2---2-2-2-2-2-2-|
D|--9--9--9--9--9--9--9--9--9\-7--7--7--7--7--7--7-|-2-2-2-2-2-2-2-2-2---2-2-2-2-2-2-|
 |Guitar 2                                                                           |
e|-------------------------------------------------|---------------------------------|
B|-------------------------------------------------|---------------------------------|
G|--4--4--4--4--4--4--4--4--5--5--5--9-----7--5-/7-|-4-4-4-4-4-4-4-4---4-4---4-4-4-4-|
D|--x--x--x--x--x--x--x--x--x--x--x--x-----x--x-/x-|-x-x-x-x-x-x-x-x---x-x---x-x-x-x-|
A|--2--2--2--2--2--2--2--2--3--3--3--7-----5--3-/5-|-2-2-2-2-2-2-2-2---2-2---2-2-2-2-|
D|-------------------------------------------------|---------------------------------|

Verse
Guitar 1
e|---------------------------------|----------------------------------------------|
B|-------------------------------3-|-(3)-3--3-----3----3--------------------------|
G|---------------6---6-6---6-6-6-2-|-(2)-2--2-----2----2-----4-4--4--4-4--4--4-4--|
D|---6-6---6-6---6---6-6---6-6-6-0-|-(0)-0--0-----0----0-----2-2--2--2-2--2--2-2--|
A|---6-6---6-6---4---4-4---4-4-4-0-|-(0)-0--0-----0----0-----2-2--2--2-2--2--2-2--|
D|---6-6---6-6-------------------0-|-(0)-0--0-----0----0-----2-2--2--2-2--2--2-2--|
 |                                                                                |
 |Guitar 2                               let ring----------------------------|    |
e|---------------------------------|-----9----------9----------9-------9----------|
B|---------------------------------|-------10----10------10------10------10-------|
G|---------------6---6-6---6/9-9---|----------11------11------------11------11----|
D|---6-6---6-6---6---6-6---x/x-x-0-|-(0)------------------------------------------|
A|---6-6---6-6---4---4-4---4/7-7-0-|-(0)------------------------------------------|
D|---6-6---6-6-------------------0-|-(0)------------------------------------------|

Guitar 1
e|-------------------------------|-----------------------------------|
B|-----------------------------3-|-(3)-3-3-3-3-----------------------|
G|-------------6---6-6---6-6-6-2-|-(2)-2-2-2-2----4-4--4--4-4-4-4-4--|
D|---6-6---6-6-6---6-6---6-6-6-0-|-(0)-0-0-0-0----2-2--2--2-2-2-2-2--|
A|---6-6---6-6-4---4-4---4-4-4-0-|-(0)-0-0-0-0----2-2--2--2-2-2-2-2--|
D|---6-6---6-6-----------------0-|-(0)-0-0-0-0----2-2--2--2-2-2-2-2--|
 |                                                                   |
 |Guitar 2                                 ~~~~~                     |
e|-------------------------------|-----------------------------------|
B|-------------------------------|-----------------------------------|
G|-------------6---6-6---6-6-6-6-|-(6)-7/9-9----6/7-7/11-11\9-7-9-9--|
D|---6-6---6-6-6---6-6---6-6-x-x-|-----x/x-x----x/x-x/-x--x\x-x-x-x--|
A|---6-6---6-6-4---4-4---4-4-4-4-|-(4)-5/7-7----4/5-5/-9--9\7-7-7-7--|
D|---6-6---6-6-------------------|-----------------------------------|

Guitar 1
e|---------------------------------|----------------------------------------------|
B|-------------------------------3-|-(3)-3--3-----3----3--------------------------|
G|---------------6---6-6---6-6-6-2-|-(2)-2--2-----2----2-----4-4--4--4-4--4--4-4--|
D|---6-6---6-6---6---6-6---6-6-6-0-|-(0)-0--0-----0----0-----2-2--2--2-2--2--2-2--|
A|---6-6---6-6---4---4-4---4-4-4-0-|-(0)-0--0-----0----0-----2-2--2--2-2--2--2-2--|
D|---6-6---6-6-------------------0-|-(0)-0--0-----0----0-----2-2--2--2-2--2--2-2--|
 |                                                                                |
 |Guitar 2                               let ring----------------------------|    |
e|---------------------------------|-----9----------9----------9-------9----------|
B|---------------------------------|-------10----10------10------10------10-------|
G|---------------6---6-6---6/9-9---|----------11------11------------11------11----|
D|---6-6---6-6---6---6-6---x/x-x-0-|-(0)------------------------------------------|
A|---6-6---6-6---4---4-4---4/7-7-0-|-(0)------------------------------------------|
D|---6-6---6-6-------------------0-|-(0)------------------------------------------|

 Guitar 1
e|-------------------------------|----------------------------|
B|-----------------------------3-|-(3)---3-3-3---3----3-3-3---|
G|-------------6---6-6---6-6-6-2-|-(2)---2-2-2---2----2-2-2---|
D|---6-6---6-6-6---6-6---6-6-6-0-|-(0)---0-0-0---0----0-0-0---|
A|---6-6---6-6-4---4-4---4-4-4-0-|-(0)---0-0-0---0----0-0-0---|
D|---6-6---6-6-----------------0-|-(0)---0-0-0---0----0-0-0---|
 |                                                            |
 |Guitar 2                                 ~~~~         ~~~~  |
e|-------------------------------|----------------------------|
B|-------------------------------|----------------------------|
G|-------------6---6-6-6-6-6-6-6-|-(6)-7/9-9---6---7/11-9---6-|
D|---6-6---6-6-6---x-x-x-x-x-x-x-|-----x/x-x---x---x/-x-x---x-|
A|---6-6---6-6-4---4-4-4-4-4-4-4-|-(4)-5/7-7---4---5/-9-7---4-|
D|---6-6---6-6-------------------|----------------------------|

Guitar 1
e|----------------------------|
B|--3----3-3-3----------------|
G|--2----2-2-2----------------|
D|--0----0-0-0----------------|
A|--0----0-0-0----------------|
D|--0----0-0-0----------------|
 |                            |
 |Guitar 2  ~~~~              |
e|----------------------------|
B|----------------7-7---7-7---|
G|-(6)-7/9-9------0-0---0-0---|
D|-----x/x-x------9-9---9-9---|
A|-(4)-5/7-7------------------|
D|----------------------------|

Chorus
Guitar 1
e|---------------------------------------------|-------------------------------|
B|---------------------------------------------|-------------------------------|
G|-11-11-11-11-11-11-11-11-11\7--7--7--7-7-7-7-|-4-4-4-4-4-4-4-4-4-4-4-4-4-4-4-|
D|--9--9--9--9--9--9--9--9--9\5--5--5--5-5-5-5-|-2-2-2-2-2-2-2-2-2-2-2-2-2-2-2-|
A|--9--9--9--9--9--9--9--9--9\5--5--5--5-5-5-5-|-2-2-2-2-2-2-2-2-2-2-2-2-2-2-2-|
D|--9--9--9--9--9--9--9--9--9\5--5--5--5-5-5-5-|-2-2-2-2-2-2-2-2-2-2-2-2-2-2-2-|
 |Guitar 2                                                                     |
e|---------------------------------------------|-------------------------------|
B|---------------------------------------------|-------------------------------|
G|-11-11-11-11-11-11-11-\9-9/11-11-11-11\7-7\--|-4-4-4-4-4-4-4-4-4-4-4-4-4-4-4-|
D|--x--x--x--x--x--x--x-\x-x/-x--x--x--x\x-x\--|-x-x-x-x-x-x-x-x-x-x-x-x-x-x-x-|
A|--9--9--9--9--9--9--9-\7-7/-9--9--9--9\5-5\--|-2-2-2-2-2-2-2-2-2-2-2-2-2-2-2-|
D|---------------------------------------------|-------------------------------|

Guitar 1
e|---------------------------------------------|-------------------------------|
B|---------------------------------------------|-------------------------------|
G|-11-11-11-11-11-11-11-11-11\7--7--7--7-7-7-7-|-4-4-4-4-4-4-4-4-4-4-4-4-4-4-4-|
D|--9--9--9--9--9--9--9--9--9\5--5--5--5-5-5-5-|-2-2-2-2-2-2-2-2-2-2-2-2-2-2-2-|
A|--9--9--9--9--9--9--9--9--9\5--5--5--5-5-5-5-|-2-2-2-2-2-2-2-2-2-2-2-2-2-2-2-|
D|--9--9--9--9--9--9--9--9--9\5--5--5--5-5-5-5-|-2-2-2-2-2-2-2-2-2-2-2-2-2-2-2-|
 |Guitar 2                                                                     |
e|---------------------------------------------|-------------------------------|
B|---------------------------------------------|-------------------------------|
G|-11-11-11-11-11-11-11-\9-9/11-11-11-11\7-7\--|-4-4-4-4-4-4-4-4-4h^---4-4-4-4-|
D|--x--x--x--x--x--x--x-\x-x/-x--x--x--x\x-x\--|-x-x-x-x-x-x-x-x-x-----x-x-x-x-|
A|--9--9--9--9--9--9--9-\7-7/-9--9--9--9\5-5\--|-2-2-2-2-2-2-2-2-2h^---2-2-2-2-|
D|---------------------------------------------|-------------------------------|

Guitar 1
e|-------------------------------------------------|---------------------------------|
B|-------------------------------------------------|---------------------------------|
G|-11-11-11-11-11-11-11-11-11\-9--9--9--9--9--9--9-|-4-4-4-4-4-4-4-4-4-4-4-4-4-4-4---|
D|--9--9--9--9--9--9--9--9--9\10-10-10-10-10-10-10-|-2-2-2-2-2-2-2-2-2-2-2-2-2-2-2---|
A|--9--9--9--9--9--9--9--9--9\-7--7--7--7--7--7--7-|-2-2-2-2-2-2-2-2-2-2-2-2-2-2-2---|
D|--9--9--9--9--9--9--9--9--9\-7--7--7--7--7--7--7-|-2-2-2-2-2-2-2-2-2-2-2-2-2-2-2---|
 |Guitar 2                                                                           |
e|-------------------------------------------------|---------------------------------|
B|-------------------------------------------------|---------------------------------|
G|--4--4--4--4--4--4--4--4--5--5--5--5--5--5--5--5-|-4-4-4-4-4-4-4-4-4-4-4-4-4-4-4-4-|
D|--x--x--x--x--x--x--x--x--x--x--x--x--x--x--x--x-|-x-x-x-x-x-x-x-x-x-x-x-x-x-x-x-x-|
A|--2--2--2--2--2--2--2--2--3--3--3--3--3--3--3--3-|-2-2-2-2-2-2-2-2-2-2-2-2-2-2-2-2-|
D|-------------------------------------------------|---------------------------------|

Guitar 1
e|-------------------------------------------------|---------------------------------|
B|-------------------------------------------------|---------------------------------|
G|-11-11-11-11-11-11-11-11-11\-9--9--9--9--9--9--9-|-4-4-4-4-4-4-4-4-4---4-4-4-4-4-4-|
D|--9--9--9--9--9--9--9--9--9\10-10-10-10-10-10-10-|-2-2-2-2-2-2-2-2-2---2-2-2-2-2-2-|
A|--9--9--9--9--9--9--9--9--9\-7--7--7--7--7--7--7-|-2-2-2-2-2-2-2-2-2---2-2-2-2-2-2-|
D|--9--9--9--9--9--9--9--9--9\-7--7--7--7--7--7--7-|-2-2-2-2-2-2-2-2-2---2-2-2-2-2-2-|
 |Guitar 2                                                                           |
e|-------------------------------------------------|---------------------------------|
B|-------------------------------------------------|---------------------------------|
G|--4--4--4--4--4--4--4--4--5--5--5--9-----7--5-/7-|-4-4-4-4-4-4-4-4-4---4-4-4-4-4-4-|
D|--x--x--x--x--x--x--x--x--x--x--x--x-----x--x-/x-|-x-x-x-x-x-x-x-x-x---x-x-x-x-x-x-|
A|--2--2--2--2--2--2--2--2--3--3--3--7-----5--3-/5-|-2-2-2-2-2-2-2-2-2---2-2-2-2-2-2-|
D|-------------------------------------------------|---------------------------------|

Bridge
Guitar 1
e|------------------------------|------------------------------|
B|------------------------------|------------------------------|
G|-5----------------------------|-------------4---4-4-4-4-4----|
D|----------------5-------------|-9--------12-2---2-2-2-2-2----|
A|------------------------------|----------12-2---2-2-2-2-2----|
D|------------------------------|-------------2---2-2-2-2-2----|
 | NH-----------------------------|                            |
 |Guitar 2                                                     |
e|------------------------------|--------------------------------|
B|------------------------------|--------------------------------|
G|-5--------------7-------------|-7------------------------------|
D|----------------7-------------|----------12-2---2-2-2-2-2------|
A|------------------------------|----------12-2---2-2-2-2-2------|
D|------------------------------|-------------2---2-2-2-2-2------|
   NH------------------------------------------------------------|

Guitar 1
e|------------------------------|------------------------------|
B|----------------5-------------|-7----------------------------|
G|-5----------------------------|-------------4---4-4-4-4-4----|
D|------------------------------|----------12-2---2-2-2-2-2----|
A|------------------------------|----------12-2---2-2-2-2-2----|
D|------------------------------|-------------2---2-2-2-2-2----|
 | NH-----------------------------|                            |
 |Guitar 2                                                     |
e|------------------------------|--------------------------------|
B|------------------------------|--------------------------------|
G|-5--------------7-------------|-7------------------------------|
D|----------------5-------------|----------12-2---2-2-2-2-2------|
A|------------------------------|----------12-2---2-2-2-2-2------|
D|------------------------------|-------------2---2-2-2-2-2------|
   NH------------------------------------------------------------|

Guitar 1
e|------------------------------|------------------------------|
B|------------------------------|------------------------------|
G|-5----------------------------|-------------4---4-4-4-4-4----|
D|------------------------------|-9-----------2---2-2-2-2-2----|
A|----------------5-------------|-------------2---2-2-2-2-2----|
D|------------------------------|-------------2---2-2-2-2-2----|
 | NH-----------------------------|                            |
 |Guitar 2                                                     |
e|------------------------------|--------------------------------|
B|-5----------------------------|--------------------------------|
G|-5--------------7-------------|-7------------------------------|
D|-5--------------5-------------|-------------2---2-2-2-2-2------|
A|------------------------------|-------------2---2-2-2-2-2------|
D|------------------------------|-------------2---2-2-2-2-2------|
   NH------------------------------------------------------------|

Guitar 1
e|------------------------------|------------------------------|
B|----------------5-------------|------------------------------|
G|-5----------------------------|-------------4---4-4-4-4-4----|
D|------------------------------|-9-----------2---2-2-2-2-2----|
A|------------------------------|-------------2---2-2-2-2-2----|
D|------------------------------|-------------2---2-2-2-2-2----|
 | NH-----------------------------|                            |
 |Guitar 2                                                     |
e|------------------------------|--------------------------------|
B|------------------------------|--------------------------------|
G|-5----------------------------|--------------------------------|
D|-5----------------------------|-5-----------2---2-2-2-2-0------|
A|----------------5-------------|-------------2---2-2-2-2-0------|
D|------------------------------|-------------2---2-2-2-2-0------|
   NH------------------------------------------------------------|

Breakdown
Guitar 1
e|---------------------------------|
B|---------------------------------|
G|-4-4-4-4-4-4-4-4-4-4-4-4-4-4-4-4-|
D|-2-2-2-2-2-2-2-2-2-2-2-2-2-2-2-2-|
A|-2-2-2-2-2-2-2-2-2-2-2-2-2-2-2-2-|
D|-2-2-2-2-2-2-2-2-2-2-2-2-2-2-2-2-|
 |                                 |
 |Guitar 2                         |
e|---------------------------------|
B|---------------------------------|
G|---------------------------------|
D|-2-------------------------------|
A|-2-------------------------------|
D|-2-------------------------------|

Guitar 1
e|-------------------------------------------|-------------------------------------------|
B|-------------------------------------------|-------------------------------------------|
G|-4--4--4--4--4--4-4-4-4--4--4--4--4--4-4-4-|-4--4--4--4--4--4-4-4-4--4--4--4--4--4-4-4-|
D|-2--2--2--2--2--2-2-2-2--2--2--2--2--2-2-2-|-2--2--2--2--2--2-2-2-2--2--2--2--2--2-2-2-|
A|-2--2--2--2--2--2-2-2-2--2--2--2--2--2-2-2-|-2--2--2--2--2--2-2-2-2--2--2--2--2--2-2-2-|
D|-2--2--2--2--2--2-2-2-2--2--2--2--2--2-2-2-|-2--2--2--2--2--2-2-2-2--2--2--2--2--2-2-2-|
 |                                                                                       |
 |Guitar 2                                                                               |
e|-------------------------------------------|-------------------------------------------|
B|-------------------------------------------|-------------------------------------------|
G|-9/16-16-16-16-16\9-9-9-16-16-16-16-16\9-9-|-9/16-16-16-16-16\9-9-9/16-16-16-16-16\9-9-|
D|-x--x--x--x--x--x-x-x-x--x--x--x--x--x-x-x-|-x--x--x--x--x--x-x-x-x--x--x--x--x--x-x-x-|
A|-7/14-14-14-14-14\7-7-7-14-14-14-14-14\7-7-|-7/14-14-14-14-14\7-7-7/14-14-14-14-14\7-7-|
D|-------------------------------------------|-------------------------------------------|

Guitar 1
e|-------------------------------------------|------------------------------------------------|
B|-------------------------------------------|------------------------------------------------|
G|-4--4--4--4--4--4-4-4-4--4--4--4--4--4-4-4-|-4--4--4--4--4--4--4--4--4--4--4--4--4--4--4--4-|
D|-2--2--2--2--2--2-2-2-2--2--2--2--2--2-2-2-|-2--2--2--2--2--2--2--2--2--2--2--2--2--2--2--2-|
A|-2--2--2--2--2--2-2-2-2--2--2--2--2--2-2-2-|-2--2--2--2--2--2--2--2--2--2--2--2--2--2--2--2-|
D|-2--2--2--2--2--2-2-2-2--2--2--2--2--2-2-2-|-2--2--2--2--2--2--2--2--2--2--2--2--2--2--2--2-|
 |Guitar 2                                                                                    |
e|-------------------------------------------|------------------------------------------------|
B|-------------------------------------------|------------------------------------------------|
G|-9/16-16-16-16-16\9-9-9-16-16-16-16-16\9-9-|-9/16-16-16-16-16\12-12-12-12-12-11-11-11-11-11-|
D|-x--x--x--x--x--x-x-x-x--x--x--x--x--x-x-x-|-x--x--x--x--x--x--x--x--x--x--x--x--x--x--x--x-|
A|-7/14-14-14-14-14\7-7-7-14-14-14-14-14\7-7-|-7/14-14-14-14-14\10-10-10-10-10--9--9--9--9--9-|
D|-------------------------------------------|------------------------------------------------|

Guitar 1
e|-------------------17-17-14-14-14-14-14-14-14-14-|
B|-15-15-15-14-14-14--x--x--x--x--x--x--x--x--x--x-|
G|-16-16-16-16-16-16-16-16-16-16-16-16-16-16-16-16-|
D|-------------------------------------------------|
A|-------------------------------------------------|
D|-------------------------------------------------|
 |Guitar 2                                         |
e|-------------------------------------------------|
B|-------------------------------------------------|
G|--4--4--4--4--4--4--4--4--4--4--4--4--4--4--4--4-|
D|--x--x--x--x--x--x--x--x--x--x--x--x--x--x--x--x-|
A|--2--2--2--2--2--2--2--2--2--2--2--2--2--2--2--2-|
D|-------------------------------------------------|

Guitar 1
e|-------------------17-17-14-14-14-14-14-14-14-14-|
B|-15-15-15-14-14-14--x--x--x--x--x--x--x--x--x--x-|
G|-16-16-16-16-16-16-16-16-16-16-16-16-16-16-16-16-|
D|-------------------------------------------------|
A|-------------------------------------------------|
D|-------------------------------------------------|
 |Guitar 2                                         |
e|-------------------------------------------------|
B|-------------------------------------------------|
G|--4--4--4--4--4--4--4h^------------4--4-/7--7--7-|
D|--x--x--x--x--x--x--x--------------x--x-/x--x--x-|
A|--2--2--2--2--2--2--2h^------------2--2-/5--5--5-|
D|-------------------------------------------------|

Guitar 1
e|---------------------17-17-14-14-14-14-14-14-14-14-|
B|-15-15-15---14-14-14--x--x--x--x--x--x--x--x--x--x-|
G|-16-16-16---16-16-16-16-16-16-16-16-16-16-16-16-16-|
D|---------------------------------------------------|
A|---------------------------------------------------|
D|---------------------------------------------------|
 |Guitar 2                                           |
 |        let ring                                   |
e|---------------------------------------------------|
B|---------------------------------------------------|
G|--7-/9--9h^-----9--9--9--9--9--9--9--9--9--9--9/12-|
D|--x-/x--x-------x--x--x--x--x--x--x--x--x--x--x/-x-|
A|--5-/7--7-------7--7--7--7--7--7--7--7--7--7--7/10-|
D|---------------------------------------------------|

Guitar 1
e|-------------------17-17-14-----|
B|-15-----------------0--0--0-----|
G|----14-14-----------------------|
D|----14-14-16-16-16--------------|
A|--------------------------------|
D|--------------------------------|
 |Guitar 2                        |
e|--------------------------------|
B|--------------------------------|
G|-12-12-12-12-12\11-11-11-11-----|
D|--x--x--x--x--x\-x--x--x--x-----|
A|-10-10-10-10-10\-9--9--9--9-----|
D|--------------------------------|

Guitar 1
e|-------------------------------------------------|
B|-------------------------------------------------|
G|-11-11-11-11-11-11-11-11-11--7--7--7--7--7--7--7-|
D|--9--9--9--9--9--9--9--9--9--5--5--5--5--5--5--5-|
A|--9--9--9--9--9--9--9--9--9--5--5--5--5--5--5--5-|
D|--9--9--9--9--9--9--9--9--9--5--5--5--5--5--5--5-|
 |Guitar 2                                         |
e|-------------------------------------------------|
B|-------------------------------------------------|
G|-11-11-11-11-11-11-11\-9--9/11-11-11-11\-7--9----|
D|--x--x--x--x--x--x--x--x--x/-x--x--x--x--x--x----|
A|--9--9--9--9--9--9--9\-7--7/-9--9--9--9\-5--7----|
D|-------------------------------------------------|

Guitar 1
e|---------------------------------|
B|---------------------------------|
G|-4-4-4-4-4-4-4-4-4-4-4-4-4-4-4---|
D|-2-2-2-2-2-2-2-2-2-2-2-2-2-2-2---|
A|-2-2-2-2-2-2-2-2-2-2-2-2-2-2-2---|
D|-2-2-2-2-2-2-2-2-2-2-2-2-2-2-2---|
 |Guitar 2                         |
e|---------------------------------|
B|---------------------------------|
G|-4-4-4-4-4-4-4-4-4---4---4---4---|
D|-x-x-x-x-x-x-x-x-x---x---x---x---|
A|-2-2-2-2-2-2-2-2-2---2---2---2---|
D|---------------------------------|

Guitar 1
e|-------------------------------------------------|-------------------------------------|
B|-------------------------------------------------|-------------------------------------|
G|-11-11-11-11-11-11-11-11-11\-9--9--9--9--9--9--9-|-4--4--4--4--4--4--4-4-4-4-4-4-4-4-4-|
D|--9--9--9--9--9--9--9--9--9-10-10-10-10-10-10-10-|-2--2--2--2--2--2--2-2-2-2-2-2-2-2-2-|
A|--9--9--9--9--9--9--9--9--9\-7--7--7--7--7--7--7-|-2--2--2--2--2--2--2-2-2-2-2-2-2-2-2-|
D|--9--9--9--9--9--9--9--9--9\-7--7--7--7--7--7--7-|-2--2--2--2--2--2--2-2-2-2-2-2-2-2-2-|
 |Guitar 2                                                                               |
e|-------------------------------------------------|-------------------------------------|
B|-------------------------------------------------|-------------------------------------|
G|-11-11-11-11-11-11-11-\9--9--9--9--9--9--9--9/11-|11-11-11-11-11-11-11-9-9-9-9-9-9-9-9-|
D|--x--x--x--x--x--x--x-\x--x--x--x--x--x--x--x--x-|-x--x--x--x--x--x--x-x-x-x-x-x-x-x-x-|
A|--9--9--9--9--9--9--9-\7--7--7--7--7--7--7--7/-9-|-9--9--9--9--9--9--9-7-7-7-7-7-7-7-7-|
D|-------------------------------------------------|-------------------------------------|

Outro
Guitar 1
e|-----------------------|-----------------------------------|
B|-----------------------|-----------------------5-----------|
G|-4-4-4-4--5-5-------7--|----------5------------5-----------|
D|-2-2-2-2--------7------|-2-2-2-2--5---2-2-2-2--5---2-2-2-2-|
A|-2-2-2-2---------------|-2-2-2-2--5---2-2-2-2--5---2-2-2-2-|
D|-2-2-2-2---------------|-2-2-2-2------2-2-2-2------2-2-2-2-|
 |          NH--------|             NH           NH          |
 |Guitar 2                                                   |
e|-----------------------|-------------------------------------|
B|----------5-----7------|-------------------------------------|
G|--------------------7--|-------------------------------------|
D|-2-2-2-2----5----------|-2-2-2-2--5---2-2-2-2--5---2-2-2-2---|
A|-2-2-2-2---------------|-2-2-2-2--5---2-2-2-2--5---2-2-2-2---|
D|-2-2-2-2---------------|-2-2-2-2------2-2-2-2------2-2-2-2---|
            NH--------|             NH-------------------------|           NH

Guitar 1
e|-------------------------------|
B|----------------5-5-5----------|
G|----------------5-5-5----------|
D|-2-2-2-2-2-2-2--5-5-5--2-2-2---|
A|-2-2-2-2-2-2-2---------2-2-2---|
D|-2-2-2-2-2-2-2---------2-2-2---|
 |                NH--|          |
 |Guitar 2                       |
e|-------------------------------|
B|------------------5------------|
G|-4-4-4-4-4-4-4--5---5--9-9-9---|
D|-2-2-2-2-2-2-2---------x-x-x---|
A|-3-3-3-3-3-3-3---------7-7-7---|
D|-2-2-2-2-2-2-2-----------------|
                  NH--|

===============================================================================
3. Division St.

Intro
Guitar 1
e||---------------------------------|---------------------------------|
B||o--------------------------------|---------------------------------|
G||---------------------------------|---------------------------------|
D||---------------------------------|---------------------------------|
A||o--------------------------------|---------------------------------|
D||-0---0-0-0-0-0---0-0-0-0-0---0-0-|-0---0-0-0-0-0---0-0-0-0-0---0-0-|
 ||Guitar 2                                                           |
e||---------------------------------|---------------------------------|
B||o--------------------------------|---------------------------------|
G||---------------------------------|---------------------------------|
D||---------------------------------|---------------------------------|
A||o--------------------------------|---------------------------------|
D||-0-0-0-0-0-0-0-0-0---0-0-0-0-0---|-0-0-0-0-0-0-0-0-0---0-0-0-0-0---|

Guitar 1
e|---------------------------------|---------------------------------||
B|---------------------------------|--------------------------------o||
G|---------------------------------|---------------------------------||
D|---------------------------------|---------------------------------||
A|---------------------------------|--------------------------------o||
D|-0---0-0-0-0-0---0-0-0-0-0---0-0-|-0-0-0-0-0-0-0-0-0-0-0-0-0-0-0-0-||
 |Guitar 2                                                           ||
e|---------------------------------|---------------------------------||
B|---------------------------------|--------------------------------o||
G|---------------------------------|---------------------------------||
D|---------------------------------|---------------------------------||
A|---------------------------------|--------------------------------o||
D|-0-0-0-0-0-0-0-0-0---0-0-0-0-0---|-0-0-0-0-0-0-0-0-0-0-0-0-0-0-0-0-||

Verse
Guitar 1
e|-0-------------------------------|-0--------------------------------|
B|-8-------------------------------|-7--------------------------------|
G|-0-------------------------------|-0--------------------------------|
D|-0-------------------------------|-0--------------------------------|
A|---------------------------------|----------------------------------|
D|---------------------------------|----------------------------------|
 |Guitar 2                                                            |
e|---------------------------------|----------------------------------|
B|---------------------------------|----------------------------------|
G|-4---4-4-4-4-4---4-4-4-4-4---4-4-|-4---4-4-4-4-4---4-4-4-4-4---4-4--|
D|-0---0-0-0-0-0---0-0-0-0-0---0-0-|-0---0-0-0-0-0---0-0-0-0-0---0-0--|
A|-5---5-5-5-5-5---5-5-5-5-5---5-5-|-0---0-0-0-0-0---0-0-0-0-0---0-0--|
D|---------------------------------|----------------------------------|

Guitar 1
e|-0-------------------------------|-0--------------------------------|
B|-0-------------------------------|10--------------------------------|
G|-0-------------------------------|-0--------------------------------|
D|-0-------------------------------|-0--------------------------------|
A|---------------------------------|----------------------------------|
D|---------------------------------|----------------------------------|
 |Guitar 2                                                            |
e|---------------------------------|----------------------------------|
B|---------------------------------|----------------------------------|
G|-7---7-7-7-7-7---7-7-7-7-7---7-7-|----------------------------------|
D|-0---0-0-0-0-0---0-0-0-0-0---0-0-|-7---7-7-7-7-8---8-8-8-8-7---7-7--|
A|-8---8-8-8-8-8---8-8-8-8-8---8-8-|-7---7-7-7-7-7---7-7-7-7-7---7-7--|
D|---------------------------------|----------------------------------|

Guitar 1
e|-0-------------------------------|-0--------------------------------|
B|-8-------------------------------|-7--------------------------------|
G|-0-------------------------------|-0--------------------------------|
D|-0-------------------------------|-0--------------------------------|
A|---------------------------------|----------------------------------|
D|---------------------------------|----------------------------------|
 |Guitar 2                                                            |
e|---------------------------------|----------------------------------|
B|---------------------------------|----------------------------------|
G|-4---4-4-4-4-4---4-4-4-4-4---4-4-|-4---4-4-4-4-4---4-4-4-4-4---4-4--|
D|-0---0-0-0-0-0---0-0-0-0-0---0-0-|-0---0-0-0-0-0---0-0-0-0-0---0-0--|
A|-5---5-5-5-5-5---5-5-5-5-5---5-5-|-0---0-0-0-0-0---0-0-0-0-0---0-0--|
D|---------------------------------|----------------------------------|

Guitar 1
e|-0-------------------------------|-0----------------------|
B|-0-------------------------------|10----------------------|
G|-0-------------------------------|-0----------------------|
D|-0-------------------------------|-0----------------------|
A|---------------------------------|------------------------|
D|---------------------------------|------------------------|
 |Guitar 2                                                  |
e|---------------------------------|------------------------|
B|---------------------------------|------------------------|
G|-7---7-7-7-7-7---7-7-7-7-7---7-7-|------------------------|
D|-0---0-0-0-0-0---0-0-0-0-0---0-0-|-7--7--7--7--7--7--7--7-|
A|-8---8-8-8-8-8---8-8-8-8-8---8-8-|-7--7--7--7--7--7--7--7-|
D|---------------------------------|------------------------|

Guitar 1
e|-----------------|------------------------|-----------------|-----------------|
B|-----------------|------------------------|-----------------|-----------------|
G|-9---9---9---9---|------------------------|-5---5---5---5---|-----------------|
D|-0---0---0---0---|10-10-10-10-10-10-10----|-0---0---0---0---|-----------------|
A|-0---0---0---0---|-8--8--8--8--8--8--8----|-0---0---0---0---|-8-8-8-8-8-8-8---|
D|-0---0---0---0---|-8--8--8--8--8--8--8----|-0---0---0---0---|-8-8-8-8-8-8-8---|
 |Guitar 2                                                                      |
 |let ring--------------------------------------------------------------------| |
e|-----------------|------------------------|-----------------|-----------------|
B|---0---0---0---0-|----0-----0-----0-----0-|---0---0---0---0-|---0---0---0---0-|
G|-9---9---9---9---|-7-----7-----7-----7----|-5---5---5---5---|-4---4---4---4---|
D|-----------------|------------------------|-----------------|-----------------|
A|-----------------|------------------------|-----------------|-----------------|
D|-----------------|------------------------|-----------------|-----------------|

Guitar 1
e|-----------------|------------------------|-----------------|-----------------|
B|-----------------|------------------------|-----------------|-----------------|
G|-9---9---9---9---|------------------------|-5---5---5---5---|-----------------|
D|-0---0---0---0---|10-10-10-10-10-10-10-10-|-0---0---0---0---|-----------------|
A|-0---0---0---0---|-8--8--8--8--8--8--8--8-|-0---0---0---0---|-8-8-8-8-8-------|
D|-0---0---0---0---|-8--8--8--8--8--8--8--8-|-0---0---0---0---|-8-8-8-8-8-1/----|
 |Guitar 2                                                                      |
 |let ring--------------------------------------------------------------------| |
e|-----------------|------------------------|-----------------|-----------------|
B|---0---0---0---0-|----0-----0-----0-----0-|---0---0---0---0-|---0---0---0-----|
G|-9---9---9---9---|-7-----7-----7-----7----|-5---5---5---5---|-4---4---4---2-0-|
D|-----------------|------------------------|-----------------|-----------------|
A|-----------------|------------------------|-----------------|-----------------|
D|-----------------|------------------------|-----------------|-----------------|

Pre-Chorus
Guitar 1
e|------------------|-----------------|-----------------|-----------------|
B|------------------|-----------------|-----------------|-----7---7h^r7---|
G|------------------|-----------------|-----------------|-----------------|
D|10----10-10-10--0-|-(0)-------------|-7-7-7-7-7-7-8---|-(8)-------------|
A|-8-----8--8--8--0-|-(0)-------------|-7-7-7-7-7-7-8---|-(8)-------------|
D|-8-----8--8--8--0-|-(0)-------------|-7-7-7-7-7-7-8---|-(8)-------------|
 |Guitar 2                                                                |
e|------------------|-----------------|-----------------|-----------------|
B|------------------|-----------------|-----------------|-----------------|
G|-7-7-7-7--7-----7-|-(7)-------------|-7-7-7-7-7-7-----|-----------------|
D|-8-8-8-8--8-----0-|-(0)-------------|-7-7-7-7-7-7-8---|-(8)-------------|
A|-8-8-8-8--8-----0-|-(0)-------------|-7-7-7-7-7-7-8---|-(8)-------------|
D|-8-8-8-8--8-----0-|-(0)-------------|-7-7-7-7-7-7-8---|-(8)-------------|

Guitar 1
e|------------------|-----------------|-----------------|-----------------|
B|------------------|-----------------|-----------------|-----7---7h^r7---|
G|------------------|-----------------|-----------------|-----------------|
D|10----10-10-10--0-|-(0)-------------|-7-7-7-7-7-7-8---|-(8)-------------|
A|-8-----8--8--8--0-|-(0)-------------|-7-7-7-7-7-7-8---|-(8)-------------|
D|-8-----8--8--8--0-|-(0)-------------|-7-7-7-7-7-7-8---|-(8)-------------|
 |Guitar 2                                                                |
e|------------------|-----------------|-----------------|-----------------|
B|------------------|-----------------|-----------------|-----------------|
G|-7-7-7-7--7--7--7-|-(7)-------------|-7-7-7-7-7-7-----|-----------------|
D|-8-8-8-8--8--8--0-|-(0)-------------|-7-7-7-7-7-7-8---|-(8)-------------|
A|-8-8-8-8--8--8--0-|-(0)-------------|-7-7-7-7-7-7-8---|-(8)-------------|
D|-8-8-8-8--8--8--0-|-(0)-------------|-7-7-7-7-7-7-8---|-(8)-------------|

Chorus
Guitar 1
e|------------------|-----------------|-----------------|-----------------|
B|------------------|-----------------|-----------------|-----------------|
G|-7-7---7---7---7--|---7-----7-7-7-7-|-7-7---7---7---7-|---7-----7-7-7-7-|
D|-8-8---0---8---0--|---8---0-7-7-7-7-|-8-8---0---8---0-|---8---0-7-7-7-7-|
A|-8-8---0---8---0--|---8---0-7-7-7-7-|-8-8---0---8---0-|---8---0-7-7-7-7-|
D|-8-8---0---8---0--|---8---0-7-7-7-7-|-8-8---0---8---0-|---8---0-7-7-7-7-|
 |Guitar 2                                                                |
e|------------------|-----------------|-----------------|-----------------|
B|------------------|-----------------|-----------------|-----------------|
G|------------------|-----------------|-----------------|-----------------|
D|-8-8---0---8---0--|---8---0-7-7-7-7-|-8-8---0---8---0-|---8---0-7-7-7-7-|
A|-8-8---0---8---0--|---8---0-7-7-7-7-|-8-8---0---8---0-|---8---0-7-7-7-7-|
D|-8-8---0---8---0--|---8---0-7-7-7-7-|-8-8---0---8---0-|---8---0-7-7-7-7-|

Guitar 1
e|------------------|-----------------|-----------------|-----------------|
B|------------------|-----------------|-----------------|-----------------|
G|-7-7---7---7---7--|---7-----7-7-7-7-|-7-7-7-7---7-7-7-|(7)7-7---7-7-7-7-|
D|-8-8---0---8---0--|---8---0-7-7-7-7-|-8-8-8-0---8-8-0-|(8)8-8-0-7-7-7-7-|
A|-8-8---0---8---0--|---8---0-7-7-7-7-|-8-8-8-0---8-8-0-|(8)8-8-0-7-7-7-7-|
D|-8-8---0---8---0--|---8---0-7-7-7-7-|-8-8-8-0---8-8-0-|(8)8-8-0-7-7-7-7-|
 |Guitar 2                                                                |
e|------------------|-----------------|-----------------|-----------------|
B|------------------|-----------------|-----------------|-----------------|
G|------------------|-----------------|-----------------|-----------------|
D|-8-8---0---8---0--|---8---0-7-7-7-7-|-8-8-8-0---8-8-0-|(8)8-8-0-7-7-7-7-|
A|-8-8---0---8---0--|---8---0-7-7-7-7-|-8-8-8-0---8-8-0-|(8)8-8-0-7-7-7-7-|
D|-8-8---0---8---0--|---8---0-7-7-7-7-|-8-8-8-0---8-8-0-|(8)8-8-0-7-7-7-7-|

Verse
Guitar 1
e|-0-------------------------------|-0--------------------------------|
B|-8-------------------------------|-7--------------------------------|
G|-0-------------------------------|-0--------------------------------|
D|-0-------------------------------|-0--------------------------------|
A|---------------------------------|----------------------------------|
D|---------------------------------|----------------------------------|
 |Guitar 2                                                            |
e|---------------------------------|----------------------------------|
B|---------------------------------|----------------------------------|
G|-4---4-4-4-4-4---4-4-4-4-4---4-4-|-4---4-4-4-4-4---4-4-4-4-4---4-4--|
D|-0---0-0-0-0-0---0-0-0-0-0---0-0-|-0---0-0-0-0-0---0-0-0-0-0---0-0--|
A|-5---5-5-5-5-5---5-5-5-5-5---5-5-|-0---0-0-0-0-0---0-0-0-0-0---0-0--|
D|---------------------------------|----------------------------------|

Guitar 1
e|-0-------------------------------|-0--------------------------------|
B|-0-------------------------------|10--------------------------------|
G|-0-------------------------------|-0--------------------------------|
D|-0-------------------------------|-0--------------------------------|
A|---------------------------------|----------------------------------|
D|---------------------------------|----------------------------------|
 |Guitar 2                                                            |
e|---------------------------------|----------------------------------|
B|---------------------------------|----------------------------------|
G|-7---7-7-7-7-7---7-7-7-7-7---7-7-|----------------------------------|
D|-0---0-0-0-0-0---0-0-0-0-0---0-0-|-7---7-7-7-7-8---8-8-8-8-7---7-7--|
A|-8---8-8-8-8-8---8-8-8-8-8---8-8-|-7---7-7-7-7-7---7-7-7-7-7---7-7--|
D|---------------------------------|----------------------------------|

Guitar 1
e|-0-------------------------------|-0--------------------------------|
B|-8-------------------------------|-7--------------------------------|
G|-0-------------------------------|-0--------------------------------|
D|-0-------------------------------|-0--------------------------------|
A|---------------------------------|----------------------------------|
D|---------------------------------|----------------------------------|
 |Guitar 2                                                            |
e|---------------------------------|----------------------------------|
B|---------------------------------|----------------------------------|
G|-4---4-4-4-4-4---4-4-4-4-4---4-4-|-4---4-4-4-4-4---4-4-4-4-4---4-4--|
D|-0---0-0-0-0-0---0-0-0-0-0---0-0-|-0---0-0-0-0-0---0-0-0-0-0---0-0--|
A|-5---5-5-5-5-5---5-5-5-5-5---5-5-|-0---0-0-0-0-0---0-0-0-0-0---0-0--|
D|---------------------------------|----------------------------------|

Guitar 1
e|-0-------------------------------|-0----------------------|
B|-0-------------------------------|10----------------------|
G|-0-------------------------------|-0----------------------|
D|-0-------------------------------|-0----------------------|
A|---------------------------------|------------------------|
D|---------------------------------|------------------------|
 |Guitar 2                                                  |
e|---------------------------------|------------------------|
B|---------------------------------|------------------------|
G|-7---7-7-7-7-7---7-7-7-7-7---7-7-|------------------------|
D|-0---0-0-0-0-0---0-0-0-0-0---0-0-|-7--7--7--7--7--7--7--7-|
A|-8---8-8-8-8-8---8-8-8-8-8---8-8-|-7--7--7--7--7--7--7--7-|
D|---------------------------------|------------------------|

Guitars 1,2
e|---------------------------------|-----------------------------------|
B|-5-5-5-5-5-5-5-5-5-5-5-5-5-5/7-7-|-7-7-7-7-7-7-7-7-7-7-7-7-7-7/10-10-|
G|-x-x-x-x-x-x-x-x-x-x-x-x-x-x-x-x-|-x-x-x-x-x-x-x-x-x-x-x-x-x-x--x--x-|
D|-x-x-x-x-x-x-x-x-x-x-x-x-x-x-x-x-|-x-x-x-x-x-x-x-x-x-x-x-x-x-x--x--x-|
A|-5-5-5-5-5-5-5-5-5-5-5-5-5-5/7-7-|-7-7-7-7-7-7-7-7-7-7-7-7-7-7/10-10-|
D|---------------------------------|-----------------------------------|

Guitar 1
e|----------------------------------------------|-----------------------------------|
B|10-10-10-10-10-10-10-10-10-10-10-10-10-10\8-8-|-8-8-8-8-8-8-8-8-8-8-7-7-7-7--5--5-|
G|-x--x--x--x--x--x--x--x--x--x--x--x--x--x-x-x-|-x-x-x-x-x-x-x-x-x-x-x-x-x-x--x--x-|
D|-x--x--x--x--x--x--x--x--x--x--x--x--x--x-x-x-|-x-x-x-x-x-x-x-x-x-x-x-x-x-x--x--x-|
A|10-10-10-10-10-10-10-10-10-10-10-10-10-10\8-8-|-8-8-8-8-8-8-8-8-8-8-7-7-7-7--5--5-|
D|----------------------------------------------|-----------------------------------|
 |Guitar 2                                                                          |
e|----------------------------------------------|-----------------------------------|
B|-5--5--5--5--5--5--5--5--5--5--5--5--5--5-7-7-|-7-7-7-7-7-7-7-7-7-7-7-7-7-7/10-10-|
G|-x--x--x--x--x--x--x--x--x--x--x--x--x--x-x-x-|-x-x-x-x-x-x-x-x-x-x-x-x-x-x--x--x-|
D|-x--x--x--x--x--x--x--x--x--x--x--x--x--x-x-x-|-x-x-x-x-x-x-x-x-x-x-x-x-x-x--x--x-|
A|-5--5--5--5--5--5--5--5--5--5--5--5--5--5-7-7-|-7-7-7-7-7-7-7-7-7-7-7-7-7-7/10-10-|
D|----------------------------------------------|-----------------------------------|

Guitar 1
e|------------------------------------------------|
B|10-10-10-10-10-10-10-10-10-10-10-10-10-10/12-12-|
G|-x--x--x--x--x--x--x--x--x--x--x--x--x--x--x--x-|
D|-x--x--x--x--x--x--x--x--x--x--x--x--x--x--x--x-|
A|10-10-10-10-10-10-10-10-10-10-10-10-10-10/12-12-|
D|------------------------------------------------|
 |Guitar 2                                        |
e|------------------------------------------------|
B|10-10-10-10-10-10-10-10-10-10-10-10-10-10\-8--8-|
G|-x--x--x--x--x--x--x--x--x--x--x--x--x--x--x--x-|
D|-x--x--x--x--x--x--x--x--x--x--x--x--x--x--x--x-|
A|10-10-10-10-10-10-10-10-10-10-10-10-10-10\-8--8-|
D|------------------------------------------------|

Guitar 1
e|------------------------------------------------|
B|-8--8--8--8--8--8--8--8--8--8--7--7--7--7\-5--5-|
G|-x--x--x--x--x--x--x--x--x--x--x--x--x--x--x--x-|
D|-x--x--x--x--x--x--x--x--x--x--x--x--x--x--x--x-|
A|-8--8--8--8--8--8--8--8--8--8--7--7--7--7\-5--5-|
D|------------------------------------------------|
 |Guitar 2                                        |
e|------------------------------------------------|
B|12-12-12-12-12-12-12-12-12-12-12-12-12-12/17-17-|
G|-x--x--x--x--x--x--x--x--x--x--x--x--x--x--x--x-|
D|-x--x--x--x--x--x--x--x--x--x--x--x--x--x--x--x-|
A|12-12-12-12-12-12-12-12-12-12-12-12-12-12/17-17-|
D|------------------------------------------------|

Guitar 1
e|------------------------------------------------|
B|17-17-17-17-17-17-17-17-17-17-17-17-17-17/19-19-|
G|-x--x--x--x--x--x--x--x--x--x--x--x--x--x--x--x-|
D|-x--x--x--x--x--x--x--x--x--x--x--x--x--x--x--x-|
A|17-17-17-17-17-17-17-17-17-17-17-17-17-17/19-19-|
D|------------------------------------------------|
 |Guitar 2                                        |
e|------------------------------------------------|
B|-5--5--5--5--5--5--5--5--5--5--5--5--5--5--7--7-|
G|-x--x--x--x--x--x--x--x--x--x--x--x--x--x--x--x-|
D|-x--x--x--x--x--x--x--x--x--x--x--x--x--x--x--x-|
A|-5--5--5--5--5--5--5--5--5--5--5--5--5--5--7--7-|
D|------------------------------------------------|

Guitar 1
e|------------------------------------------------|
B|19-19-19-19-19-19-19-19-19-19-19-19-19-19/22-22-|
G|-x--x--x--x--x--x--x--x--x--x--x--x--x--x--x--x-|
D|-x--x--x--x--x--x--x--x--x--x--x--x--x--x--x--x-|
A|19-19-19-19-19-19-19-19-19-19-19-19-19-19/22-22-|
D|------------------------------------------------|
 |Guitar 2                                        |
e|------------------------------------------------|
B|-7--7--7--7--7--7--7--7--7--7--7--7--7--7/10-10-|
G|-x--x--x--x--x--x--x--x--x--x--x--x--x--x--x--x-|
D|-x--x--x--x--x--x--x--x--x--x--x--x--x--x--x--x-|
A|-7--7--7--7--7--7--7--7--7--7--7--7--7--7/10-10-|
D|------------------------------------------------|

Guitar 1
e|------------------------------------------------|
B|22-22-22-22-22-22-22-22-22-22-22-22-22-22/15-15-|
G|-x--x--x--x--x--x--x--x--x--x--x--x--x--x--x--x-|
D|-x--x--x--x--x--x--x--x--x--x--x--x--x--x--x--x-|
A|22-22-22-22-22-22-22-22-22-22-22-22-22-22/15-15-|
D|------------------------------------------------|
 |Guitar 2                                        |
e|------------------------------------------------|
B|10-10-10-10-10-10-10-10-10-10-10-10-10-10\-8--8-|
G|-x--x--x--x--x--x--x--x--x--x--x--x--x--x--x--x-|
D|-x--x--x--x--x--x--x--x--x--x--x--x--x--x--x--x-|
A|10-10-10-10-10-10-10-10-10-10-10-10-10-10\-8--8-|
D|------------------------------------------------|

Guitar 1
e|------------------------------------------------|
B|15-15-15-15-15-15-15-15-15-15-15-15-15-15/17-17-|
G|-x--x--x--x--x--x--x--x--x--x--x--x--x--x--x--x-|
D|-x--x--x--x--x--x--x--x--x--x--x--x--x--x--x--x-|
A|15-15-15-15-15-15-15-15-15-15-15-15-15-15/17-17-|
D|------------------------------------------------|
 |Guitar 2                                        |
e|------------------------------------------------|
B|-8--8--8--8--8--8--8--8--8--8--7--7--7--7\-5--5-|
G|-x--x--x--x--x--x--x--x--x--x--x--x--x--x--x--x-|
D|-x--x--x--x--x--x--x--x--x--x--x--x--x--x--x--x-|
A|-8--8--8--8--8--8--8--8--8--8--7--7--7--7\-5--5-|
D|------------------------------------------------|

Guitar 1
e|------------------------------------------------|
B|17-17-17-17-17-17-17-17-17-17-17-17-17-17/19-19-|
G|-x--x--x--x--x--x--x--x--x--x--x--x--x--x--x--x-|
D|-x--x--x--x--x--x--x--x--x--x--x--x--x--x--x--x-|
A|17-17-17-17-17-17-17-17-17-17-17-17-17-17/19-19-|
D|------------------------------------------------|
 |Guitar 2                                        |
e|------------------------------------------------|
B|-5--5--5--5--5--5--5--5--5--5--5--5--5--5/-7--7-|
G|-x--x--x--x--x--x--x--x--x--x--x--x--x--x--x--x-|
D|-x--x--x--x--x--x--x--x--x--x--x--x--x--x--x--x-|
A|-5--5--5--5--5--5--5--5--5--5--5--5--5--5/-7--7-|
D|------------------------------------------------|

Guitar 1
e|------------------------------------------------|
B|19-19-19-19-19-19-19-19-19-19-19-19-19-19/22-22-|
G|-x--x--x--x--x--x--x--x--x--x--x--x--x--x--x--x-|
D|-x--x--x--x--x--x--x--x--x--x--x--x--x--x--x--x-|
A|19-19-19-19-19-19-19-19-19-19-19-19-19-19/22-22-|
D|------------------------------------------------|
 |Guitar 2                                        |
e|------------------------------------------------|
B|-7--7--7--7--7--7--7--7--7--7--7--7--7--7/10-10-|
G|-x--x--x--x--x--x--x--x--x--x--x--x--x--x--x--x-|
D|-x--x--x--x--x--x--x--x--x--x--x--x--x--x--x--x-|
A|-7--7--7--7--7--7--7--7--7--7--7--7--7--7/10-10-|
D|------------------------------------------------|

Guitar 1
e|------------------------------------------------|
B|22-22-22-22-22-22-22-22-22-22-22-22-22-22/15-15-|
G|-x--x--x--x--x--x--x--x--x--x--x--x--x--x--x--x-|
D|-x--x--x--x--x--x--x--x--x--x--x--x--x--x--x--x-|
A|22-22-22-22-22-22-22-22-22-22-22-22-22-22/15-15-|
D|------------------------------------------------|
 |Guitar 2                                        |
e|------------------------------------------------|
B|10-10-10-10-10-10-10-10-10-10-10-10-10-10\-8--8-|
G|-x--x--x--x--x--x--x--x--x--x--x--x--x--x--x--x-|
D|-x--x--x--x--x--x--x--x--x--x--x--x--x--x--x--x-|
A|10-10-10-10-10-10-10-10-10-10-10-10-10-10\-8--8-|
D|------------------------------------------------|

Guitar 1
e|------------------------------------------------|
B|15-15-15-15-15-15-15-15-15\---------12----------|
G|-x--x--x--x--x--x--x--x--x-----------x----------|
D|-x--x--x--x--x--x--x--x--x-----------x----------|
A|15-15-15-15-15-15-15-15-15\---------12-----x----|
D|-------------------------------------0-----0----|
 |Guitar 2                                        |
e|------------------------------------------------|
B|-8--8--8--8--8--8--8--8--8--8--7--7--7--7\-5--5-|
G|-x--x--x--x--x--x--x--x--x--x--x--x--x--x--x--x-|
D|-x--x--x--x--x--x--x--x--x--x--x--x--x--x--x--x-|
A|-8--8--8--8--8--8--8--8--8--8--7--7--7--7\-5--5-|
D|------------------------------------------------|

Guitar 1
e|-----------------|------------------------|-----------------|-----------------|
B|-----------------|------------------------|-----------------|-----------------|
G|-9---9---9---9---|------------------------|-5---5---5---5---|-----------------|
D|-0---0---0---0---|10-10-10-10-10-10-10----|-0---0---0---0---|-----------------|
A|-0---0---0---0---|-8--8--8--8--8--8--8----|-0---0---0---0---|-8-8-8-8-8-8-8---|
D|-0---0---0---0---|-8--8--8--8--8--8--8----|-0---0---0---0---|-8-8-8-8-8-8-8---|
 |Guitar 2                                                                      |
 |let ring--------------------------------------------------------------------| |
e|-----------------|------------------------|-----------------|-----------------|
B|---0---0---0---0-|----0-----0-----0-----0-|---0---0---0---0-|---0---0---0---0-|
G|-9---9---9---9---|-7-----7-----7-----7----|-5---5---5---5---|-4---4---4---4---|
D|-----------------|------------------------|-----------------|-----------------|
A|-----------------|------------------------|-----------------|-----------------|
D|-----------------|------------------------|-----------------|-----------------|

Guitar 1
e|-----------------|------------------------|-----------------|-----------------|
B|-----------------|------------------------|-----------------|-----------------|
G|-9---9---9---9---|------------------------|-5---5---5---5---|-----------------|
D|-0---0---0---0---|10-10-10-10-10-10-10-10-|-0---0---0---0---|-----------------|
A|-0---0---0---0---|-8--8--8--8--8--8--8--8-|-0---0---0---0---|-8-8-8-8-8-------|
D|-0---0---0---0---|-8--8--8--8--8--8--8--8-|-0---0---0---0---|-8-8-8-8-8-1/----|
 |Guitar 2                                                                      |
 |let ring--------------------------------------------------------------------| |
e|-----------------|------------------------|-----------------|-----------------|
B|---0---0---0---0-|----0-----0-----0-----0-|---0---0---0---0-|---0---0---0-----|
G|-9---9---9---9---|-7-----7-----7-----7----|-5---5---5---5---|-4---4---4---2-0-|
D|-----------------|------------------------|-----------------|-----------------|
A|-----------------|------------------------|-----------------|-----------------|
D|-----------------|------------------------|-----------------|-----------------|

Pre-Chorus
Guitar 1
e|------------------|-----------------|-----------------|-----------------|
B|------------------|-----------------|-----------------|-----7---7h^r7---|
G|------------------|-----------------|-----------------|-----------------|
D|10----10-10-10--0-|-(0)-------------|-7-7-7-7-7-7-8---|-(8)-------------|
A|-8-----8--8--8--0-|-(0)-------------|-7-7-7-7-7-7-8---|-(8)-------------|
D|-8-----8--8--8--0-|-(0)-------------|-7-7-7-7-7-7-8---|-(8)-------------|
 |Guitar 2                                                                |
e|------------------|-----------------|-----------------|-----------------|
B|------------------|-----------------|-----------------|-----------------|
G|-7-7-7-7--7-----7-|-(7)-------------|-7-7-7-7-7-7-----|-----------------|
D|-8-8-8-8--8-----0-|-(0)-------------|-7-7-7-7-7-7-8---|-(8)-------------|
A|-8-8-8-8--8-----0-|-(0)-------------|-7-7-7-7-7-7-8---|-(8)-------------|
D|-8-8-8-8--8-----0-|-(0)-------------|-7-7-7-7-7-7-8---|-(8)-------------|

Guitar 1
e|------------------|-----------------|-----------------|-----------------|
B|------------------|-----------------|-----------------|-----7---7h^r7---|
G|------------------|-----------------|-----------------|-----------------|
D|10----10-10-10--0-|-(0)-------------|-7-7-7-7-7-7-8---|-(8)-------------|
A|-8-----8--8--8--0-|-(0)-------------|-7-7-7-7-7-7-8---|-(8)-------------|
D|-8-----8--8--8--0-|-(0)-------------|-7-7-7-7-7-7-8---|-(8)-------------|
 |Guitar 2                                                                |
e|------------------|-----------------|-----------------|-----------------|
B|------------------|-----------------|-----------------|-----------------|
G|-7-7-7-7--7--7--7-|-(7)-------------|-7-7-7-7-7-7-----|-----------------|
D|-8-8-8-8--8--8--0-|-(0)-------------|-7-7-7-7-7-7-8---|-(8)-------------|
A|-8-8-8-8--8--8--0-|-(0)-------------|-7-7-7-7-7-7-8---|-(8)-------------|
D|-8-8-8-8--8--8--0-|-(0)-------------|-7-7-7-7-7-7-8---|-(8)-------------|

Chorus
Guitar 1
e|------------------|-----------------|-----------------|-----------------|
B|------------------|-----------------|-----------------|-----------------|
G|-7-7---7---7---7--|---7-----7-7-7-7-|-7-7---7---7---7-|---7-----7-7-7-7-|
D|-8-8---0---8---0--|---8---0-7-7-7-7-|-8-8---0---8---0-|---8---0-7-7-7-7-|
A|-8-8---0---8---0--|---8---0-7-7-7-7-|-8-8---0---8---0-|---8---0-7-7-7-7-|
D|-8-8---0---8---0--|---8---0-7-7-7-7-|-8-8---0---8---0-|---8---0-7-7-7-7-|
 |Guitar 2                                                                |
e|------------------|-----------------|-----------------|-----------------|
B|------------------|-----------------|-----------------|-----------------|
G|------------------|-----------------|-----------------|-----------------|
D|-8-8---0---8---0--|---8---0-7-7-7-7-|-8-8---0---8---0-|---8---0-7-7-7-7-|
A|-8-8---0---8---0--|---8---0-7-7-7-7-|-8-8---0---8---0-|---8---0-7-7-7-7-|
D|-8-8---0---8---0--|---8---0-7-7-7-7-|-8-8---0---8---0-|---8---0-7-7-7-7-|

Guitar 1
e|------------------|-----------------|-----------------|-----------------|
B|------------------|-----------------|-----------------|-----------------|
G|-7-7---7---7---7--|---7-----7-7-7-7-|-7-7-7-7---7-7-7-|(7)7-7---7-7-7-7-|
D|-8-8---0---8---0--|---8---0-7-7-7-7-|-8-8-8-0---8-8-0-|(8)8-8-0-7-7-7-7-|
A|-8-8---0---8---0--|---8---0-7-7-7-7-|-8-8-8-0---8-8-0-|(8)8-8-0-7-7-7-7-|
D|-8-8---0---8---0--|---8---0-7-7-7-7-|-8-8-8-0---8-8-0-|(8)8-8-0-7-7-7-7-|
 |Guitar 2                                                                |
e|------------------|-----------------|-----------------|-----------------|
B|------------------|-----------------|-----------------|-----------------|
G|------------------|-----------------|-----------------|-----------------|
D|-8-8---0---8---0--|---8---0-7-7-7-7-|-8-8-8-0---8-8-0-|(8)8-8-0-7-7-7-7-|
A|-8-8---0---8---0--|---8---0-7-7-7-7-|-8-8-8-0---8-8-0-|(8)8-8-0-7-7-7-7-|
D|-8-8---0---8---0--|---8---0-7-7-7-7-|-8-8-8-0---8-8-0-|(8)8-8-0-7-7-7-7-|


Guitar 1
e|-----------------|---------------------|
B|-7-7-7-7-7-7-7-7-|-7-7-7-7--7--7--7--7-|
G|-0-0-0-0-0-0-0-0-|-0-0-0-0--0--0--0--0-|
D|-x-x-x-x-x-x-x-x-|-x-x-x-x--x--x--x--x-|
A|-7-7-7-7-7-7-7-7-|-7-7-7-7--7--7--7--7-|
D|-----------------|---------------------|
 |Guitar 2                               |
e|-----------------|---------------------|
B|-----------------|---------------------|
G|-----------------|---------------------|
D|-8-8-8-0-0-8-8-0-|-0-8-8-8/10-10-10-10-|
A|-8-8-8-0-0-8-8-0-|-0-8-8-8/10-10-10-10-|
D|-8-8-8-0-0-8-8-0-|-0-8-8-8/10-10-10-10-|

Guitar 1
e|-----------------------|----------------------0-|
B|10-10-10-10---10-10-10-|---10-10-10-10-10-10--0-|
G|-0--0--0--0----0--0--0-|----0--0--0--0--0--0--0-|
D|-x--x--x--x----x--x--x-|----x--x--x--x--x--x----|
A|10-10-10-10---10-10-10-|---10-10-10-10-10-10----|
D|-----------------------|------------------------|
 |Guitar 2                                        |
e|-----------------------|------------------------|
B|-----------------------|------------------------|
G|-----------------------|------------------------|
D|10-10-10-10---10-10-10-|---10-10-10/12-12-12-12-|
A|-8--8--8--0----8--8--0-|----8--8--8/10-10-10-10-|
D|-8--8--8--0----8--8--0-|----8--8--8/10-10-10-10-|

Guitar 1
e|-7-7-7-7---7-7-7-|(7)7-7-7--7--7--7--7-|
B|-0-0-0-0---0-0-0-|(0)0-0-0--0--0--0--0-|
G|-x-x-x-x---x-x-x-|---x-x-x--x--x--x--x-|
D|-7-7-7-7---7-7-7-|(7)7-7-7--7--7--7--7-|
A|-----------------|---------------------|
D|-----------------|---------------------|
 |Guitar 2                               |
e|-----------------|---------------------|
B|-----------------|---------------------|
G|-----------------|---------------------|
D|-8-8-8-0-0-8-8-0-|-0-8-8-8/10-10-10-10-|
A|-8-8-8-0-0-8-8-0-|-0-8-8-8/10-10-10-10-|
D|-8-8-8-0-0-8-8-0-|-0-8-8-8/10-10-10-10-|

Guitar 1
e|10-10-10-10---10-10-10-|---10-10-10-10-10-10----|
B|-0--0--0--0----0--0--0-|----0--0--0--0--0--0----|
G|-x--x--x--x----x--x--x-|----x--x--x--x--x--x----|
D|10-10-10-10---10-10-10-|---10-10-10-10-10-10----|
A|-----------------------|------------------------|
D|-----------------------|----------------------0-|
 |Guitar 2                                        |
e|-----------------------|------------------------|
B|-----------------------|------------------------|
G|-----------------------|------------------------|
D|10-10-10-10---10-10-10-|---10-10-10/12-12-12-12-|
A|-8--8--8--0----8--8--0-|----8--8--8/10-10-10-10-|
D|-8--8--8--0----8--8--0-|----8--8--8/10-10-10-10-|

Bridge
Guitar 1
e|----------------|-----------------|-----------------|------------------|
B|----------------|-----------------|-----------------|------------------|
G|----------------|-----------------|-----------------|------------------|
D|10--10----------|-----------------|-----------------|-0-0----0---0-0-0-|
A|-8---8----------|-----------------|-----------------|-0-0----0---0-0-0-|
D|-8---8----------|-----------------|-----------------|-0-0----0---0-0-0-|
 |                                                                       |
 |Guitar 2        (each harmonic fades in)                               |
e|----------------|-12--------------|-----------------|------------------|
B|----------------|---------12------|-----------------|------------------|
G|-7---7----------|-----------------|-12------12------|-0-0----0---0-0---|
D|-8---8----------|-----------------|-----------------|-0-0----0---0-0---|
A|-8---8----------|-----------------|-----------------|-0-0----0---0-0---|
D|-8---8----------|-----------------|-----------------|-0-0----0---0-0---|
                    NH      NH        NH      NH

Guitar 1
e|----------------|-----------------|-----------------|------------------|
B|----------------|-----------------|-----------------|------------------|
G|----------------|-----------------|-----------------|------------------|
D|10--10----------|-----------------|-----------------|-0-0----0---0-0-0-|
A|-8---8----------|-----------------|-----------------|-0-0----0---0-0-0-|
D|-8---8----------|-----------------|-----------------|-0-0----0---0-0-0-|
 |                                                                       |
 |Guitar 2                                                               |
e|----------------|-----------------|-----------------|------------------|
B|----------------|-----------------|-----------------|-7-7----7---7-7---|
G|-7---7----------|-----------------|-----------------|-0-0----0---0-0---|
D|-8---8----------|-----------------|-----------------|-0-0----0---0-0---|
A|-8---8----------|-----------------|-----------------|-0-0----0---0-0---|
D|-8---8----------|-----------------|-----------------|-0-0----0---0-0---|

Guitar 1
e|----------------|-----------------|-----------------|------------------|
B|----------------|-----------------|-----------------|------------------|
G|----------------|-----------------|-----------------|------------------|
D|10--10----------|-----------------|-----------------|-0-0----0---0-0-0-|
A|-8---8----------|-----------------|-----------------|-0-0----0---0-0-0-|
D|-8---8----------|-----------------|-----------------|-0-0----0---0-0-0-|
 |                                                                       |
 |Guitar 2                                                               |
e|----------------|-----------------|-----------------|------------------|
B|-7---7----------|-----------------|-----------------|-7-7----7---7-7---|
G|-7---7----------|-----------------|-----------------|-0-0----0---0-0---|
D|-8---8----------|-----------------|-----------------|-0-0----0---0-0---|
A|-8---8----------|-----------------|-----------------|-0-0----0---0-0---|
D|-8---8----------|-----------------|-----------------|-0-0----0---0-0---|

Guitar 1
e|----------------|-----------------|-----------------|------------------|
B|----------------|-----------------|-----------------|------------------|
G|----------------|-----------------|-----------------|------------------|
D|10--10----------|-----------------|-----------------|-0-0----0---0-0-0-|
A|-8---8----------|-----------------|-----------------|-0-0----0---0-0-0-|
D|-8---8----------|-----------------|-----------------|-0-0----0---0-0-0-|
 |                                                                       |
 |Guitar 2         each harmonic fades in and out                        |
e|----------------|-12--------------|-----------------|--------------------|
B|-7---7----------|-----------------|-----------------|-7-7----7---7-7-----|
G|-7---7----------|-----------------|-5---------------|-0-0----0---0-0-0---|
D|-8---8----------|-----------------|-5---------------|-0-0----0---0-0-0---|
A|-8---8----------|-----------------|-----------------|-0-0----0---0-0-0---|
D|-8---8----------|-----------------|-----------------|-0-0----0---0-0-0---|
                    NH-----------------------------------------------------|

Interlude
Guitar 1                              let ring------------------------------|
e|----------------|-----------------|------------------|--------------------|
B|-15----15----12-|-(12)------------|-10p7---7h8p7-----|--------------------|
G|-19----19----16-|-(16)------------|--x-----x-----7---|-(7)----------------|
D|--x-----x-----x-|-----------------|--8-----8-----8---|-(8)----------------|
A|--x-----x-----x-|-----------------|--8-----8-----8---|-(8)----------------|
D|--x-----x-----x-|-----------------|--8-----8-----8---|-(8)----------------|
 |                                                                        |
 |Guitar 2                                          let ring----------|   |
e|----------------|-----------------|------------------|------------------|
B|----------------|-----------------|------------------|------------------|
G|----------------|-----------------|------------------|------------------|
D|-------------10-|-(10)------------|-10p8-------0-----|------7h^r7-------|
A|--------8-------|-----------------|--8-----8---0-8---|-(8)----------8---|
D|--8-------------|-----------------|--8-----8---0-8---|-(8)--------------|

Guitar 1                              let ring------------------------------|
e|----------------|-----------------|------------------|--------------------|
B|-15----15----12-|-(12)------------|-10p7---7h8p7-----|--------------------|
G|-19----19----16-|-(16)------------|--x-----x-----7---|-(7)----------------|
D|--x-----x-----x-|-----------------|--8-----8-----8---|-(8)----------------|
A|--x-----x-----x-|-----------------|--8-----8-----8---|-(8)----------------|
D|--x-----x-----x-|-----------------|--8-----8-----8---|-(8)----------------|
 |                                                                        |
 |Guitar 2                                          let ring----------|   |
e|----------------|-----------------|------------------|------------------|
B|----------------|-----------------|------------------|------------------|
G|----------------|-----------------|------------------|------------------|
D|-------------10-|-(10)------------|-10p8-------------|------7h^r7-------|
A|--------8-------|-----------------|--------8---------|--------------8---|
D|--8-------------|-----------------|------------0-8---|-(8)----------8---|

Guitars 1,2
e|----------------|-----------------|------------------|------------------|
B|----------------|-----------------|------------------|------------------|
G|----------------|-----------------|------------------|------------------|
D|----------------|-----------------|------------------|------------------|
A|----------------|-----------------|------------------|------------------|
D|-0--------------|-(0)-------------|-(0)--------------|-(0)--------------|

Guitar 1
e|----------------|-----------------|------------------|------------------|
B|----------------|-----------------|------------------|------------------|
G|----------------|-----------------|------------------|------------------|
D|----------------|-----------------|------------------|------------------|
A|----------------|-----------------|------------------|------------------|
D|-0--------------|-(0)-------------|-(0)--------------|-(0)--------------|
 |Guitar 2                                                                |
e|----------------|-----------------|------------------|------------------|
B|----------------|-----------------|------------------|------------------|
G|----------------|-----------------|------------------|------------------|
D|----------------|-----------x-x---|------------------|------------------|
A|----------------|---------------x-|------------------|------------------|
D|----------------|-----------------|------------------|------------------|

Guitar 2
   Let ring----------------------------------------------------------------|
e|----------------|----------------|------------------|--------------------|
B|---5---5---5----|---7---7---7----|---10--10--10-----|---8---8---8--------|
G|---0---0---0----|---0---0---0----|----0---0---0-----|---0---0---0--------|
D|----------------|----------------|------------------|--------------------|
A|-5---5---5---5--|/7---7---7---7--|/10--10--10--10---|\8---8---8---8------|
D|----------------|----------------|------------------|--------------------|

Guitar 1
   Let ring----------------------------------------------------------------|
e|-----0----------|-----0----------|------0-----------|------0-------------|
B|--13------------|--12------------|---20-------------|---19---------------|
G|-0--------------|-0--------------|--0---------------|--0-----------------|
D|----------------|----------------|------------------|--------------------|
A|----------------|----------------|------------------|--------------------|
D|----------------|----------------|------------------|--------------------|
 |Guitar 2                                                               |
 | Let ring----------------------------------------------------------|   |
e|----------------|----------------|------------------|------------------|
B|---5---5---5----|---7---7---7----|---10--10--10-----|---12--12--12-----|
G|---0---0---0----|---0---0---0----|----0---0---0-----|----0---0---0-----|
D|----------------|----------------|------------------|------------------|
A|-5---5---5---5--|/7---7---7---7--|/10--10--10--10---|/12--12--12--12---|
D|----------------|----------------|------------------|------------------|

Guitar 1
   Let ring----------------------------------------------------------------|
e|-----0----------|-----0----------|------0-----------|------0-------------|
B|--13------------|--12------------|---20-------------|---19---------------|
G|-0--------------|-0--------------|--0---------------|--0-----------------|
D|----------------|----------------|------------------|--------------------|
A|----------------|----------------|------------------|--------------------|
D|----------------|----------------|------------------|--------------------|
 |Guitar 2                                                               |
 | Let ring----------------------------------------------------------|   |
e|----------------|----------------|------------------|------------------|
B|---5---5---5----|---7---7---7----|---10--10--10-----|---8---8---8------|
G|---0---0---0----|---0---0---0----|----0---0---0-----|---0---0---0------|
D|----------------|----------------|------------------|------------------|
A|-5---5---5---5--|/7---7---7---7--|/10--10--10--10---|\8---8---8---8----|
D|----------------|----------------|------------------|------------------|

Guitar 1
   Let ring----------------------------------------------------------------|
e|-----0----------|-----0----------|------0-----------|------0-------------|
B|--13------------|--12------------|---20-------------|---19---------------|
G|-0--------------|-0--------------|--0---------------|--0-----------------|
D|----------------|----------------|------------------|--------------------|
A|----------------|----------------|------------------|--------------------|
D|----------------|----------------|------------------|--------------------|
 |Guitar 2                                                               |
 | Let ring----------------------------------------------------------|   |
e|----------------|----------------|------------------|------------------|
B|---5---5---5----|---7---7---7----|---10--10--10-----|---12--12--12-----|
G|---0---0---0----|---0---0---0----|----0---0---0-----|----0---0---0-----|
D|----------------|----------------|------------------|------------------|
A|-5---5---5---5--|/7---7---7---7--|/10--10--10--10---|/12--12--12--12---|
D|----------------|----------------|------------------|------------------|

Guitar 1
e|---------------------------------|----------------------------------|
B|---------------------------------|----------------------------------|
G|---------------------------------|----------------------------------|
D|---------------------------------|----------------------------------|
A|---------------------------------|----------------------------------|
D|-0---0-0-0-0-0---0-0-0-0-0---0-0-|--0---0-0-0-0-0---0-0-0-0-0---0-0-|
 |Guitar 2                                                            |
e|---------------------------------|----------------------------------|
B|13--13---------------------------|(13)---------------------13--13\--|
G|-x---x---------------------------|--------------------------x---x---|
D|-x---x---------------------------|--------------------------x---x---|
A|13--13---------------------------|(13)---------------------13--13\--|
D|---------------------------------|----------------------------------|

Guitar 1
e|---------------------------------|----------------------------------|
B|---------------------------------|----------------------------------|
G|---------------------------------|----------------------------------|
D|---------------------------------|----------------------------------|
A|---------------------------------|----------------------------------|
D|-0---0-0-0-0-0---0-0-0-0-0---0-0-|--0-0-0-0-0-0-0-0-0-0-0-0-0-0-0-0-|
 |Guitar 2                                                            |
e|---------------------------------|----------------------------------|
B|12-------------------------------|(12)---------------------12--12---|
G|-x-------------------------------|--------------------------x---x---|
D|-x-------------------------------|--------------------------x---x---|
A|12-------------------------------|(12)---------------------12--12---|
D|---------------------------------|----------------------------------|

Guitar 1
e|---------------------------------|----------------------------------|
B|---------------------------------|----------------------------------|
G|---------------------------------|----------------------------------|
D|---------------------------------|----------------------------------|
A|---------------------------------|----------------------------------|
D|-0---0-0-0-0-0---0-0-0-0-0---0-0-|--0---0-0-0-0-0---0-0-0-0-0---0-0-|
 |Guitar 2                                                            |
e|---------------------------------|----------------------------------|
B|12-/13---------------------------|(13)---------------------13-------|
G|-x---x---------------------------|--------------------------x-------|
D|-x---x---------------------------|--------------------------x-------|
A|12-/13---------------------------|(13)---------------------13-------|
D|---------------------------------|----------------------------------|

Guitar 1
e|---------------------------------|----------------------------------|
B|---------------------------------|----------------------------------|
G|---------------------------------|----------------------------------|
D|---------------------------------|----------------------------------|
A|---------------------------------|----------------------------------|
D|-0---0-0-0-0-0---0-0-0-0-0---0-0-|--0-0-0-0-0-0-0-0-0-0-0-0-0-0-0-0-|
 |Guitar 2                                                            |
e|15---0--14---0------14------12---|----------------------------------|
B|----------------15-------0-------|-15---0--10--12---0---8--10---0---|
G|---------------------------------|----------------------------------|
D|---------------------------------|----------------------------------|
A|---------------------------------|----------------------------------|
D|---------------------------------|----------------------------------|

Outro
Guitar 1
e|------------------|------------------------|------------------|--------------------|
B|------------------|------------------------|------------------|--------------------|
G|-9----9---9---9---|------------------------|-5----5---5---5---|--------------------|
D|-0----0---0---0---|10-10-10-10-10-10-10----|-0----0---0---0---|--------------------|
A|-0----0---0---0---|-8--8--8--8--8--8--8----|-0----0---0---0---|-8-8--8--8-8-8--8---|
D|-0----0---0---0---|-8--8--8--8--8--8--8----|-0----0---0---0---|-8-8--8--8-8-8--8---|
 |Guitar 2                                                                           |
e|15-0-14-0--14--12-|------------------------|15-0-14-0--14--12-|--------------------|
B|---------15---0---|15--0-10-12--0--8-10--0-|---------15---0---|15-0-10-12-0-8-10-0-|
G|------------------|------------------------|------------------|--------------------|
D|------------------|------------------------|------------------|--------------------|
A|------------------|------------------------|------------------|--------------------|
D|------------------|------------------------|------------------|--------------------|

Guitar 1
e|------------------|------------------------|------------------|--------------------|
B|------------------|------------------------|------------------|--------------------|
G|-9----9---9---9---|------------------------|-5----5---5---5---|--------------------|
D|-0----0---0---0---|10-10-10-10-10-10-10----|-0----0---0---0---|--------------------|
A|-0----0---0---0---|-8--8--8--8--8--8--8----|-0----0---0---0---|-8-8--8--8-8-8--8---|
D|-0----0---0---0---|-8--8--8--8--8--8--8----|-0----0---0---0---|-8-8--8--8-8-8--8---|
 |Guitar 2                                                                           |
e|15-0-14-0--14--12-|------------------------|15-0-14-0--14--12-|--------------------|
B|---------15---0---|15--0-10-12--0--8-10--0-|---------15---0---|15-0-10-12-0-8-10-0-|
G|------------------|------------------------|------------------|--------------------|
D|------------------|------------------------|------------------|--------------------|
A|------------------|------------------------|------------------|--------------------|
D|------------------|------------------------|------------------|--------------------|

Guitar 1
e|------------------------------------------------|
B|17-17-17-17-17-17-17-17-17-17-17-17-17-17/19-19-|
G|-x--x--x--x--x--x--x--x--x--x--x--x--x--x--x--x-|
D|-x--x--x--x--x--x--x--x--x--x--x--x--x--x--x--x-|
A|17-17-17-17-17-17-17-17-17-17-17-17-17-17/19-19-|
D|------------------------------------------------|
 |Guitar 2                                        |
e|------------------------------------------------|
B|-5--5--5--5--5--5--5--5--5--5--5--5--5--5/-7--7-|
G|-x--x--x--x--x--x--x--x--x--x--x--x--x--x--x--x-|
D|-x--x--x--x--x--x--x--x--x--x--x--x--x--x--x--x-|
A|-5--5--5--5--5--5--5--5--5--5--5--5--5--5/-7--7-|
D|------------------------------------------------|

Guitar 1
e|------------------------------------------------|
B|19-19-19-19-19-19-19-19-19-19-19-19-19-19/22-22-|
G|-x--x--x--x--x--x--x--x--x--x--x--x--x--x--x--x-|
D|-x--x--x--x--x--x--x--x--x--x--x--x--x--x--x--x-|
A|19-19-19-19-19-19-19-19-19-19-19-19-19-19/22-22-|
D|------------------------------------------------|
 |Guitar 2                                        |
e|------------------------------------------------|
B|-7--7--7--7--7--7--7--7--7--7--7--7--7--7/10-10-|
G|-x--x--x--x--x--x--x--x--x--x--x--x--x--x--x--x-|
D|-x--x--x--x--x--x--x--x--x--x--x--x--x--x--x--x-|
A|-7--7--7--7--7--7--7--7--7--7--7--7--7--7/10-10-|
D|------------------------------------------------|

Guitar 1
e|------------------------------------------------|
B|22-22-22-22-22-22-22-22-22-22-22-22-22-22/15-15-|
G|-x--x--x--x--x--x--x--x--x--x--x--x--x--x--x--x-|
D|-x--x--x--x--x--x--x--x--x--x--x--x--x--x--x--x-|
A|22-22-22-22-22-22-22-22-22-22-22-22-22-22/15-15-|
D|------------------------------------------------|
 |Guitar 2                                        |
e|------------------------------------------------|
B|10-10-10-10-10-10-10-10-10-10-10-10-10-10\-8--8-|
G|-x--x--x--x--x--x--x--x--x--x--x--x--x--x--x--x-|
D|-x--x--x--x--x--x--x--x--x--x--x--x--x--x--x--x-|
A|10-10-10-10-10-10-10-10-10-10-10-10-10-10\-8--8-|
D|------------------------------------------------|

Guitar 1
e|------------------------------------------------|
B|15-15-15-15-15-15-15-15-15-15-15-15-15-15/17-17-|
G|-x--x--x--x--x--x--x--x--x--x--x--x--x--x--x--x-|
D|-x--x--x--x--x--x--x--x--x--x--x--x--x--x--x--x-|
A|15-15-15-15-15-15-15-15-15-15-15-15-15-15/17-17-|
D|------------------------------------------------|
 |Guitar 2                                        |
e|------------------------------------------------|
B|-8--8--8--8--8--8--8--8--8--8--7--7--7--7\-5--5-|
G|-x--x--x--x--x--x--x--x--x--x--x--x--x--x--x--x-|
D|-x--x--x--x--x--x--x--x--x--x--x--x--x--x--x--x-|
A|-8--8--8--8--8--8--8--8--8--8--7--7--7--7\-5--5-|
D|------------------------------------------------|

Guitar 1
e|------------------------------------------------|
B|17-17-17-17-17-17-17-17-17-17-17-17-17-17/19-19-|
G|-x--x--x--x--x--x--x--x--x--x--x--x--x--x--x--x-|
D|-x--x--x--x--x--x--x--x--x--x--x--x--x--x--x--x-|
A|17-17-17-17-17-17-17-17-17-17-17-17-17-17/19-19-|
D|------------------------------------------------|
 |Guitar 2                                        |
e|------------------------------------------------|
B|-5--5--5--5--5--5--5--5--5--5--5--5--5--5/-7--7-|
G|-x--x--x--x--x--x--x--x--x--x--x--x--x--x--x--x-|
D|-x--x--x--x--x--x--x--x--x--x--x--x--x--x--x--x-|
A|-5--5--5--5--5--5--5--5--5--5--5--5--5--5/-7--7-|
D|------------------------------------------------|

Guitar 1
e|------------------------------------------------|
B|19-19-19-19-19-19-19-19-19-19-19-19-19-19/22-22-|
G|-x--x--x--x--x--x--x--x--x--x--x--x--x--x--x--x-|
D|-x--x--x--x--x--x--x--x--x--x--x--x--x--x--x--x-|
A|19-19-19-19-19-19-19-19-19-19-19-19-19-19/22-22-|
D|------------------------------------------------|
 |Guitar 2                                        |
e|------------------------------------------------|
B|-7--7--7--7--7--7--7--7--7--7--7--7--7--7/10-10-|
G|-x--x--x--x--x--x--x--x--x--x--x--x--x--x--x--x-|
D|-x--x--x--x--x--x--x--x--x--x--x--x--x--x--x--x-|
A|-7--7--7--7--7--7--7--7--7--7--7--7--7--7/10-10-|
D|------------------------------------------------|

Guitar 1
e|------------------------------------------------|
B|22-22-22-22-22-22-22-22-22-22-22-22-22-22/15-15-|
G|-x--x--x--x--x--x--x--x--x--x--x--x--x--x--x--x-|
D|-x--x--x--x--x--x--x--x--x--x--x--x--x--x--x--x-|
A|22-22-22-22-22-22-22-22-22-22-22-22-22-22/15-15-|
D|------------------------------------------------|
 |Guitar 2                                        |
e|------------------------------------------------|
B|10-10-10-10-10-10-10-10-10-10-10-10-10-10\-8--8-|
G|-x--x--x--x--x--x--x--x--x--x--x--x--x--x--x--x-|
D|-x--x--x--x--x--x--x--x--x--x--x--x--x--x--x--x-|
A|10-10-10-10-10-10-10-10-10-10-10-10-10-10\-8--8-|
D|------------------------------------------------|

Guitar 1
e|------------------------------------------------|
B|15-15-15-15-15-15-15-15-15-15-15-15-15-15/17-17-|
G|-x--x--x--x--x--x--x--x--x--x--x--x--x--x--x--x-|
D|-x--x--x--x--x--x--x--x--x--x--x--x--x--x--x--x-|
A|15-15-15-15-15-15-15-15-15-15-15-15-15-15/17-17-|
D|------------------------------------------------|
 |Guitar 2                                        |
e|------------------------------------------------|
B|-8-----8-----8-----8-----8-----8-----8-----8----|
G|-x-----x-----x-----x-----x-----x-----x-----x----|
D|-x-----x-----x-----x-----x-----x-----x-----x----|
A|-8-----8-----8-----8-----8-----8-----8-----8----|
D|------------------------------------------------|

Guitar 1
e|----------------|-----------------|-----------------|-----------------|
B|----------------|-----------------|-----------------|-----------------|
G|----------------|-----------------|-----------------|-----------------|
D|-0--------------|-(0)-------------|-(0)-------------|-(0)-------------|
A|-0--------------|-(0)-------------|-(0)-------------|-(0)-------------|
D|-0--------------|-(0)-------------|-(0)-------------|-(0)-------------|
 |Guitar 2                                                              |
e|----------------|-----------------|-----------------|-----------------|
B|----------------|-----------------|-----------------|-----------------|
G|----------------|-----------------|-----------------|-----------------|
D|-0--------------|-(0)-------------|-(0)-------------|-(0)-------------|
A|-0--------------|-(0)-------------|-(0)-------------|-(0)-------------|
D|-0--------------|-(0)-------------|-(0)-------------|-(0)-------------|

===============================================================================
4. Signals Over the Air

Intro

Drums only for 1st 2 measures

Guitar 1
e|-0---5-----8-5-------------|---------------------------|
B|-0---0-----0-0-0-5-6p5---5-|-----5-----6p5---5---0-----|
G|-5---0-----0-0-0-0-0---7-0-|-5---0-----0---7-0-7-5-4-0-|
D|-7---7-----------------7---|-7---7-----7---7---7---7-0-|
A|-0-------------------------|-----0---------------------|
D|---------------------------|---------------------------|

Verse
Guitar 1
e||--0---5-----8-5-------------|----------------------------||
B||o-0---0-----0-0-0-5-6p5---5-|-----5-----6p5---5---0-----o||
G||--5---0-----0-0-0-0-0---7-0-|-5---0-----0---7-0-7-5-4-0--||
D||--7---7-----------------7---|-7---7-----7---7---7---7-0--||
A||o-0-------------------------|-----0---------------------o||
D||----------------------------|----------------------------||

Guitar 1
e|-0----5-------8-5-------------|---------------------------------|
B|-0----0-------0-0-0-5-6p5---5-|------5-------6p5---5----0-------|
G|-5----0-------0-0-0-0-0---7-0-|-5----0-------0---7-0-7--5--4--0-|
D|-7----7-------------------7---|-7----7-------7---7---7-----7--0-|
A|-0----------------------------|------0--------------------------|
D|------------------------------|---------------------------------|
 |Guitar 2                                                        |
 | .  .   .  .  .   .   .   .     .  .   .  .  .   .              |
e|-0--0---0--0-12--12--12--12---|10-10--10-10-10--10--10-10-10--0-|
B|10-10--10-10-12--12--12--12---|12-12--12-12-12--12--12-12-12-10-|
G|------------------------------|---------------------------------|
D|------------------------------|---------------------------------|
A|------------------------------|---------------------------------|
D|------------------------------|---------------------------------|

Guitar 1
e|-0----5-------8-5-------------|--------------------------------------|
B|-0----0-------0-0-0-5-6p5---5-|--------5--------6-p5----5----0-------|
G|-5----0-------0-0-0-0-0---7-0-|-5------0--------0-----7-0-7--5--4--0-|
D|-7----7-------------------7---|-7------7--------7-----7---7-----7--0-|
A|-0----------------------------|--------0-----------------------------|
D|------------------------------|--------------------------------------|
 |Guitar 2                                                             |
 | .  .   .  .  .   .   .   .     .  .  .               .              |
e|-0--0---0--0-12--12--12--12---|12-13-12--12-12-12-13-12--12-13-12----|
B|10-10--10-10-12--12--12--12---|12-12-12--12-12-12-12-12--12-12-12----|
G|------------------------------|--------------------------------------|
D|------------------------------|--------------------------------------|
A|------------------------------|--------------------------------------|
D|------------------------------|--------------------------------------|

Pre-Chorus
Guitar 1
e|-0-----8-p5------------------------------------|
B|-0-----0--------8-p5---------------------------|
G|-5-----0--------0--------7-p5-----4-/5-----4/5-|
D|-7-----------7--------7--7--------7--------7---|
A|-0-----------0--------0--0-----0--------0------|
D|-----------------------------------------------|
 |Guitar 2                                       |
e|-0-----0--0--0--0--0--0--0--0--0--0--0--0--0-0-|
B|-8/10-10-10-10-10-10-10-10-10-10-10-10-10-10-8-|
G|-----------------------------------------------|
D|-----------------------------------------------|
A|-----------------------------------------------|
D|-----------------------------------------------|

Guitar 1
e|-0-----8-p5------------------------------------|
B|-0-----0--------8-p5---------------------------|
G|-5-----0--------0--------7-p5-----4-/5-----4/5-|
D|-7-----------7--------7--7--------7--------7---|
A|-0-----------0--------0--0-----0--------0------|
D|-----------------------------------------------|
 |Guitar 2                                       |
e|-0-----0--0--0--0--0--0--0--0--0--0--0--0--0-0-|
B|-8/12-12-12-12-12-12-12-12-12-12-12-12-12-12-8-|
G|-----------------------------------------------|
D|-----------------------------------------------|
A|-----------------------------------------------|
D|-----------------------------------------------|

Guitar 1
e|-0-----8-p5------------------------------------|
B|-0-----0--------8-p5---------------------------|
G|-5-----0--------0--------7-p5-----4-/5-----4-/5|
D|-7-----------7--------7--7--------7--------7---|
A|-0-----------0--------0--0-----0--------0------|
D|-----------------------------------------------|
 |Guitar 2                                       |
e|-0-----0--0--0--0--0--0--0--0--0--0--0--0--0--0|
B|-8/13-13-13-13-13-13-13-13-13-13-13-13-13-13/17|
G|-----------------------------------------------|
D|-----------------------------------------------|
A|-----------------------------------------------|
D|-----------------------------------------------|

Guitar 1                              distortion
e|-0-----8-p5------------------------------------|
B|-0-----0--------8-p5---------------------------|
G|-5-----0--------0--------7-p5-------5--5--5--5-|
D|-7-----------7--------7--7--------7-0--0--0--7-|
A|-0-----------0--------0--0-----0----0--0--0--7-|
D|------------------------------------0--0--0--7-|
 |Guitar 2                            distortion |
e|-0--0--0--0--0--0--0-13----15-13-13------------|
B|17-17-17-17-17-17-17----17----17-17----------5-|
G|---------------------------------------------x-|
D|------------------------------------0--0--0--7-|
A|------------------------------------0--0--0--7-|
D|------------------------------------0--0--0--7-|

Guitar 1
e|----------------------------------|----------------------------------|
B|----------------------------------|----------------------------------|
G|(5)-5-5-5-5-5-5-5-5-5-5-5-5-5-5-5-|(5)-5-5-5-5-5-5-5-5-5-5-5-5-5---5-|
D|(7)-7-7-7-7-7-7-7-7-7-7-7-0-0-0-7-|(7)-7-7-7-7-7-7-7-7-7-7-7-7-7-0-3-|
A|(7)-7-7-7-7-7-7-7-7-7-7-7-0-0-0-7-|(7)-7-7-7-7-7-7-7-7-7-7-7-7-7-0-3-|
D|(7)-7-7-7-7-7-7-7-7-7-7-7-0-0-0-7-|(7)-7-7-7-7-7-7-7-7-7-7-7-7-7-0-3-|
 |Guitar 2                                                             |
e|----------------------------------|----------------------------------|
B|(5)-5-5-5-5-5-5-5-5-5-5-5---------|----------------------------------|
G|----x-x-x-x-x-x-x-x-x-x-x---------|--------------------------------4-|
D|(7)-7-7-7-7-7-7-7-7-7-7-7-0-0-0-9-|(9)-9-9-9-9-9-9-9-9-9-9-9-0-0-0-x-|
A|(7)-7-7-7-7-7-7-7-7-7-7-7-0-0-0-7-|(7)-7-7-7-7-7-7-7-7-7-7-7-0-0-0-2-|
D|(7)-7-7-7-7-7-7-7-7-7-7-7-0-0-0-7-|(7)-7-7-7-7-7-7-7-7-7-7-7-0-0-0---|

Guitar 1
e|----------------------------------|-----------------------------------------|
B|----------------------------------|-----------------------------------------|
G|(5)-5-5-5-5-5-5-5-5-5-5-5--------4|-(4)--4--4--4--4--4--4--4--4-4--4-5-5-5-5|
D|(3)-3-3-3-3-3-3-3-3-3-3-3-0-0-0--5|-(5)--5--5--5--5--5--5--5--5-5--5-0-0-0-7|
A|(3)-3-3-3-3-3-3-3-3-3-3-3-0-0-0--5|-(5)--5--5--5--5--5--5--5--5-5--5-0-0-0-7|
D|(3)-3-3-3-3-3-3-3-3-3-3-3-0-0-0--5|-(5)--5--5--5--5--5--5--5--5-5--5-0-0-0-7|
 |Guitar 2                                                                    |
e|----------------------------------|-----------------------------------------|
B|----------------------------------|----------------------------------------5|
G|(4)-4-4-4-5-5-5-5-7-7-7-7-7-7-7/14|(14)-14-14-14-14-17-17-16-16h^r16-------x|
D|----x-x-x-x-x-x-x-x-x-x-x-x-x-x--x|------x--x--x--x--x--x--x--x------0-0-0-7|
A|(2)-2-2-2-3-3-3-3-5-5-5-5-5-5-5/12|(12)-12-12-12-12-15-15-14-14h^r14-0-0-0-7|
D|----------------------------------|----------------------------------0-0-0-7|

Guitar 1
e|-----------------------------------|
B|-----------------------------------|
G|(5)-5-5-5-5-5-5-5-5-5-5-5--------5-|
D|(3)-7-7-7-7-7-7-7-7-7-7-7-0-0-0--7-|
A|(3)-7-7-7-7-7-7-7-7-7-7-7-0-0-0--7-|
D|(3)-7-7-7-7-7-7-7-7-7-7-7-0-0-0--7-|
 |Guitar 2                           |
e|-----------------------------------|
B|----5-5-5-5-5-5-5-5-5-5-5----------|
G|(4)-x-x-x-x-x-x-x-x-x-x-x-7-/14-14-|
D|----7-7-7-7-7-7-7-7-7-7-7-x---x--x-|
A|(2)-7-7-7-7-7-7-7-7-7-7-7-5-/12-12-|
D|----7-7-7-7-7-7-7-7-7-7-7----------|

Guitar 1
e|----------------------------------------------------|
B|----------------------------------------------------|
G|--------------------------------------------------5-|
D|-(9)-9--9--9--9--9--9--9--9--9--9--9--9--9--9--0--3-|
A|-(7)-7--7--7--7--7--7--7--7--7--7--7--7--7--7--0--3-|
D|-(7)-7--7--7--7--7--7--7--7--7--7--7--7--7--7--0--3-|
 |Guitar 2                                            |
e|----------------------------------------------------|
B|----------------------------------------------------|
G|-14-14-14-14-14-14-14-14-14-14-14-14-14-14-14-14-16-|
D|--x--x--x--x--x--x--x--x--x--x--x--x--x--x--x--x--x-|
A|-12-12-12-12-12-12-12-12-12-12-12-12-12-12-12-12-14-|
D|----------------------------------------------------|

Guitar 1
e|----------------------------------------------------|
B|----------------------------------------------------|
G|-(5)-5--5--5--5--5--5--5--5--5--5--5--5-----------4-|
D|-(3)-3--3--3--3--3--3--3--3--3--3--3--3--0--0--0--5-|
A|-(3)-3--3--3--3--3--3--3--3--3--3--3--3--0--0--0--5-|
D|-(3)-3--3--3--3--3--3--3--3--3--3--3--3--0--0--0--5-|
 |Guitar 2                                            |
e|----------------------------------------------------|
B|----------------------------------------------------|
G|-16-16-16-16-17-17-17-19-19-19-19-19-19-19-19-21-21-|
D|--x--x--x--x--x--x--x--x--x--x--x--x--x--x--x--x--x-|
A|-14-14-14-14-15-15-15-17-17-17-17-17-17-17-17-19-19-|
D|----------------------------------------------------|

Guitar 1
e|---------------------------------------------|
B|---------------------------------------------|
G|-(4)-4--4--4--4--4--4--4--4-4-4-4--4-5-5-5-5-|
D|-(5)-5--5--5--5--5--5--5--5-5-5-5--5-0-0-0-0-|
A|-(5)-5--5--5--5--5--5--5--5-5-5-5--5-0-0-0-0-|
D|-(5)-5--5--5--5--5--5--5--5-5-5-5--5-0-0-0-0-|
 |Guitar 2                                     |
e|---------------------------------------------|
B|---------------------------------------------|
G|-19-19-17-17-16-16-16-16-16-h^r16-16-x-x-x-x-|
D|--x--x--x--x--x--x--x--x--x---x-x--x-x-x-x-x-|
A|-17-17-15-15-14-14-14-14-14-h^r14-14-x-x-x-x-|
D|-------------------------------------x-x-x-x-|

Verse
Guitar 1
e|-0----5-------8-5-------------|---------------------------------|
B|-0----0-------0-0-0-5-6p5---5-|------5-------6p5---5----0-------|
G|-5----0-------0-0-0-0-0---7-0-|-5----0-------0---7-0-7--5--4--0-|
D|-7----7-------------------7---|-7----7-------7---7---7-----7--0-|
A|-0----------------------------|------0--------------------------|
D|------------------------------|---------------------------------|
 |Keyboard                                                        |
e|-5------------7-----------8---|-5-------------------------------|
B|------------------------------|--------------8------------------|
G|------------------------------|-------------------------------7-|
D|------------------------------|---------------------------------|
A|------------------------------|---------------------------------|
D|------------------------------|---------------------------------|

Guitar 1
e|-0----5-------8-5-------------|--------------------------------------|
B|-0----0-------0-0-0-5-6p5---5-|--------5--------6-p5----5----0-------|
G|-5----0-------0-0-0-0-0---7-0-|-5------0--------0-----7-0-7--5--4--0-|
D|-7----7-------------------7---|-7------7--------7-----7---7-----7--0-|
A|-0----------------------------|--------0-----------------------------|
D|------------------------------|--------------------------------------|
 |Guitar 2                                                             |
 | .  .   .  .  .   .   .   .     .  .      .  .        .         .    |
e|-0--0---0--0-12--12--12--12---|12-10-----10-10-10-10-10--10-10-10----|
B|10-10--10-10--0---0---0---0---|10-10-----10-10-10-10-10--10-10-10----|
G|------------------------------|--------------------------------------|
D|------------------------------|--------------------------------------|
A|------------------------------|--------------------------------------|
D|------------------------------|--------------------------------------|
 |Keyboard                                                             |
e|------------------------------|--------------------------------------|
B|-5----------------------------|--------------------------------------|
G|--------------7-----------4---|-5---------------4--------------------|
D|------------------------------|---------------------------------5----|
A|------------------------------|--------------------------------------|
D|------------------------------|--------------------------------------|

Pre-chorus
Guitar 1
e|-0-----8-p5------------------------------------|
B|-0-----0--------8-p5---------------------------|
G|-5-----0--------0--------7-p5-----4-/5-----4/5-|
D|-7-----------7--------7--7--------7--------7---|
A|-0-----------0--------0--0-----0--------0------|
D|-----------------------------------------------|
 |Guitar 2                                       |
e|-0-----0--0--0--0--0--0--0--0--0--0--0--0--0-0-|
B|-8/10-10-10-10-10-10-10-10-10-10-10-10-10-10-8-|
G|-----------------------------------------------|
D|-----------------------------------------------|
A|-----------------------------------------------|
D|-----------------------------------------------|
 |Keyboard                                       |
e|-----------------------------------------------|
B|-----------------------------------------------|
G|-----------------------------------------------|
D|-7---------------------------------------------|
A|-----------------------------------------------|
D|-----------------------------------------------|

Guitar 1
e|-0-----8-p5------------------------------------|
B|-0-----0--------8-p5---------------------------|
G|-5-----0--------0--------7-p5-----4-/5-----4/5-|
D|-7-----------7--------7--7--------7--------7---|
A|-0-----------0--------0--0-----0--------0------|
D|-----------------------------------------------|
 |Guitar 2                                       |
e|-0-----0--0--0--0--0--0--0--0--0--0--0--0--0-0-|
B|-8/12-12-12-12-12-12-12-12-12-12-12-12-12-12\8-|
G|-----------------------------------------------|
D|-----------------------------------------------|
A|-----------------------------------------------|
D|-----------------------------------------------|
 |Keyboard                                       |
e|-----------------------------------------------|
B|-----------------------------------------------|
G|-----------------------------------------------|
D|(7)--------------------------------------------|
A|-----------------------------------------------|
D|-----------------------------------------------|

Guitar 1
e|-0-----8-p5------------------------------------|
B|-0-----0--------8-p5---------------------------|
G|-5-----0--------0--------7-p5-----4-/5-----4-/5|
D|-7-----------7--------7--7--------7--------7---|
A|-0-----------0--------0--0-----0--------0------|
D|-----------------------------------------------|
 |Guitar 2                                       |
e|-0-----0--0--0--0--0--0--0--0--0--0--0--0--0--0|
B|-8/13-13-13-13-13-13-13-13-13-13-13-13-13-13/17|
G|-----------------------------------------------|
D|-----------------------------------------------|
A|-----------------------------------------------|
D|-----------------------------------------------|
 |Keyboard                                       |
e|-----------------------------------------------|
B|-----------------------------------------------|
G|-----------------------------------------------|
D|(7)--------------------------------------------|
A|-----------------------------------------------|
D|-----------------------------------------------|

Guitar 1                              distortion
e|-0-----8-p5------------------------------------|
B|-0-----0--------8-p5------------------------10-|
G|-5-----0--------0--------7-p5----------------9-|
D|-7-----------7--------7--7--------7-0--0--0--7-|
A|-0-----------0--------0--0-----0----0--0--0--7-|
D|------------------------------------0--0--0--7-|
 |Guitar 2                            distortion |
e|-0--0--0--0--0--0--0-13----15-13-13------------|
B|17-17-17-17-17-17-17----17----17-17------------|
G|---------------------------------------------5-|
D|------------------------------------0--0--0--7-|
A|------------------------------------0--0--0--7-|
D|------------------------------------0--0--0--7-|
 |Keyboard                                       |
e|-----------------------------------------------|
B|-----------------------------------------------|
G|-----------------------------------------------|
D|(7)--------------------------------------------|
A|-----------------------------------------------|
D|-----------------------------------------------|

Play chorus x1

Guitar Solo
Guitar 1    .     .     .    .    .
e||-----------------------------------------------|
B||o(10)10-10----10----10---10---10------------10-|
G||--(9)-9--9-----9-----9----9----9-------------9-|
D||--(7)-7--7-----7-----7----7----7----0-----0--7-|
A||o-----------------------------------0-----0----|
D||------------------------------------0-----0----|
 |Guitar 2                                        |
e||-----------------------------------------------|
B||o-------------20\18-17p0-----------------------|
G||-----17------------------17p0-16p0-16h17p16----|
D||--19----19-19-------------------------------19-|
A||o----------------------------------------------|
D||-----------------------------------------------|
 |Keyboard                                        |
e||--15----------------------------------------12-|
B||o----------------------------------------------|
G||-----------------------------------------------|
D||-----------------------------------------------|
A||o----------------------------------------------|
D||-----------------------------------------------|

Guitar 1  .     .     .    .    .
e|----------------------------------------------|
B|(10)10-10----10----10---10---10-------------6-|
G|-(9)-9--9-----9-----9----9----9-------------5-|
D|-(7)-7--7-----7-----7----7----7----0-----0--3-|
A|-----------------------------------0-----0----|
D|-----------------------------------0-----0----|
 |Guitar 2                                      |
e|----------------------------------------------|
B|-------------20\18-17p0-----------------------|
G|----17------------------17p0-16p0-16h17p16----|
D|(19)---19-19-------------------------------19-|
A|----------------------------------------------|
D|----------------------------------------------|
 |Keyboard                                      |
e|(12)----------------------------------------8-|
B|----------------------------------------------|
G|----------------------------------------------|
D|----------------------------------------------|
A|----------------------------------------------|
D|----------------------------------------------|

Guitar 1  .     .     .    .    .
e|----------------------------------------------|
B|-(6)-6--6-----6-----6----6----6-------------8-|
G|-(5)-5--5-----5-----5----5----5-------------7-|
D|-(3)-3--3-----3-----3----3----3----0-----0--5-|
A|-----------------------------------0-----0----|
D|-----------------------------------0-----0----|
 |Guitar 2                                      |
e|----------------------------------------------|
B|-------------20\18-17p0-----------------------|
G|----17------------------17p0-16p0-16h17p16----|
D|(19)---19-19-------------------------------19-|
A|----------------------------------------------|
D|----------------------------------------------|
 |Keyboard                                      |
e|-(8)----------------------------------------5-|
B|----------------------------------------------|
G|----------------------------------------------|
D|----------------------------------------------|
A|----------------------------------------------|
D|----------------------------------------------|

Guitar 1  .     .     .    .    .
e|-----------------------------------------------||
B|-(8)-8--8-----8-----8----8----8------------10-o||
G|-(7)-7--7-----7-----7----7----7-------------9--||
D|-(5)-5--5-----5-----5----5----5----0-----0--7--||
A|-----------------------------------0-----0----o||
D|-----------------------------------0-----0-----||
 |Guitar 2                                       ||
e|-----------------------------------------------||
B|-------------20\18-17p0-----------------------o||
G|----17------------------17p0-16p0-16h17p16-----||
D|(19)---19-19-------------------------------19--||
A|----------------------------------------------o||
D|-----------------------------------------------||
 |Keyboard                                       ||
e|-(5)-------------------------------------------||
B|----------------------------------------------o||
G|-----------------------------------------------||
D|-----------------------------------------------||
A|----------------------------------------------o||
D|-----------------------------------------------||

Bridge
Guitar 1
e|-----------------------|---------------------------|
B|(10)-------------------|---------------------------|
G|-(9)-------------------|--5^-----------4^----------|
D|-(7)-------------------|--3^-----------5^----------|
A|-----------------------|--3^-----------5^----------|
D|-----------------------|--3^-----------5^----------|
 |Guitar 2                                           |
e|-----------------------|---------------------------|
B|-----------------------|---------------------------|
G|-----------------------|---------------------------|
D|(19)-------------------|(19)-----------------------|
A|-----------------------|---------------------------|
D|-----------------------|---------------------------|
 |Keyboard                                           |
e|-(5)-------------------|-(5)-----------------------|
B|-----------------------|---------------------------|
G|-----------------------|---------------------------|
D|-----------------------|---------------------------|
A|-----------------------|---------------------------|
D|-----------------------|---------------------------|

Guitar 1
e|---------------------------------|---------------------------------|
B|---------------------------------|---------------------------------|
G|-5^------------------------------|--5^-------------4^--------------|
D|-7^------------------------------|--3^-------------5^--------------|
A|-7^------------------------------|--3^-------------5^--------------|
D|-7^------------------------------|--3^-------------5^--------------|
 |Guitar 2     .                                                     |
e|---------------------------------|---------------------------------|
B|---------------------------------|---------------------------------|
G|-0-0-0-0-0-0-0---0-0-0-0-0-0-0---|-0-0-0-0-0-0-0-0-0-0-0-0-0-0-0-0-|
D|-2-2-2-2-2-2-2---2-2-2-2-2-2-2---|-7-7-7-7-7-7-7-7-5-5-5-5-3-3-3-3-|
A|---------------------------------|---------------------------------|
D|---------------------------------|---------------------------------|

Guitar 1
e|---------------------------------|---------------------------------|
B|---------------------------------|---------------------------------|
G|-----5^--------------------------|-----5^--------------4^----------|
D|-----7^--------------------------|-----3^--------------5^----------|
A|-----7^--------------------------|-----3^--------------5^----------|
D|-7---7^--------------------------|-3---3^----------5---5^----------|
 |Guitar 2     .                                                     |
e|---------------------------------|-----------------------------------|
B|---------------------------------|-----------------------------------|
G|-5-5-5-5-5-5-5-5-5-5-5-5-5-5-5-5-|-2-2-2-2-2-2-2-2-4-4-4-4-4-4-4-4---|
D|-7-7-7-7-7-7-7-7-7-7-7-7-7-7-7-7-|-3-3-3-3-3-3-3-3-5-5-5-5-5-5-5-5---|
A|---------------------------------|-----------------------------------|
D|---------------------------------|-----------------------------------|
   PM------------------------------------------------------------------|

Guitar 1 (distortion)
e|-------------------------------------------------|
B|-------------------------------------------------|
G|--5--5--5--5--5--5--5--5--5--5--5--5--5--5--5--5-|
D|--7--7--7--7--7--7--7--7--7--7--7--7--7--7--7--7-|
A|--7--7--7--7--7--7--7--7--7--7--7--7--7--7--7--7-|
D|--7--7--7--7--7--7--7--7--7--7--7--7--7--7--7--7-|
 |Guitar 2 (distortion)                            |
e|-------------------------13-12-------------------|
B|----12-13----15----13----------15----13-12-------|
G|-14-------14----14----14----------14-------14-12-|
D|-------------------------------------------------|
A|-------------------------------------------------|
D|-------------------------------------------------|

Guitar 1
e|-------------------------------------------|
B|-------------------------------------------|
G|--5--5--5--5--5--5--5--5--4--4--4--4--4----|
D|--3--3--3--3--3--3--3--3--5--5--5--5--5----|
A|--3--3--3--3--3--3--3--3--5--5--5--5--5----|
D|--3--3--3--3--3--3--3--3--5--5--5--5--5----|
 |Guitar 2                                   |
e|-------------------------13-12-------------|
B|----12-13----15----13----------15----13----|
G|-14-------14----14----14----------14-------|
D|-------------------------------------------|
A|-------------------------------------------|
D|-------------------------------------------|

Interlude
Guitars 1,2                                            x3
e||---------------------|--------------------------------||
B||o--------------------|-------------------------------o||
G||---------------------|--------------------------------||
D||--7-7-7-7-7-7--------|-2-2-2-2-2-2--------------------||
A||o-7-7-7-7-7-7--------|-2-2-2-2-2-2-------------------o||
D||--7-7-7-7-7-7--------|-2-2-2-2-2-2--------------------||
 ||Keyboard                                              ||
e||---------------------|-------------15-13-12-----------||
B||o--------------------|----------------------15-13-12-o||
G||---------------14----|--------------------------------||
D||---------------------|--------------------------------||
A||o--------------------|-------------------------------o||
D||---------------------|--------------------------------||

Guitars 1,2
e|-------------------|-------------|--------------|------------------------|
B|-------------------|-------------|--------------|---------------------10-|
G|-------------------|-------------|--------------|----------------------9-|
D|-7-7-7-7-7-7-------|-2-2-2-2-2-2-|-0------------|-(0)-----------0-0-0--7-|
A|-7-7-7-7-7-7-------|-2-2-2-2-2-2-|-0------------|-(0)-----------0-0-0--7-|
D|-7-7-7-7-7-7-------|-2-2-2-2-2-2-|-0------------|-(0)-----------0-0-0--7-|
 |Keyboard                                                                 |
e|-------------------|-------------|--------------|------------------------|
B|-------------------|-------------|--------------|------------------------|
G|-------------14----|-------------|--------------|------------------------|
D|-------------------|-------------|--------------|------------------------|
A|-------------------|-------------|--------------|------------------------|
D|-------------------|-------------|--------------|------------------------|

Play chorus x1

Outro
Guitar 1    .     .     .    .    .
e||-----------------------------------------------|
B||o(10)10-10----10----10---10---10------------10-|
G||--(9)-9--9-----9-----9----9----9-------------9-|
D||--(7)-7--7-----7-----7----7----7----0-----0--7-|
A||o-----------------------------------0-----0----|
D||------------------------------------0-----0----|
 |Guitar 2                                        |
e||-----------------------------------------------|
B||o-------------20\18-17p0-----------------------|
G||-----17------------------17p0-16p0-16h17p16----|
D||--19----19-19-------------------------------19-|
A||o----------------------------------------------|
D||-----------------------------------------------|
 |Keyboard                                        |
e||--15----------------------------------------12-|
B||o----------------------------------------------|
G||-----------------------------------------------|
D||-----------------------------------------------|
A||o----------------------------------------------|
D||-----------------------------------------------|

Guitar 1  .     .     .    .    .
e|----------------------------------------------|
B|(10)10-10----10----10---10---10-------------6-|
G|-(9)-9--9-----9-----9----9----9-------------5-|
D|-(7)-7--7-----7-----7----7----7----0-----0--3-|
A|-----------------------------------0-----0----|
D|-----------------------------------0-----0----|
 |Guitar 2                                      |
e|----------------------------------------------|
B|-------------20\18-17p0-----------------------|
G|----17------------------17p0-16p0-16h17p16----|
D|(19)---19-19-------------------------------19-|
A|----------------------------------------------|
D|----------------------------------------------|
 |Keyboard                                      |
e|(12)----------------------------------------8-|
B|----------------------------------------------|
G|----------------------------------------------|
D|----------------------------------------------|
A|----------------------------------------------|
D|----------------------------------------------|

Guitar 1  .     .     .    .    .
e|----------------------------------------------|
B|-(6)-6--6-----6-----6----6----6-------------8-|
G|-(5)-5--5-----5-----5----5----5-------------7-|
D|-(3)-3--3-----3-----3----3----3----0-----0--5-|
A|-----------------------------------0-----0----|
D|-----------------------------------0-----0----|
 |Guitar 2                                      |
e|----------------------------------------------|
B|-------------20\18-17p0-----------------------|
G|----17------------------17p0-16p0-16h17p16----|
D|(19)---19-19-------------------------------19-|
A|----------------------------------------------|
D|----------------------------------------------|
 |Keyboard                                      |
e|-(8)----------------------------------------5-|
B|----------------------------------------------|
G|----------------------------------------------|
D|----------------------------------------------|
A|----------------------------------------------|
D|----------------------------------------------|

Guitar 1  .     .     .    .    .
e|-----------------------------------------------||
B|-(8)-8--8-----8-----8----8----8---------------o||
G|-(7)-7--7-----7-----7----7----7-------------9--||
D|-(5)-5--5-----5-----5----5----5----0-----0--7--||
A|-----------------------------------0-----0--7-o||
D|-----------------------------------0-----0--7--||
 |Guitar 2                                       ||
e|-----------------------------------------------||
B|-------------20\18-17p0-----------------------o||
G|----17------------------17p0-16p0-16h17p16-----||
D|(19)---19-19-------------------------------19--||
A|----------------------------------------------o||
D|-----------------------------------------------||
 |Keyboard                                       ||
e|-(5)-------------------------------------------||
B|----------------------------------------------o||
G|-----------------------------------------------||
D|-----------------------------------------------||
A|----------------------------------------------o||
D|-----------------------------------------------||

Guitar 1
e|----------------------------------------------|
B|----------------------------------------------|
G|-(9)------------------------------------------|
D|-(7)------------------------------------------|
A|-(7)------------------------------------------|
D|-(7)------------------------------------------|
 |Guitar 2                                      |
e|----------------------------------------------|
B|-------------20\18-17p0-----------------------|
G|----17------------------17p0-16p0-16h17p16----|
D|(19)---19-19-------------------------------19-|
A|----------------------------------------------|
D|----------------------------------------------|
 |Keyboard                                      |
e|-(5)------------------------------------------|
B|----------------------------------------------|
G|----------------------------------------------|
D|----------------------------------------------|
A|----------------------------------------------|
D|----------------------------------------------|

Guitar 1
e|----------------------------------------------|
B|----------------------------------------------|
G|-(9)------------------------------------------|
D|-(7)------------------------------------------|
A|-(7)------------------------------------------|
D|-(7)------------------------------------------|
 |Guitar 2                                      |
e|----------------------------------------------|
B|-------------20\18-17p0-----------------------|
G|----17------------------17p0-16p0-16h17p16----|
D|(19)---19-19-------------------------------19-|
A|----------------------------------------------|
D|----------------------------------------------|
 |Keyboard                                      |
e|-(5)------------------------------------------|
B|----------------------------------------------|
G|----------------------------------------------|
D|----------------------------------------------|
A|----------------------------------------------|
D|----------------------------------------------|

Guitar 2
e||-----------------------------------------------||
B||o-------------20\18-17p0----------------------o||
G||-----17------------------17p0-16p0-16h17p16----||
D||-(19)---19-19-------------------------------19-||
A||o---------------------------------------------o||
D||-----------------------------------------------||

===============================================================================
5. Marches and Maneuvers

  Intro
  Guitar 1
e||---------------------------------|
B||o--------------------------------|
G||-7-7-7-7-7-7-7-7-9-9-9-9-9-9-9-9-|
D||-0-0-0-0-0-0-0-0-0-0-0-0-0-0-0-0-|
A||o--------------------------------|
D||---------------------------------|

Guitar 1
e|-------------------------------------------------||
B|------------------------------------------------o||
G|-10-10-10-10-10-10-10-10-10-10-10-10-10-10-10-10-||
D|--0--0--0--0--0--0--0--0--0--0--0--0--0--0--0--0-||
A|------------------------------------------------o||
D|-------------------------------------------------||

Guitar 1
e|---------------------------------|
B|---------------------------------|
G|-7-7-7-7-7-7-7-7-9-9-9-9-9-9-9-9-|
D|-9-9-9-9-9-9-9-9-9-9-9-9-9-9-9-9-|
A|-7-7-7-7-7-7-7-7-7-7-7-7-7-7-7-7-|
D|---------------------------------|
 |Guitar 2                         |
e|-0---------------0---------------|
B|-1---------------5---------------|
G|-2---------------4---------------|
D|-0---------------0---------------|
A|---------------------------------|
D|---------------------------------|

Guitar 1
e|-------------------------------------------------|
B|-------------------------------------------------|
G|-10-10-10-10-10-10-10-10-10-10-10-10-10-10-10-10-|
D|--9--9--9--9--9--9--9--9--9--9--9--9--9--9--9--9-|
A|--7--7--7--7--7--7--7--7--7--7--7--7--7--7--7--7-|
D|-------------------------------------------------|
 |Guitar 2                                         |
e|--0----------------------------------------------|
B|--5----------------------------------------------|
G|--4----------------------------------------------|
D|--0----------------------------------------------|
A|-------------------------------------------------|
D|-------------------------------------------------|

  Guitar 1
e|---------------------------------|
B|---------------------------------|
G|-7-7-7-7-7-7-7-7-9-9-9-9-9-9-9-9-|
D|-8-8-8-8-8-8-8-8-8-8-8-8-8-8-8-8-|
A|-8-8-8-8-8-8-8-8-8-8-8-8-8-8-8-8-|
D|-8-8-8-8-8-8-8-8-8-8-8-8-8-8-8-8-|
 |Guitar 2                         |
 | let ring----------------------| |
e|-------0---------------0---------|
B|-----1-----1---1-----1-----1---1-|
G|---2---------2-----2---------2---|
D|-0---------------0---------------|
A|---------------------------------|
D|---------------------------------|


Guitar 1
e|-------------------------------------------------|
B|-------------------------------------------------|
G|-10-10-10-10-10-10-10-10-10-10-10-10-10-10-10-10-|
D|--8--8--8--8--8--8--8--8--8--8--8--8--8--8--8--8-|
A|--8--8--8--8--8--8--8--8--8--8--8--8--8--8--8--8-|
D|--8--8--8--8--8--8--8--8--8--8--8--8--8--8--8--8-|
 |Guitar 2                                         |
 | let ring--------------------------------------| |
e|-----------0-----------------------0-------------|
B|--------1--------1-----1--------1--------1-----1-|
G|-----2--------------2--------2--------------2----|
D|--0-----------------------0----------------------|
A|-------------------------------------------------|
D|-------------------------------------------------|

 Guitar 1
e|---------------------------------|
B|---------------------------------|
G|-7-7-7-7-7-7-7-7-9-9-9-9-9-9-9-9-|
D|-0-0-0-0-0-0-0-0-0-0-0-0-0-0-0-0-|
A|---------------------------------|
D|---------------------------------|
 |Guitar 2                         |
e|---------------------------------|
B|---------------------------------|
G|-9-9-9-9-9-9-9-9-7-7-7-7-7-7-7-7-|
D|-0-0-0-0-0-0-0-0-0-0-0-0-0-0-0-0-|
A|---------------------------------|
D|---------------------------------|

Guitar 1
e|-------------------------------------------------|
B|--------------------------8--8--8--8--8--8--8--8-|
G|-10-10-10-10-10-10-10-10-10-10-10-10-10-10-10-10-|
D|--0--0--0--0--0--0--0--0--0--0--0--0--0--0--0--0-|
A|-------------------------------------------------|
D|-------------------------------------------------|
 |Guitar 2                                         |
e|-------------------------------------------------|
B|-------------------------------------------------|
G|--5--5--5--5--5--5--5--5--5--5--5--5--5--5--5--5-|
D|--0--0--0--0--0--0--0--0--0--0--0--0--0--0--0--0-|
A|-------------------------------------------------|
D|-------------------------------------------------|

  Guitar 1
e|---------------------------------|
B|---------------------------------|
G|-7-7-7-7-7-7-7-7-9-9-9-9-9-9-9-9-|
D|-9-9-9-9-9-9-9-9-9-9-9-9-9-9-9-9-|
A|-7-7-7-7-7-7-7-7-7-7-7-7-7-7-7-7-|
D|---------------------------------|
 |Guitar 2                         |
 | let ring----------------------| |
e|-------0---------------0---------|
B|-----1-----1---1-----1-----1---1-|
G|---2---------2-----2---------2---|
D|-0---------------0---------------|
A|---------------------------------|
D|---------------------------------|

Guitar 1
e|-------------------------------------------------|
B|-------------------------------------------------|
G|-10-10-10-10-10-10-10-10-10-10-10-10-10-10-10-10-|
D|--9--9--9--9--9--9--9--9--9--9--9--9--9--9--9--9-|
A|--7--7--7--7--7--7--7--7--7--7--7--7--7--7--7--7-|
D|-------------------------------------------------|
 |Guitar 2                                         |
 |  let ring-------------------------------------| |
e|-----------0-----------------------0-------------|
B|--------1--------1-----1--------1--------1-----1-|
G|-----2--------------2--------2--------------2----|
D|--0-----------------------0----------------------|
A|-------------------------------------------------|
D|-------------------------------------------------|

Guitar 1
e|---------------------------------|
B|---------------------------------|
G|-7-7-7-7-7-7-7-7-9-9-9-9-9-9-9-9-|
D|-8-8-8-8-8-8-8-8-8-8-8-8-8-8-8-8-|
A|-8-8-8-8-8-8-8-8-8-8-8-8-8-8-8-8-|
D|-8-8-8-8-8-8-8-8-8-8-8-8-8-8-8-8-|
 |Guitar 2                         |
e|---------------------------------|
B|---------------------------------|
G|-7-7-7-7-7-7-7-7-9-9-9-9-9-9-9-9-|
D|-0-0-0-0-0-0-0-0-0-0-0-0-0-0-0-0-|
A|---------------------------------|
D|---------------------------------|

Guitar 1
e|-------------------------------------------------|
B|-------------------------------------------------|
G|-10-10-10-10-10-10-10-10--10-10-10-10-10-10-10-10|
D|--8--8--8--8--8--8--8--8---8--8--8--8--8--8--8--8|
A|--8--8--8--8--8--8--8--8---8--8--8--8--8--8--8--8|
D|--8--8--8--8--8--8--8--8---8--8--8--8--8--8--8--8|
 |Guitar 2                                         |
e|-------------------------------------------------|
B|-------------------------------------------------|
G|-10-10-10-10-10-10-10-10-10-10-10-10-10-10-10-10-|
D|--0--0--0--0--0--0--0--0--0--0--0--0--0--0--0--0-|
A|-------------------------------------------------|
D|-------------------------------------------------|

  Guitar 1
e|------------------------------------------------|
B|------------------------------------------------|
G|12-12-12-12-12-12-12-12-12-12-12-12-12-12-12-12-|
D|-8--8--8--8--8--8--8--8--8--8--8--8--8--8--8--8-|
A|-8--8--8--8--8--8--8--8--8--8--8--8--8--8--8--8-|
D|-8--8--8--8--8--8--8--8--8--8--8--8--8--8--8--8-|
 |Guitar 2                                        |
e|------------------------------------------------|
B|------------------------------------------------|
G|-9--9--9--9--9--9--9--9--9--9--9--9--9--9--9--9-|
D|-0--0--0--0--0--0--0--0--0--0--0--0--0--0--0--0-|
A|------------------------------------------------|
D|------------------------------------------------|

Guitar 1
e|-----------------------------------------------|
B|-10-10-10-10-10-10-10-10-10-10-10-10-10-10-10--|
G|-12-12-12-12-12-12-12-12-12-12-12-12-12-12-12--|
D|--8--8--8--8--8--8--8--8--8--8--8--8--8--8--8--|
A|--8--8--8--8--8--8--8--8--8--8--8--8--8--8--8--|
D|--8--8--8--8--8--8--8--8--8--8--8--8--8--8--8--|
 |Guitar 2                                       |
e|-----------------------------------------------|
B|-----------------------------------------------|
G|-14-14-14-14-14-14-14-14-14-14-14-14-14-14-14--|
D|--0--0--0--0--0--0--0--0--0--0--0--0--0--0--0--|
A|-----------------------------------------------|
D|-----------------------------------------------|

Verse
Guitar 1 (Distortion)
e||---------------------------|--------------------------|
B||o-10-10-10-----------------|-10-10-10-----------------|
G||---7--7--7-9-9-9-9-9/10-10-|--7--7--7-9-9-9-9-9/10-10-|
D||---0--0--0-0-0-0-0-0--0--0-|--0--0--0-0-0-0-0-0--0--0-|
A||o--0--0--0-----------------|--0--0--0-----------------|
D||---0--0--0-----------------|--0--0--0-----------------|
 ||  let ring--------------|     let ring--------------| | x3
 ||Guitar 2 (Distortion)                                 |
e||---------------------------|----------------------------|
B||o-10-10-10-9-9-9-9-9/10-10-|-10-10-10-9-9-9-9-9/10-10---|
G||---7--7--7-9-9-9-9-9/10-10-|--7--7--7-9-9-9-9-9/10-10---|
D||---0--0--0-0-0-0-0-0--0--0-|--0--0--0-0-0-0-0-0--0--0---|
A||o--0--0--0-----------------|--0--0--0-------------------|
D||---0--0--0-----------------|--0--0--0-------------------|
     Let ring--------------|    let ring-------------------|

Guitar 1                                     x3
e|----------------------------------------------||
B|---------------------------------------------o||
G|-10-10-10--9--9--9-10---10-10-10--9--9--9-10--||
D|--8--8--8--8--8--8--8----8--8--8--8--8--8--8--||
A|--8--8--8--8--8--8--8----8--8--8--8--8--8--8-o||
D|--8--8--8--8--8--8--8----8--8--8--8--8--8--8--||
 |Guitar 2                                      ||
e|----------------------------------------------||
B|-10-10-10--9--9/10-10---10-10-10--9--9/10-10-o||
G|--7--7--7--9--9/10-10----7--7--7--9--9/10-10--||
D|----------------------------------------------||
A|---------------------------------------------o||
D|----------------------------------------------||

Guitar 1
e|---------------------12----------------12--------|
B|------------8-----------------8----------------8-|
G|-10---10--------10--------10------10-------10----|
D|-------------------------------------------------|
A|-------------------------------------------------|
D|-------------------------------------------------|
 |  let ring-------------------------------------| |
 |Guitar 2                                         |
e|-------------------------------------------------|
B|-------------------------------------------------|
G|10-10-10-10-10-10-10-10--10-10-10-10-10-10-10/12-|
D|-8--8--8-10-10-10-10-10--10-10-10-10--8--8-10/12-|
A|-8--8--8--8--8--8--8--8---8--8--8--8--8--8--8/10-|
D|-8--8--8--8--8--8--8--8---8--8--8--8--8--8--8/10-|

Guitar 1
e|--------------------------10---------------10----|
B|------------------8-----------------8------------|
G|-----10--9--------------9--------9--------9------|
D|-------------------------------------------------|
A|-------------------------------------------------|
D|-------------------------------------------------|
 |    let ring--------------------------------|    |
 |Guitar 2                                         |
e|-------------------------------------------------|
B|-------------------------------------------------|
G|--12-12-12-12-12-12-12-12-12-12-12-12-12-12-12\--|
D|--12-12-12-10-10-10-10-10-10-10-10-10-10-10-10\--|
A|--10-10-10-10-10-10-10-10-10-10-10-10-10-10-10\--|
D|--10-10-10-10-10-10-10-10-10-10-10-10-10-10-10\--|


Pre Chorus
Guitars 1 & 2  (Distortion)
e|--------6--6--6--6--6---|------------5---5---5---5---5-|
B|--------x--x--x--x--x---|------------x---x---x---x---x-|
G|--------3--3--3--3--3---|------------2---2---2---2---2-|
D|-0-0-0------------------|-0-0-0-0-0--------------------|
A|-0-0-0------------------|-0-0-0-0-0--------------------|
D|-0-0-0------------------|-0-0-0-0-0--------------------|

  Guitar 1
e|------------------------------------------------|
B|------------------------------------------------|
G|10-10-10-10-10-10-10-10-10-10-10-10-10-10-10/12-|
D|-8--8--8-10-10-10-10-10-10-10-10-10--8--8-10/12-|
A|-8--8--8--8--8--8--8--8--8--8--8--8--8--8--8/10-|
D|-8--8--8--8--8--8--8--8--8--8--8--8--8--8--8/10-|
 |Guitar 2                                        |
 | let ring-------------------------------------| |
e|---------------------12---------------12--------|
B|------------8----------------8----------------8-|
G|-10---10--------10-------10------10-------10----|
D|------------------------------------------------|
A|------------------------------------------------|
D|------------------------------------------------|

Guitar 1
e|------------------------------------------------|
B|------------------------------------------------|
G|-12-12-12-12-12-12-12-12-12-12-12-12-12-12-12\--|
D|-12-12-12-10-10-10-10-10-10-10-10-10-10-10-10\--|
A|-10-10-10-10-10-10-10-10-10-10-10-10-10-10-10\--|
D|-10-10-10-10-10-10-10-10-10-10-10-10-10-10-10\--|
 |Guitar 2                                        |
 |    let ring-------------------------------|    |
e|----------------------10------------------10----|
B|--------------8-----------------8---------------|
G|---10-----9-------9---------9---------9---------|
D|------------------------------------------------|
A|------------------------------------------------|
D|------------------------------------------------|


Chorus
  Guitars 1 & 2
e|---------6--6--6--6--6-|---------5--5--5--5--5-|
B|---------x--x--x--x--x-|---------x--x--x--x--x-|
G|---------3--3--3--3--3-|---------2--2--2--2--2-|
D|-0-0-0-0---------------|-0-0-0-0---------------|
A|-0-0-0-0---------------|-0-0-0-0---------------|
D|-0-0-0-0---------------|-0-0-0-0---------------|

  Guitar 1
e|---------6--6--6--6--6-|---------5--5--5--5--5-|
B|---------x--x--x--x--x-|---------x--x--x--x--x-|
G|---------3--3--3--3--3-|---------2--2--2--2--2-|
D|-0-0-0-0---------------|-0-0-0-0---------------|
A|-0-0-0-0---------------|-0-0-0-0---------------|
D|-0-0-0-0---------------|-0-0-0-0---------------|
 |Guitar 2                                       |
e|---------6--6--6--6--6-|---------5--5--5--5--5-|
B|---------6--6--6--6--6-|---------5--5--5--5--5-|
G|---------3--3--3--3--3-|---------2--2--2--2--2-|
D|-0-0-0-0-0--0--0--0--0-|-0-0-0-0-0--0--0--0--0-|
A|-0-0-0-0---------------|-0-0-0-0---------------|
D|-0-0-0-0---------------|-0-0-0-0---------------|

  Bridge
  Guitar 1
e|--------------------|-----------------------------------|
B|--------------------|-----------------------------------|
G|-2---2--2-2---2-2-2-|-4-----4--------4--4----4--4--4----|
D|-4---4--4-4---4-4-4-|-5-----5--------5--5----5--5--5----|
A|-4---4--4-4---4-4-4-|-5-----5--------5--5----5--5--5----|
D|-4---4--4-4---4-4-4-|-5-----5--------5--5----5--5--5----|
 |Guitar 2                                                |
e|--------------------|-----------------------------------|
B|--------------7-7---|-----------------------------------|
G|-6---6----6---6-6---|-6/11-11-11^12r11-11---11-11-11/14-|
D|-4---4----4---4-4-4-|-x/-x--x--x--------x----x--x--x--x-|
A|-4---4----4-------4-|-4/-9--9--9--------9----9--9--9/12-|
D|-4---4----4---------|-----------------------------------|

  Guitar 1
e|-----------------------------------|---------------------------|
B|-----------------------------------|---------------------------|
G|--7--7--7---7--7--7--7--7--7-----6-|--6-6-6-6-6-6-6-6-6-6-6-6--|
D|--9--9--9---9--9--9--9--9--9--0--7-|--7-7-7-7-7-7-7-7-7-7-7-7--|
A|--9--9--9---9--9--9--9--9--9-----7-|--7-7-7-7-7-7-7-7-7-7-7-7--|
D|--9--9--9---9--9--9--9--9--9-----7-|--7-7-7-7-7-7-7-7-7-7-7-7--|
 |Guitar 2                                                       |
e|-----------------------------------|---------------------------|
B|-----------------------------------|---------------------------|
G|-14-14-14--14-14-14-14-14-14-14\11-|-11\9-9-9---9-9-9-9-9-9----|
D|--x--x--x---x--x--x--x--x--x--x\-x-|--x\x-x-x---x-x-x-x-x-x----|
A|-12-12-12--12-12-12-12-12-12-12\-9-|--9\7-7-7---7-7-7-7-7-7----|
D|-----------------------------------|---------------------------|

  Guitar 1
e|--------------------|-----------------------|
B|--------------------|-----------------------|
G|-2---2--2-2---2-2/4-|-4---4-4---4-4----4-4/-|
D|-4---4--4-4---4-4/5-|-5---5-5---5-5----5-5/-|
A|-4---4--4-4---4-4/5-|-5---5-5---5-5----5-5/-|
D|-4---4--4-4---4-4/5-|-5---5-5---5-5----5-5/-|
 |Guitar 2                                    |
e|--------------------|-----------------------|
B|--------------------|-----------------------|
G|-6-6-6--6-6-6---6-6-|-6/7-7-7--7-7--7--7-7/-|
D|-4-4-4--4-4-4---x-x-|-x/x-x-x--x-x--x--x-x/-|
A|-4-4-4--4-4-4---4-4-|-4/5-5-5--5-5--5--5-5/-|
D|-4-4-4--4-4-4-------|-----------------------|

  Guitar 1
e|-----------------------------------------------|
B|-----------------------------------------------|
G|-7---7---7---7---7---7---7---7---7---7---7---7-|
D|-9---9---9---9---9---9---9---9---9---9---9---9-|
A|-9---9---9---9---9---9---9---9---9---9---9---9-|
D|-9---9---9---9---9---9---9---9---9---9---9---9-|
 |Guitar 2                                               |
e|-----------------------------------------------|
B|-----------------------------------------------|
G|1919191919191919191919191919191919191919191919-|
D|-x-x-x-x-x-x-x-x-x-x-x-x-x-x-x-x-x-x-x-x-x-x-x-|
A|1717171717171717171717171616161616161616161617-|
D|-----------------------------------------------|

Guitar 1
e|-----------------------------------------------|
B|-----------------------------------------------|
G|-7---7---7---7---7---7---7------7---7--7--7----|
D|-8---8---8---8---8---8---8------8---8--8--8----|
A|-8---8---8---8---8---8---8------8---8--8--8----|
D|-8---8---8---8---8---8---8------8---8--8--8----|
 |Guitar 2                                       |
e|-----------------------------------------------|
B|-----------------------------------------------|
G|19191919191919191919212121-21^^r21-21----21----|
D|-x-x-x-x-x-x-x-x-x-x-x-x-x----------x-----x--0-|
A|17171717171717171717191919---------19----19--0-|
D|---------------------------------------------0-|


 Verse
  Guitar 1                       let ring--------------------|
e|----------------------------|------------------------------|
B|----------------------------|-10-10-10---------------------|
G|----------------------------|--7--7--7-9-9-9-9-9/10-10-----|
D|----------------------------|--0--0--0-0-0-0-0-0--0--0-----|
A|----------------------------|--0--0--0---------------------|
D|----------------------------|--0--0--0---------------------|
 |Guitar 2                                                 |
 | let ring--------------------------------------------|   |
e|----------------------------|----------------------------|
B|-10-10-10-9-9-9-9-9/10-10---|-10-10-10-9-9-9-9-9/10-10---|
G|--7--7--7-9-9-9-9-9/10-10---|--7--7--7-9-9-9-9-9/10-10---|
D|--0--0--0-0-0-0-0-0--0--0---|--0--0--0-0-0-0-0-0--0--0---|
A|--0--0--0-------------------|--0--0--0-------------------|
D|--0--0--0-------------------|--0--0--0-------------------|


  Guitar 1
   Let ring-------------------------------------------------------------------|
e|----------------------------|-----------------------------------------------|
B|-10-10-10-------------------|-----------------------------------------------|
G|--7--7--7-9-9-9-9-9/10-10---|-10-10-10--9--9--9-10---10-10-10--9--9--9-10---|
D|--0--0--0-0-0-0-0-0--0--0---|--8--8--8--8--8--8--8----8--8--8--8--8--8--8---|
A|--0--0--0-------------------|--8--8--8--8--8--8--8----8--8--8--8--8--8--8---|
D|--0--0--0-------------------|--8--8--8--8--8--8--8----8--8--8--8--8--8--8---|
 |Guitar 2                                                                  |
 | let ring---------------|                                                 |
e|----------------------------|---------------------------------------------|
B|-10-10-10-9-9-9-9-9/10-10---|-10-10-10--9--9-10-10---10-10-10--9--9-10-10-|
G|--7--7--7-9-9-9-9-9/10-10---|--7--7--7--9--9-10-10----7--7--7--9--9-10-10-|
D|--0--0--0-0-0-0-0-0--0--0---|--0--0--0--0--0--0--0----0--0--0--0--0--0--0-|
A|--0--0--0-------------------|---------------------------------------------|
D|--0--0--0-------------------|---------------------------------------------|

  Guitar 1
   Let ring----------------------------------------------|
e|--------------------------|----------------------------|
B|-10-10-10-----------------|-10-10-10-------------------|
G|--7--7--7-9-9-9-9-9/10-10-|--7--7--7-9-9-9-9-9/10-10---|
D|--0--0--0-0-0-0-0-0--0--0-|--0--0--0-0-0-0-0-0--0--0---|
A|--0--0--0-----------------|--0--0--0-------------------|
D|--0--0--0-----------------|--0--0--0-------------------|
 | Guitar 2                                            |
 |  let ring-----------------------------------------| |
e|--------------------------|--------------------------|
B|-10-10-10-9-9-9-9-9/10-10-|-10-10-10-9-9-9-9-9/10-10-|
G|--7--7--7-9-9-9-9-9/10-10-|--7--7--7-9-9-9-9-9/10-10-|
D|--0--0--0-0-0-0-0-0--0--0-|--0--0--0-0-0-0-0-0--0--0-|
A|--0--0--0-----------------|--0--0--0-----------------|
D|--0--0--0-----------------|--0--0--0-----------------|

Guitar 1
e|---------------------------------------------|
B|---------------------------------------------|
G|-10-10-10--9--9--9-10---10-10-10--9--9--9-10-|
D|--8--8--8--8--8--8--8----8--8--8--8--8--8--8-|
A|--8--8--8--8--8--8--8----8--8--8--8--8--8--8-|
D|--8--8--8--8--8--8--8----8--8--8--8--8--8--8-|
 |Guitar 2
e|---------------------------------------------|
B|-10-10-10--9--9/10-10---10-10-10--9--9/10-10-|
G|--7--7--7--9--9/10-10----7--7--7--9--9/10-10-|
D|---------------------------------------------|
A|---------------------------------------------|
D|---------------------------------------------|

Guitar 1
    Let ring-------------------------------------------------|
e|----------------------------|------------------------------|
B|-10-10-10-------------------|-10-10-10---------------------|
G|--7--7--7-9-9-9-9-9/10-10---|--7--7--7-9-9-9-9-9/10-10-----|
D|--0--0--0-0-0-0-0-0--0--0---|--0--0--0-0-0-0-0-0--0--0-----|
A|--0--0--0-------------------|--0--0--0---------------------|
D|--0--0--0-------------------|--0--0--0---------------------|
 |Guitar 2                                                 |
 |  let ring-------------------------------------------|   |
e|----------------------------|----------------------------|
B|-10-10-10-9-9-9-9-9/10-10---|-10-10-10-9-9-9-9-9/10-10---|
G|--7--7--7-9-9-9-9-9/10-10---|--7--7--7-9-9-9-9-9/10-10---|
D|--0--0--0-0-0-0-0-0--0--0---|--0--0--0-0-0-0-0-0--0--0---|
A|--0--0--0-------------------|--0--0--0-------------------|
D|--0--0--0-------------------|--0--0--0-------------------|

  Guitar 1
    Let ring-----------------------------------------|
e|---------------------12----------------12----------|
B|------------8-----------------8----------------8---|
G|-10---10--------10--------10------10-------10------|
D|---------------------------------------------------|
A|---------------------------------------------------|
D|---------------------------------------------------|
 | Guitar 2                                        |
e|-------------------------------------------------|
B|-------------------------------------------------|
G|10-10-10-10-10-10-10-10--10-10-10-10-10-10-10/12-|
D|-8--8--8-10-10-10-10-10--10-10-10-10--8--8-10/12-|
A|-8--8--8--8--8--8--8--8---8--8--8--8--8--8--8/10-|
D|-8--8--8--8--8--8--8--8---8--8--8--8--8--8--8/10-|

Guitar 1
      Let ring--------------------------------------|
e|----------------------10------------------10------|
B|--------------8-----------------8-----------------|
G|---10-----9-------9---------9---------9-----------|
D|--------------------------------------------------|
A|--------------------------------------------------|
D|--------------------------------------------------|
 |Guitar 2                                        |
e|------------------------------------------------|
B|------------------------------------------------|
G|-12-12-12-12-12-12-12-12-12-12-12-12-12-12-12\--|
D|-12-12-12-10-10-10-10-10-10-10-10-10-10-10-10\--|
A|-10-10-10-10-10-10-10-10-10-10-10-10-10-10-10\--|
D|-10-10-10-10-10-10-10-10-10-10-10-10-10-10-10\--|

Pre-Chorus
Guitars 1, 2
e|---------6--6--6--6--6-|------------5--5--5--5--5-|
B|---------x--x--x--x--x-|------------x--x--x--x--x-|
G|---------3--3--3--3--3-|------------2--2--2--2--2-|
D|-0-0-0-----------------|-0-0-0-0-0----------------|
A|-0-0-0-----------------|-0-0-0-0-0----------------|
D|-0-0-0-----------------|-0-0-0-0-0----------------|

Guitar 1
e|------------------------------------------------|
B|------------------------------------------------|
G|10-10-10-10-10-10-10-10-10-10-10-10-10-10-10/12-|
D|-8--8--8-10-10-10-10-10-10-10-10-10--8--8-10/12-|
A|-8--8--8--8--8--8--8--8--8--8--8--8--8--8--8/10-|
D|-8--8--8--8--8--8--8--8--8--8--8--8--8--8--8/10-|
 |Guitar 2                                        |
 |  let ring------------------------------------| |
e|---------------------12---------------12--------|
B|------------8----------------8----------------8-|
G|-10---10--------10-------10------10-------10----|
D|------------------------------------------------|
A|------------------------------------------------|
D|------------------------------------------------|

Guitar 1
e|------------------------------------------------|
B|------------------------------------------------|
G|-12-12-12-12-12-12-12-12-12-12-12-12-12-12-12\--|
D|-12-12-12-10-10-10-10-10-10-10-10-10-10-10-10\--|
A|-10-10-10-10-10-10-10-10-10-10-10-10-10-10-10\--|
D|-10-10-10-10-10-10-10-10-10-10-10-10-10-10-10\--|
 |Guitar 2                                        |
 |    let ring-------------------------------|    |
e|----------------------10------------------10----|
B|--------------8-----------------8---------------|
G|---10-----9-------9---------9---------9---------|
D|------------------------------------------------|
A|------------------------------------------------|
D|------------------------------------------------|


Chorus
Guitars 1 & 2
e|----------6--6--6--6--6-|----------5--5--5--5--5-|
B|----------x--x--x--x--x-|----------x--x--x--x--x-|
G|----------3--3--3--3--3-|----------2--2--2--2--2-|
D|-0-0-0-0----------------|-0-0-0-0----------------|
A|-0-0-0-0----------------|-0-0-0-0----------------|
D|-0-0-0-0----------------|-0-0-0-0----------------|

  Guitar 1
e|----------6--6--6--6--6-|----------5--5--5--5--5-|
B|----------x--x--x--x--x-|----------x--x--x--x--x-|
G|----------3--3--3--3--3-|----------2--2--2--2--2-|
D|-0-0-0-0----------------|-0-0-0-0----------------|
A|-0-0-0-0----------------|-0-0-0-0----------------|
D|-0-0-0-0----------------|-0-0-0-0----------------|
 | Guitar 2                                        |
e|----------6--6--6--6--6-|----------5--5--5--5--5-|
B|----------6--6--6--6--6-|----------5--5--5--5--5-|
G|----------3--3--3--3--3-|----------2--2--2--2--2-|
D|-0-0-0-0--0--0--0--0--0-|-0-0-0-0--0--0--0--0--0-|
A|-0-0-0-0----------------|-0-0-0-0----------------|
D|-0-0-0-0----------------|-0-0-0-0----------------|

  Interlude
  Guitar 1
e|---------------------------|--------------------------------|
B|---------------------------|--------------------------------|
G|---17-17-17-----15-15-15---|---14-14-14---12-12-12-12-12-14-|
D|-0-12-12-12---0-12-12-12---|-0-12-12-12---12-12-12-12-12-12-|
A|-0------------0------------|-0---------------------------12-|
D|-0------------0------------|-0------------------------------|
 |Guitar 2                                                    |
e|---------------------------|--------------------------------|
B|---------------------------|--------------------------------|
G|---17--0-17q^---15--0-15q^-|---14--0-14q^-------------------|
D|-0--x--0--x---0--x--0--x---|-0--x--0--x---12-12-12-12-12/14-|
A|-0-15----15q^-0-13----13q^-|-0-12----12q^-10-10-10-10-10/12-|
D|-0------------0------------|-0------------10-10-10-10-10/12-|

  Guitar 1
e|------------------------------------------------|
B|------------------------------------------------|
G|10-10-10--9-10-10-10-10-10-10-10-10-10-/12-12---|
D|-8--8--8--8-10-10-10-10-10-10-10-10-10-/12-12---|
A|-8--8--8--8--8--8--8--8--8--8--8--8--8-/10-10---|
D|-8--8--8--8--8--8--8--8--8--8--8--8--8-/10-10---|
 |Guitar 2                                        |
e|------------------------------------------------|
B|------------------------------------------------|
G|10-10-10--9-10-10-10-10-10-10-10--9-10--10-10-10|
D|-8--8--8--8--8--8--8--8--8--8--8--8--8---8--8--8|
A|-8--8--8--8--8--8--8--8--8--8--8--8--8---8--8--8|
D|------------------------------------------------|

Guitar 1
e|-------------------------------------------------|
B|-------------------------------------------------|
G|-10-10-10--9-10-10-10-10-10-10-10-10-10-10-10-10-|
D|-10-10-10--8-10-10-10-10-10-10-10-10-10-10-10-10-|
A|--8--8--8--8--8--8--8--8--8--8--8--8--8--8--8--8-|
D|--8--8--8--8--8--8--8--8--8--8--8--8--8--8--8--8-|
 |Guitar 2                                         |
e|-------------------------------------------------|
B|-------------------------------------------------|
G|-10-10-10--9-10-10-10-10-10-10-10--9-10-10-10-10-|
D|--8--8--8--8--8--8--8--8--8--8--8--8--8--8--8--8-|
A|--8--8--8--8--8--8--8--8--8--8--8--8--8--8--8--8-|
D|-------------------------------------------------|

  Bridge
  Guitar 1
e|-------------------------------------------------|
B|-------------------------------------------------|
G|-10-10-10--9--9--9--7--7-10-10-10--9--9--9--7--7-|
D|-10-10-10-10-10-10-10-10-10-10-10-10-10-10-10-10-|
A|-------------------------------------------------|
D|-------------------------------------------------|
 |Guitar 2                                         |
e|-------------------------------------------------|
B|-------------------------------------------------|
G|-10-p9-------------------10-p9-------------------|
D|-------12-10-------------------12-10-------------|
A|-------------12-10-------------------12-10-------|
D|-------------------12-10-------------------12-10-|

Guitar 1
e|-------------------------------------------------|
B|-------------------------------------------------|
G|-10-10-10--9--9--9--7--7-10-10-10--9--9--9--7--7-|
D|--9--9--9--9--9--9--9--9--9--9--9--9--9--9--9--9-|
A|-------------------------------------------------|
D|-------------------------------------------------|
 |Guitar 2                                         |
e|-------------------------------------------------|
B|-------------------------------------------------|
G|-10-p9--9----------------10-p9--9----------------|
D|----------12-10-------------------12-10----------|
A|----------------12-10-------------------12-10----|
D|----------------------12----------------------12-|

 Guitar 1
e|-------------------------------------------------|
B|-------------------------------------------------|
G|-10-10-10--9--9--9--7--7-10-10-10--9--9--9--7--7-|
D|--8--8--8--8--8--8--8--8--8--8--8--8--8--8--8--8-|
A|-------------------------------------------------|
D|-------------------------------------------------|
 |Guitar 2                                         |
e|-------------------------------------------------|
B|-------------------------------------------------|
G|-10-p9-------------------10-p9-------------------|
D|-------12-10-------------------12-10-------------|
A|-------------12-10-------------------12-10-------|
D|-------------------12-10-------------------12-10-|

Guitar 1
e|-------------------------------------------------|
B|-10-10-10-10-10-10-10--8--8--8--8--8--8--8--8--8-|
G|-10-10-10-10-10-10-10-10-10-10-10-10-10-10-10-10-|
D|-------------------------------------------------|
A|-------------------------------------------------|
D|-------------------------------------------------|
 |Guitar 2
e|-------------------------------------------------|
B|-------------------------------------------------|
G|-10-p9--9----------------10-p9--9----------------|
D|----------12-10-------------------12-10----------|
A|----------------12-10-------------------12-10----|
D|----------------------12----------------------12-|

 Guitar 1
e|-------------------------------------------------|
B|-------------------------------------------------|
G|-10-10-10--9--9--9--7--7-10-10-10--9--9--9--7--7-|
D|-10-10-10-10-10-10-10-10-10-10-10-10-10-10-10-10-|
A|-------------------------------------------------|
D|-------------------------------------------------|
 |Guitar 2                                         |
e|-------------------------------------------------|
B|-------------------------------------------------|
G|-10-p9-------------------10-p9-------------------|
D|-------12-10-------------------12-10-------------|
A|-------------12-10-------------------12-10-------|
D|-------------------12-10-------------------12-10-|

Guitar 1
e|-------------------------------------------------|
B|-------------------------------------------------|
G|-10-10-10--9--9--9--7--7-10-10-10--9--9--9--7--7-|
D|--9--9--9--9--9--9--9--9--9--9--9--9--9--9--9--9-|
A|-------------------------------------------------|
D|-------------------------------------------------|
 |Guitar 2                                         |
e|-------------------------------------------------|
B|-------------------------------------------------|
G|-10-p9--9----------------10-p9--9----------------|
D|----------12-10-------------------12-10----------|
A|----------------12-10-------------------12-10----|
D|----------------------12----------------------12-|

  Guitar 1
e|-------------------------------------------------|
B|-------------------------------------------------|
G|-10-10-10--9--9--9--7--7-10-10-10--9--9--9--7--7-|
D|--8--8--8--8--8--8--8--8--8--8--8--8--8--8--8--8-|
A|-------------------------------------------------|
D|-------------------------------------------------|
 |Guitar 2                                         |
e|-------------------------------------------------|
B|-------------------------------------------------|
G|-10-p9-------------------10-p9-------------------|
D|-------12-10-------------------12-10-------------|
A|-------------12-10-------------------12-10-------|
D|-------------------12-10-------------------12-10-|

Guitar 1
e|-------------------------------------------------|
B|-10-10-10-10-10-10-10--8--8--8--8--8--8--8--8--8-|
G|-10-10-10-10-10-10-10-10-10-10-10-10-10-10-10-10-|
D|-------------------------------------------------|
A|-------------------------------------------------|
D|-------------------------------------------------|
 |Guitar 2
e|-------------------------------------------------|
B|-------------------------------------------------|
G|-12-10--9-12-10--9-12-10--9-12-10--9-12-10--9-12-|
D|-------------------------------------------------|
A|-------------------------------------------------|
D|-------------------------------------------------|

  Guitar 1
e|--0--0--0--0--0--0--0--0--0--0--0--0--0--0--0--0-|
B|-10-10-10-10-10-10-10-10-13-13-13-13-13-13-13-13-|
G|-------------------------------------------------|
D|-------------------------------------------------|
A|-------------------------------------------------|
D|-------------------------------------------------|
 |Guitar 2                                         |
e|-------------------------------------------------|
B|-10-10-10-10-10-10-10-10--8--8--8--8--8--8--8--8-|
G|-10-10-10-10-10-10-10-10-10-10-10-10-10-10-10-10-|
D|-10-10-10-10-10-10-10-10-10-10-10-10-10-10-10-10-|
A|-------------------------------------------------|
D|-------------------------------------------------|

Guitar 1
e|--0--0--0--0--0--0--0--0--0--0--0--0--0--0--0--0-|
B|--5--5--5--5--5--5--5--5--6--6--6--6--6--6--6--6-|
G|-------------------------------------------------|
D|-------------------------------------------------|
A|-------------------------------------------------|
D|-------------------------------------------------|
 |Guitar 2                                         |
e|-------------------------------------------------|
B|--8--8--8--8--8-10-10-10-10-10-10-10-10--8--8--8-|
G|-10-10-10-10-10-10-10-10-10-10-10-10-10-10-10-10-|
D|--9--9--9--9--9--9--9--9--9--9--9--9--9--9--9--9-|
A|-------------------------------------------------|
D|-------------------------------------------------|

 Guitar 1
e|--0--0--0--0--0--0--0--0--0--0--0--0--0--0--0--0-|
B|-10-10-10-10-10-10-10-10-13-13-13-13-13-13-13-13-|
G|-------------------------------------------------|
D|-------------------------------------------------|
A|-------------------------------------------------|
D|-------------------------------------------------|
 |Guitar 2                                         |
e|-------------------------------------------------|
B|--8--8--8--8--8--8--8-10-10-10-10-10-10--8--8--8-|
G|-10-10-10-10-10-10-10-10-10-10-10-10-10-10-10-10-|
D|--8--8--8--8--8--8--8--8--8--8--8--8--8--8--8--8-|
A|-------------------------------------------------|
D|-------------------------------------------------|

Guitar 1
e|--0--0--0--0--0--0--0--0--0--0--0--0--0--0--0--0-|
B|--5--5--5--5--5--5--5--5--6--6--6--6--6--6--6--6-|
G|-------------------------------------------------|
D|-------------------------------------------------|
A|-------------------------------------------------|
D|-------------------------------------------------|
 |Guitar 2                                         |
e|--0--0--0--0--0--0--0--0--8--8--8--8--8--8--8--8-|
B|-10-10-10-10-10-10-10-10--8--8--8--8--8--8--8--8-|
G|-10-10-10-10-10-10-10-10-10-10-10-10-10-10-10-10-|
D|-------------------------------------------------|
A|-------------------------------------------------|
D|-------------------------------------------------|

  Guitar 1
      Let ring-------------------------------|
e||------------------------------------------|
B||o-10--10--10---13---13---13---13---13-----|
G||---x---x---x----x----x----x----x----x-----|
D||---7p0-7p0-7p0-10p0-10p0-10p0-10p0-10p0---|
A||o-----------------------------------------|
D||------------------------------------------|

Guitar 1
    Let ring---------------------------| x4
e|-------------------------------------|
B|-5---5---5---6---6---6---6---6---o---|
G|-x---x---x---x---x---x---x---x-------|
D|-2p0-2p0-2p0-3p0-3p0-3p0-3p0-3p0-----|
A|---------------------------------o---|
D|-------------------------------------|

Guitar 1
e|-------------------------------|---------------------------------|
B|-------------------------------|---------------------------------|
G|-9-9-9---9-9-9-9-9-9-9-9-9-9-9-|-9-9-9-9-9-9-9-9-9-9-9-9-9-9-9-9-|
D|-x-x-x---x-x-x-x-x-x-x-x-x-x-x-|-x-x-x-x-x-x-x-x-x-x-x-x-x-x-x-x-|
A|-7-7-7---7-7-7-7-7-7-7-7-7-7-7-|-7-7-7-7-7-7-7-7-7-7-7-7-7-7-7-7-|
D|-------------------------------|---------------------------------|

  Guitar 1
e||--------0---------------0---------|-------0---------------0-------------|
B||o-----1-----1---1-----1-----1---1-|-----1-----1---1-----1-----1---1-o---|
G||----2---------2-----2---------2---|---2---------2-----2---------2-------|
D||--0---------------0---------------|-0---------------0-------------------|
A||o---------------------------------|---------------------------------o---|
D||----------------------------------|-------------------------------------|
   Let ring----------------------------------------------------------------|

  Outro
  Guitar 1
e|---------------------------|----------------------------|
B|---------------------------|----------------------------|
G|---10--0-10q^---12--0-12q^-|---14--0-14-17-17-17-17-17--|
D|-0--x--0--x---0--x--0--x---|-0--x--0--x--x--x--x--x--x--|
A|-0--8--0--8q^-0-10--0-10q^-|-0-12--0-12-15-15-15-15-15--|
D|-0------------0------------|-0--------------------------|
 |Guitar 2                                                |
e|---------------------------|----------------------------|
B|---------------------------|----------------------------|
G|---10-10-10-----12-12-12---|---14-14-14--7--7--7--7--7--|
D|-0--x--0--x---0--x--0--x---|-0--x--0--x--5--5--5--5--5--|
A|-0--8--0--8---0-10--0-10---|-0-12--0-12--3--3--3--3--3--|
D|-0------------0------------|-0-----0--------------------|

===============================================================================
6. Asleep In the Chapel

Intro
Guitar 1
e|-2-2---2-2---2-2-|---0-0---------|-2-2---2-2---2-2-|---0-0---------|
B|-3-3---3-3---0-0-|---0-0---------|-3-3---3-3---0-0-|---0-0---------|
G|-4-4---4-4---0-0-|---0-0---------|-4-4---4-4---0-0-|---0-0---------|
D|-4-4---4-4---4-4-|---0-0---------|-4-4---4-4---4-4-|---0-0---------|
A|-----------------|---------------|-----------------|---------------|
D|-----------------|---------------|-----------------|---------------|
 |Guitar 2                                                           |
 | let ring---------------------------------------------|            |
e|-----------------|---------------|-------0---------|-(0)-----------|
B|---2-3-----------|-(3)-----------|---2h3-----------|---------------|
G|-4---------------|---------------|-4---------------|---------------|
D|-----------------|---------------|-----------------|---------------|
A|-----------------|---------------|-----------------|---------------|
D|-----------------|---------------|-----------------|---------------|

Guitar 1
e|-2-2---2-2---2-2-|---0-0----------|-2-2---2-2---2-2-|---0-0---0-----|(0)----|
B|-3-3---3-3---0-0-|---0-0----------|-3-3---3-3---0-0-|---0-0---2-----|(2)----|
G|-4-4---4-4---0-0-|---0-0----------|-4-4---4-4---0-0-|---0-0---------|-------|
D|-4-4---4-4---4-4-|---0-0----------|-4-4---4-4---4-4-|---0-0---------|-------|
A|-----------------|----------------|-----------------|---------------|-------|
D|-----------------|----------------|-----------------|---------------|-------|
 |Guitar 2                                                                    |
 | let ring-------------------------------------------------------------|     |
e|-----------------|--------2h3p2p0-|-----------------|---------0-----|(0)----|
B|---2-3-----------|-(3)------------|---2-3-----------|---------2-----|(2)----|
G|-4---------------|----------------|-4-----------2---|-(2)-----------|-------|
D|-----------------|----------------|-----------------|---------------|-------|
A|-----------------|----------------|-----------------|---------------|-------|
D|-----------------|----------------|-----------------|---------------|-------|

Pre-verse
Guitar 1
e|------------------------|------------------------|
B|------------------------|------------------------|
G|------------------------|-------------------7-/9-|
D|------------------------|-------------------x--x-|
A|------------------------|-------------------5-/7-|
D|------------------------|------------------------|
 |Guitar 2                                         |
e|------------------------|------------------------|
B|------------------------|------------------------|
G|11-11-11-11-11-11-11-11-|11-11-11-11-11-11-11-11-|
D|-9--9--9--9--9--9--9--9-|-9--9--9--9--9--9--9--9-|
A|-9--9--9--9--9--9--9--9-|-9--9--9--9--9--9--9--9-|
D|-9--9--9--9--9--9--9--9-|-9--9--9--9--9--9--9--9-|

Guitar 1
e|------------------------|------------------------|
B|------------------------|------------------------|
G|-9/11-11-11-11-11-11-11-|11-11-11-11-11-11-11/12-|
D|-x--x--x--x--x--x--x--x-|-x--x--x--x--x--x--x--x-|
A|-7/-9--9--9--9--9--9--9-|-9--9--9--9--9--9--9/10-|
D|------------------------|------------------------|
 |Guitar 2                                         |
e|------------------------|------------------------|
B|------------------------|------------------------|
G|11-11-11-11-11-11-11-11-|11-11-11-11-11-11-11-11-|
D|-9--9--9--9--9--9--9--9-|-9--9--9--9--9--9--9--9-|
A|-9--9--9--9--9--9--9--9-|-9--9--9--9--9--9--9--9-|
D|-9--9--9--9--9--9--9--9-|-9--9--9--9--9--9--9--9-|

Guitar 1
e|------------------------|------------------------|
B|------------------------|------------------------|
G|12-12-12-12-12-12-11-11-|11-11-11-11-11-11-11/14-|
D|-x--x--x--x--x--x--x--x-|-x--x--x--x--x--x--x--x-|
A|10-10-10-10-10-10--9--9-|-9--9--9--9--9--9--9/12-|
D|------------------------|------------------------|
 |Guitar 2                                         |
e|------------------------|------------------------|
B|------------------------|------------------------|
G|-7--7--7--7--7--7--7--7-|-7--7--7--7--7--7--7--7-|
D|-5--5--5--5--5--5--5--5-|-5--5--5--5--5--5--5--5-|
A|-5--5--5--5--5--5--5--5-|-5--5--5--5--5--5--5--5-|
D|-5--5--5--5--5--5--5--5-|-5--5--5--5--5--5--5--5-|

Guitar 1
e|----------------------|--------------|
B|----------------------|--------------|
G|14-14-16\14-14-14\6-6-|-6-6-6-6-6-7--|
D|-x--x--x--x--x--x-x-x-|-x-x-x-x-x-x--|
A|12-12-14\12-12-12\4-4-|-4-4-4-4-4-5--|
D|----------------------|--------------|
 |Guitar 2                             |
e|----------------------|--------------|
B|----------------------|--------------|
G|-7--7--7--7--7--7-7-7-|-7-7-7-7-7-6--|
D|-5--5--5--5--5--5-5-5-|-5-5-5-5-5-4--|
A|-5--5--5--5--5--5-5-5-|-5-5-5-5-5-4--|
D|-5--5--5--5--5--5-5-5-|-5-5-5-5-5-4--|

Verse
Guitar 1
     Let ring---------------------------------------------------------------|
e|-----------------|-----------------|-----------------|--------------------|
B|-----------------|---------8p7-7-7-|-----------------|---------10p7-7-7---|
G|-----7---7---7---|-9p7---7---------|-----7---7---7---|-9p7---7------------|
D|---9---9---9---9-|-----------------|-------0---0---0-|--------------------|
A|-----------------|-----------------|---9-------------|--------------------|
D|-----------------|-----------------|-----------------|--------------------|
 |Guitar 2                                                                |
e|-----------------|-----------------|-----------------|------------------|
B|---0-0-0-0-0-0-0-|---0-0-0-0-0-0-0-|---0-0-0-0-0-0-0-|---0-0-0--0-0-0-0-|
G|---4-4-4-4-4-4-4-|---4-4-4-4-4-4-4-|---4-4-4-4-4-4-4-|---4-4-4--4-4-4-4-|
D|---4-4-4-4-4-4-4-|---4-4-4-4-4-4-4-|---5-5-5-5-5-5-5-|---5-5-5--5-5-5-5-|
A|-----------------|-----------------|-----------------|------------------|
D|-----------------|-----------------|-----------------|------------------|

Guitar 1
     Let ring---------------------------------------------------------------|
e|-----------------|-----------------|-----------------|--------------------|
B|-----------------|---------8p7-7-7-|-----------------|---------10p7-7-7---|
G|-----7---7---7---|-9p7---7---------|-----7---7---7---|-9p7---7------7-7---|
D|---9---9---9---9-|-----------------|-------0---0---0-|--------------------|
A|-----------------|-----------------|---9-------------|--------------------|
D|-----------------|-----------------|-----------------|--------------------|
 |Guitar 2                                                                |
e|-----------------|-----------------|-----------------|------------------|
B|---0-0-0-0-0-0-0-|---0-0-0-0-0-0-0-|---0-0-0-0-0-0-0-|---0-0-0--0-0-0-0-|
G|---4-4-4-4-4-4-4-|---4-4-4-4-4-4-4-|---4-4-4-4-4-4-4-|---4-4-4--4-4-4-4-|
D|---4-4-4-4-4-4-4-|---4-4-4-4-4-4-4-|---5-5-5-5-5-5-5-|---5-5-5--5-5-5-5-|
A|-----------------|-----------------|-----------------|------------------|
D|-----------------|-----------------|-----------------|------------------|

Pre-chorus
Guitar 1
e|--------------------|------------------|--------------------|-------------0--0-|
B|--------------------|------------------|----------------10--|(10)-10-10--10-10-|
G|11-11-11-11-----7-7-|(7)-7-7--11/12\11-|11-11-11-11------7--|-(7)--7--7---7--7-|
D|-9--9--9--9-x-x-x-x-|----x-x---x-------|-9--9--9--9-x-x--0--|-(0)--------------|
A|-9--9--9--9-x-x-5-5-|(5)-5-5---9/10\-9-|-9--9--9--9-x-x--0--|-(0)--------------|
D|-9--9--9--9-x-x-----|------------------|-9--9--9--9-x-x--0--|-(0)--------------|

Guitar 1
e|-------------------------|------------------------|
B|-------------------------|------------------------|
G|-12-12-12-12-12-12-12-11-|-11-11-11-11-11/14-14---|
D|--x--x--x--x--x--x--x--x-|--x--x--x--x--x-----x---|
A|-10-10-10-10-10-10-10--9-|--9--9--9--9--9/12-12---|
D|-------------------------|------------------------|
 |Guitar 2                                          |
e|-------------------------|------------------------|
B|-------------------------|------------------------|
G|--7--7--7--7--7--7--7--7-|--7--7--7--7--7--7--7---|
D|--5--5--5--5--5--5--5--5-|--5--5--5--5--5--5--5---|
A|--5--5--5--5--5--5--5--5-|--5--5--5--5--5--5--5---|
D|--5--5--5--5--5--5--5--5-|--5--5--5--5--5--5--5---|

Guitar 1
e|-------------------------|------------------------|
B|-------------------------|------------------------|
G|-12-12-12-12-12-12-12-11-|-11-11-11-11-11/14-14---|
D|--x--x--x--x--x--x--x--x-|--x--x--x--x--x-----x---|
A|-10-10-10-10-10-10-10--9-|--9--9--9--9--9/12-12---|
D|-------------------------|------------------------|
 |Guitar 2                                          |
e|-------------------------|------------------------|
B|-------------------------|------------------------|
G|--7--7--7--7--7--7--7--7-|--7--7--7--7--7--7--7---|
D|--5--5--5--5--5--5--5--5-|--5--5--5--5--5--5--5---|
A|--5--5--5--5--5--5--5--5-|--5--5--5--5--5--5--5---|
D|--5--5--5--5--5--5--5--5-|--5--5--5--5--5--5--5---|

Guitar 1
e|-----------------------|-----------------------|
B|-----------------------|-----------------------|
G|(14)14/16\14-14\6-6----|-(6)-6-6-6/14-14-14-14-|
D|-----x--------x---x----|-----x-x-x--x--x--x--x-|
A|(12)12/14\12-12\4-4----|-(4)-4-4-4/12-12-12-12-|
D|-----------------------|-----------------------|
 |Guitar 2                                       |
e|-----------------------|-----------------------|
B|-----------------------|-----------------------|
G|-(7)-7--7--7--7-7-7----|-(7)-7-7-7--7--7--7--7-|
D|-(5)-5--5--5--5-5-5----|-(5)-5-5-5--5--5--5--5-|
A|-(5)-5--5--5--5-5-5----|-(5)-5-5-5--5--5--5--5-|
D|-(5)-5--5--5--5-5-5----|-(5)-5-5-5--5--5--5--5-|

Chorus
Guitar 1
e|---7-------------|---------10-7-----|-0-7-------------|---------10-7-----|
B|-7---8-0-7-8-0-7-|-8-0-7-8------8-7-|-----8-0-7-8-0-7-|-8-0-7-8------8-7-|
G|-----------------|------------------|-----------------|------------------|
D|-----------------|------------------|-----------------|------------------|
A|-----------------|------------------|-----------------|------------------|
D|-----------------|------------------|-----------------|------------------|
 |Guitar 2 (this part is barely audible)                                   |
 | let ring-------------------------|                                      |
e|-----------------|------------------|-----------------|------------------|
B|-----------------|------------------|-----------------|------------------|
G|---7---7---7---7-|---7---7----7---7-|-7-7-7-7-9-7-7-9-|-7-7-9-7--7-9-7-7-|
D|-9---9---9---9---|-9---9----9---9---|-----------------|------------------|
A|-----------------|------------------|-----------------|------------------|
D|-----------------|------------------|-----------------|------------------|

Guitar 1
e|-0-7-------------|---------10-7-----|-0-7-------------|---------10-7-----|
B|-----8-0-7-8-0-7-|-8-0-7-8------8-7-|-----8-0-7-8-0-7-|-8-0-7-8------8-7-|
G|-----------------|------------------|-----------------|------------------|
D|-----------------|------------------|-----------------|------------------|
A|-----------------|------------------|-----------------|------------------|
D|-----------------|------------------|-----------------|------------------|
 |Guitar 2                                                                 |
 | let ring--------------------------------------------------------------| |
e|-----------------|------------------|-----------------|------------------|
B|-----8-----8---8-|-----8------8---8-|---7-7---7-7---7-|-7---7-7----7-7---|
G|-0-0---0-0---0---|-0-0---0--0---0---|-----------------|------------------|
D|-----------------|------------------|-7-----7-----7---|---7------7-----7-|
A|-----------------|------------------|-----------------|------------------|
D|-----------------|------------------|-----------------|------------------|

Guitar 1
e|---7-------------|---------10-7-----|-0-7-------------|---------10-7-----|
B|-7---8-0-7-8-0-7-|-8-0-7-8------8-7-|-----8-0-7-8-0-7-|-8-0-7-8------8-7-|
G|-----------------|------------------|-----------------|------------------|
D|-----------------|------------------|-----------------|------------------|
A|-----------------|------------------|-----------------|------------------|
D|-----------------|------------------|-----------------|------------------|
 |Guitar 2                                                                 |
 | let ring--------------------------------------------------------------| |
e|-----------------|------------------|-----3-----3-----|-3---7----3-------|
B|---7-7---7-7-7-7-|---7-7-7--7---7-7-|---5-----5-----5-|--------------7---|
G|-----------------|------------------|-7-----7-----7---|---7---7----7---7-|
D|-9-----9---------|-9----------9-----|-----------------|------------------|
A|-----------------|------------------|-----------------|------------------|
D|-----------------|------------------|-----------------|------------------|

Guitar 1
e|-10-0-------------|10-0-------------|10-0-------------|-10-0-------------|
B|------7-8-0-7-8-0-|-----7-8-0-7-8-0-|-----7-8-0-7-8-0-|------7-8-0-7-8-0-|
G|------------------|-----------------|-----------------|------------------|
D|------------------|-----------------|-----------------|------------------|
A|------------------|-----------------|-----------------|------------------|
D|------------------|-----------------|-----------------|------------------|
 |Guitar 2                                                                 |
 | let ring--------------------------------------------------------------| |
e|------7-----7-----|-----7-----7-----|-----------------|------------------|
B|----5---5-----5---|---5-----5---5---|---5-----7----10-|----8---7---------|
G|--7-------7-----7-|-7-----7-------7-|-7---7-7---7-7---|--7---7---7-7-7-7-|
D|------------------|-----------------|-----------------|------------------|
A|------------------|-----------------|-----------------|------------------|
D|------------------|-----------------|-----------------|------------------|

Guitar 1
e|-5---5---5----|-(5)-------------|
B|-3---3---3----|-(3)-------------|
G|-0---0---0----|-(0)-------------|
D|-0---0---0----|-(0)-------------|
A|--------------|-----------------|
D|--------------|-----------------|
 |Guitar 2                        |
e|---------5----|-(5)-------------|
B|-3---3---3----|-(3)-------------|
G|-0---0---0----|-(0)-------------|
D|-0---0---0----|-(0)-------------|
A|--------------|-----------------|
D|--------------|-----------------|

Verse
Guitar 1
     Let ring---------------------------------------------------------------|
e|-----------------|-----------------|-----------------|--------------------|
B|-----------------|---------8p7-7-7-|-----------------|---------10p7-7-7---|
G|-----7---7---7---|-9p7---7---------|-----7---7---7---|-9p7---7------7-7---|
D|---9---9---9---9-|-----------------|-------0---0---0-|--------------------|
A|-----------------|-----------------|---9-------------|--------------------|
D|-----------------|-----------------|-----------------|--------------------|
 |Guitar 2                                                                |
e|-----------------|-----------------|-----------------|------------------|
B|---0-0-0-0-0-0-0-|---0-0-0-0-0-0-0-|---0-0-0-0-0-0-0-|---0-0-0--0-0-0-0-|
G|---4-4-4-4-4-4-4-|---4-4-4-4-4-4-4-|---4-4-4-4-4-4-4-|---4-4-4--4-4-4-4-|
D|---4-4-4-4-4-4-4-|---4-4-4-4-4-4-4-|---5-5-5-5-5-5-5-|---5-5-5--5-5-5-5-|
A|-----------------|-----------------|-----------------|------------------|
D|-----------------|-----------------|-----------------|------------------|

Guitar 1
e|-----------------|-----------------|-----------------|---------------------|
B|-----------------|-----------------|-----------------|---------------------|
G|-----7-7-7-6-6-6-|-6-4-4-4-4-2-2-2-|-2-7-7-7-7-9-9-9-|9-11-11-11-11-12-14--|
D|---0-0-0-0-0-0-0-|-0-0-0-0-0-0-0-0-|-0-0-0-0-0-0-0-0-|0--0--0--0--0--0--0--|
A|-----------------|-----------------|-----------------|---------------------|
D|-----------------|-----------------|-----------------|---------------------|
 |Guitar 2                                                                   |
e|-----------------|-----------------|-----------------|---------------------|
B|---0-0-0-0-0-0-0-|---0-0-0-0-0-0-0-|---0-0-0-0-0-0-0-|---0--0--0--0--0-0-0-|
G|---4-4-4-4-4-4-4-|---4-4-4-4-4-4-4-|---4-4-4-4-4-4-4-|---4--4--4--4--4-4-4-|
D|---4-4-4-4-4-4-4-|---4-4-4-4-4-4-4-|---5-5-5-5-5-5-5-|---5--5--5--5--5-5-5-|
A|-----------------|-----------------|-----------------|---------------------|
D|-----------------|-----------------|-----------------|---------------------|

Pre-chorus
Guitar 1
e|--------------------|------------------|--------------------|-------------0--0-|
B|--------------------|------------------|----------------10--|(10)-10-10--10-10-|
G|11-11-11-11-----7-7-|(7)-7-7--11/12\11-|11-11-11-11------7--|-(7)--7--7---7--7-|
D|-9--9--9--9-x-x-x-x-|----x-x---x-------|-9--9--9--9-x-x--0--|-(0)--------------|
A|-9--9--9--9-x-x-5-5-|(5)-5-5---9/10\-9-|-9--9--9--9-x-x--0--|-(0)--------------|
D|-9--9--9--9-x-x-----|------------------|-9--9--9--9-x-x--0--|-(0)--------------|

Guitar 1
e|-------------------------|------------------------|
B|-------------------------|------------------------|
G|-12-12-12-12-12-12-12-11-|-11-11-11-11-11/14-14---|
D|--x--x--x--x--x--x--x--x-|--x--x--x--x--x-----x---|
A|-10-10-10-10-10-10-10--9-|--9--9--9--9--9/12-12---|
D|-------------------------|------------------------|
 |Guitar 2                                          |
e|-------------------------|------------------------|
B|-------------------------|------------------------|
G|--7--7--7--7--7--7--7--7-|--7--7--7--7--7--7--7---|
D|--5--5--5--5--5--5--5--5-|--5--5--5--5--5--5--5---|
A|--5--5--5--5--5--5--5--5-|--5--5--5--5--5--5--5---|
D|--5--5--5--5--5--5--5--5-|--5--5--5--5--5--5--5---|

Guitar 1
e|-----------------------|-----------------------|
B|-----------------------|-----------------------|
G|(14)14/16\14-14\6-6----|-(6)-6-6-6/14-14-14-14-|
D|-----x--------x---x----|-----x-x-x--x--x--x--x-|
A|(12)12/14\12-12\4-4----|-(4)-4-4-4/12-12-12-12-|
D|-----------------------|-----------------------|
 |Guitar 2                                       |
e|-----------------------|-----------------------|
B|-----------------------|-----------------------|
G|-(7)-7--7--7--7-7-7----|-(7)-7-7-7--7--7--7--7-|
D|-(5)-5--5--5--5-5-5----|-(5)-5-5-5--5--5--5--5-|
A|-(5)-5--5--5--5-5-5----|-(5)-5-5-5--5--5--5--5-|
D|-(5)-5--5--5--5-5-5----|-(5)-5-5-5--5--5--5--5-|

Guitar 1
e|--------------------|------------------|--------------------|-------------0--0-|
B|--------------------|------------------|----------------10--|(10)-10-10--10-10-|
G|11-11-11-11-----7-7-|(7)-7-7--11/12\11-|11-11-11-11------7--|-(7)--7--7---7--7-|
D|-9--9--9--9-x-x-x-x-|----x-x---x-------|-9--9--9--9-x-x--0--|-(0)--------------|
A|-9--9--9--9-x-x-5-5-|(5)-5-5---9/10\-9-|-9--9--9--9-x-x--0--|-(0)--------------|
D|-9--9--9--9-x-x-----|------------------|-9--9--9--9-x-x--0--|-(0)--------------|

Guitar 1
e|-------------------------|---------------------|
B|-------------------------|---------------------|
G|-14-14-14-14-14-14-14-16-|-14-14-14-14-14\6----|
D|--x--x--x--x--x--x--x--x-|--x--x--x--x--x------|
A|-12-12-12-12-12-12-12-14-|-12-12-12-12-12\4----|
D|-------------------------|---------------------|
 |Guitar 2                                       |
e|-------------------------|---------------------|
B|-------------------------|---------------------|
G|--7--7--7--7--7--7--7--7-|--7--7--7--7--7-7----|
D|--5--5--5--5--5--5--5--5-|--5--5--5--5--5-5----|
A|--5--5--5--5--5--5--5--5-|--5--5--5--5--5-5----|
D|--5--5--5--5--5--5--5--5-|--5--5--5--5--5-5----|

Guitar 1
e|-----------------|------------------------|
B|-----------------|------------------------|
G|-(6)-6-6-6-6/7-7-|-(7)-7-7/14-14-14-14-14-|
D|-----x-x-x-x-x-x-|-----x-x--x--x--x--x--x-|
A|-(4)-4-4-4-4/5-5-|-(5)-5-5/12-12-12-12-12-|
D|-----------------|------------------------|
 |Guitar 2                                  |
e|-----------------|------------------------|
B|-----------------|------------------------|
G|-(7)-7-7-7-7-7-7-|-(7)-7-7--7--7--7--7--7-|
D|-(5)-5-5-5-5-5-5-|-(5)-5-5--5--5--5--5--5-|
A|-(5)-5-5-5-5-5-5-|-(5)-5-5--5--5--5--5--5-|
D|-(5)-5-5-5-5-5-5-|-(5)-5-5--5--5--5--5--5-|

Chorus
Guitar 1
e|---7-------------|---------10-7-----|-0-7-------------|---------10-7-----|
B|-7---8-0-7-8-0-7-|-8-0-7-8------8-7-|-----8-0-7-8-0-7-|-8-0-7-8------8-7-|
G|-----------------|------------------|-----------------|------------------|
D|-----------------|------------------|-----------------|------------------|
A|-----------------|------------------|-----------------|------------------|
D|-----------------|------------------|-----------------|------------------|
 |Guitar 2                                                                 |
 | let ring-------------------------|                                      |
e|-----------------|------------------|-----------------|------------------|
B|-----------------|------------------|-----------------|------------------|
G|---7---7---7---7-|---7---7----7---7-|-7-7-7-7-9-7-7-9-|-7-7-9-7--7-9-7-7-|
D|-9---9---9---9---|-9---9----9---9---|-----------------|------------------|
A|-----------------|------------------|-----------------|------------------|
D|-----------------|------------------|-----------------|------------------|

Guitar 1
e|-0-7-------------|---------10-7-----|-0-7-------------|---------10-7-----|
B|-----8-0-7-8-0-7-|-8-0-7-8------8-7-|-----8-0-7-8-0-7-|-8-0-7-8------8-7-|
G|-----------------|------------------|-----------------|------------------|
D|-----------------|------------------|-----------------|------------------|
A|-----------------|------------------|-----------------|------------------|
D|-----------------|------------------|-----------------|------------------|
 |Guitar 2                                                                 |
 | let ring--------------------------------------------------------------| |
e|-----------------|------------------|-----------------|------------------|
B|-----8-----8---8-|-----8------8---8-|---7-7---7-7---7-|-7---7-7----7-7---|
G|-0-0---0-0---0---|-0-0---0--0---0---|-----------------|------------------|
D|-----------------|------------------|-7-----7-----7---|---7------7-----7-|
A|-----------------|------------------|-----------------|------------------|
D|-----------------|------------------|-----------------|------------------|

Guitar 1
e|---7-------------|---------10-7-----|-0-7-------------|---------10-7-----|
B|-7---8-0-7-8-0-7-|-8-0-7-8------8-7-|-----8-0-7-8-0-7-|-8-0-7-8------8-7-|
G|-----------------|------------------|-----------------|------------------|
D|-----------------|------------------|-----------------|------------------|
A|-----------------|------------------|-----------------|------------------|
D|-----------------|------------------|-----------------|------------------|
 |Guitar 2                                                                 |
 | let ring--------------------------------------------------------------| |
e|-----------------|------------------|-----3-----3-----|-3---7----3-------|
B|---7-7---7-7-7-7-|---7-7-7--7---7-7-|---5-----5-----5-|--------------7---|
G|-----------------|------------------|-7-----7-----7---|---7---7----7---7-|
D|-9-----9---------|-9----------9-----|-----------------|------------------|
A|-----------------|------------------|-----------------|------------------|
D|-----------------|------------------|-----------------|------------------|

Guitar 1
e|-10-0-------------|10-0-------------|10-0-------------|-10-0-------------|
B|------7-8-0-7-8-0-|-----7-8-0-7-8-0-|-----7-8-0-7-8-0-|------7-8-0-7-8-0-|
G|------------------|-----------------|-----------------|------------------|
D|------------------|-----------------|-----------------|------------------|
A|------------------|-----------------|-----------------|------------------|
D|------------------|-----------------|-----------------|------------------|
 |Guitar 2                                                                 |
 | let ring--------------------------------------------------------------| |
e|------7-----7-----|-----7-----7-----|-----------------|------------------|
B|----5---5-----5---|---5-----5---5---|---5-----7----10-|----8---7---------|
G|--7-------7-----7-|-7-----7-------7-|-7---7-7---7-7---|--7---7---7-7-7-7-|
D|------------------|-----------------|-----------------|------------------|
A|------------------|-----------------|-----------------|------------------|
D|------------------|-----------------|-----------------|------------------|

Guitar 1
e|-10-0-------------|10-0-------------|10-0-------------|-10-0-------------|
B|------7-8-0-7-8-0-|-----7-8-0-7-8-0-|-----7-8-0-7-8-0-|------7-8-0-7-8-0-|
G|------------------|-----------------|-----------------|------------------|
D|------------------|-----------------|-----------------|------------------|
A|------------------|-----------------|-----------------|------------------|
D|------------------|-----------------|-----------------|------------------|
 |Guitar 2                                                                 |
 | let ring--------------------------------------------------------------| |
e|------7-----7-----|-----7-----7-----|-----------------|------------------|
B|----5---5-----5---|---5-----5---5---|---5-----7----10-|----8---7---------|
G|--7-------7-----7-|-7-----7-------7-|-7---7-7---7-7---|--7---7---7-7-7-7-|
D|------------------|-----------------|-----------------|------------------|
A|------------------|-----------------|-----------------|------------------|
D|------------------|-----------------|-----------------|------------------|

Guitar 1
e|----7-------------|---------10-7-----|
B|------8-0-7-8-0-7-|-8-0-7-8------8-7-|
G|------------------|------------------|
D|------------------|------------------|
A|------------------|------------------|
D|------------------|------------------|
 |Guitar 2                             |
e|--0---------------|------------------|
B|-10---------------|------------------|
G|--0---------------|------------------|
D|-12---------------|------------------|
A|------------------|------------------|
D|------------------|------------------|

Bridge
Guitar 1
e|-----------------|-----------------|------------------|---------------------|
B|-----------------|-----------------|------------------|---------------------|
G|-7---------------|(7)--------------|/11---------------|(11)----------------2|
D|-5---------------|(5)--------------|/-9---------------|-(9)----------------0|
A|-5---------------|(5)--------------|/-9---------------|-(9)----------------0|
D|-5---------------|(5)--------------|/-9---------------|-(9)----------------0|
 |Guitar 2
e|---7-------------|-----------------|----7-------------|---------------------|
B|-----8-0-7-8-0-7-|-8-8f^-8-8-8-8-7-|-10---8-0-7-8-0-8-|12-12-12-10-10-10-7-8|
G|-----------------|-----------------|------------------|---------------------|
D|-----------------|-----------------|------------------|---------------------|
A|-----------------|-----------------|------------------|---------------------|
D|-----------------|-----------------|------------------|---------------------|

Guitar 1
e|-----------------|-------------------|------------------------|
B|-----------------|-------------------|------------------------|
G|-2---------------|(2)----------------|-6----------------------|
D|-0---------------|(0)----------------|-4----------------------|
A|-0---------------|(0)----------------|-4----------------------|
D|-0---------------|(0)----------------|-4----------------------|
 |Guitar 2                                                      |
e|---7-------------|-------------------|------------------------|
B|10---8-0-7-8-0-7-|10-10-10-8-8-8-8-8-|12-12-12-12-12-12-12-12-|
G|-----------------|-------------------|------------------------|
D|-----------------|-------------------|------------------------|
A|-----------------|-------------------|------------------------|
D|-----------------|-------------------|------------------------|

Guitar 1
e|------------------------|------------------------|------------------------|
B|------------------------|------------------------|------------------------|
G|(6)---------------------|-7--7--7--7--7--7--7--7-|-7--7--7--7--7--7--7--7-|
D|(4)---------------------|-5--5--5--5--5--5--5--5-|-5--5--5--5--5--5--5--5-|
A|(4)---------------------|-5--5--5--5--5--5--5--5-|-5--5--5--5--5--5--5--5-|
D|(4)---------------------|-5--5--5--5--5--5--5--5-|-5--5--5--5--5--5--5--5-|
 |Guitar 2                                                                  |
e|------------------------|------------------15-15-|15----------------------|
B|14-14-14-14-14-14-14-14-|14-14-14-12-12-12-------|---14-12-14-14-14-14-14-|
G|------------------------|------------------------|------------------------|
D|------------------------|------------------------|------------------------|
A|------------------------|------------------------|------------------------|
D|------------------------|------------------------|------------------------|

Guitar 1
e|------------------------|------------------------|------------------------|
B|------------------------|------------------------|------------------------|
G|11-11-11-11-11-11-11-11-|11-11-11-11-11-11-11-11-|-2--2--2--2--2--2--2--2-|
D|-9--9--9--9--9--9--9--9-|-9--9--9--9--9--9--9--9-|-0--0--0--0--0--0--0--0-|
A|-9--9--9--9--9--9--9--9-|-9--9--9--9--9--9--9--9-|-0--0--0--0--0--0--0--0-|
D|-9--9--9--9--9--9--9--9-|-9--9--9--9--9--9--9--9-|-0--0--0--0--0--0--0--0-|
 |Guitar 2                                                                  |
e|------------------15-15-|15----------------------|------------------15-15-|
B|14-14-14-12-12-12-------|---14-12-14-14-14-14-14-|14-14-14-12-12-12-------|
G|------------------------|------------------------|------------------------|
D|------------------------|------------------------|------------------------|
A|------------------------|------------------------|------------------------|
D|------------------------|------------------------|------------------------|


Guitar 1
e|------------------------|------------------------|------------------------|
B|------------------------|------------------------|------------------------|
G|-2--2--2--2--2--2--2--2-|-6--6--6--6--6--6--6--6-|-6--6--6--6--6--6--6--6-|
D|-0--0--0--0--0--0--0--0-|-4--4--4--4--4--4--4--4-|-4--4--4--4--4--4--4--4-|
A|-0--0--0--0--0--0--0--0-|-4--4--4--4--4--4--4--4-|-4--4--4--4--4--4--4--4-|
D|-0--0--0--0--0--0--0--0-|-4--4--4--4--4--4--4--4-|-4--4--4--4--4--4--4--4-|
 |Guitar 2                                                                  |
e|15----------------------|12-12-12-12-12-12-12-12-|------------------------|
B|---14-12-14-14-14-14-14-|------------------------|15-15-15\14-14-14-14-14-|
G|------------------------|------------------------|------------------------|
D|------------------------|------------------------|------------------------|
A|------------------------|------------------------|------------------------|
D|------------------------|------------------------|------------------------|

Guitar 1
e|------------------------|------------------------|------------------------|
B|------------------------|------------------------|------------------------|
G|-7--7--7--7--7--7--7--7-|-7--7--7--7--7--7--7--7-|11-11-11-11-11-11-11-11-|
D|-5--5--5--5--5--5--5--5-|-5--5--5--5--5--5--5--5-|-9--9--9--9--9--9--9--9-|
A|-5--5--5--5--5--5--5--5-|-5--5--5--5--5--5--5--5-|-9--9--9--9--9--9--9--9-|
D|-5--5--5--5--5--5--5--5-|-5--5--5--5--5--5--5--5-|-9--9--9--9--9--9--9--9-|
 |Guitar 2                                                                  |
e|------------------------|------------------------|------------------------|
B|------------------------|------------------------|------------------------|
G|14-14-14-14-14-14-14-14-|14-14-14-14-14-14-14-14-|11-11-11-11-11-11-11-11-|
D|-x--x--x--x--x--x--x--x-|-x--x--x--x--x--x--x--x-|-x--x--x--x--x--x--x--x-|
A|12-12-12-12-12-12-12-12-|12-12-12-12-12-12-12-12-|-9--9--9--9--9--9--9--9-|
D|------------------------|------------------------|------------------------|


Guitar 1
e|------------------------|------------------------|------------------------|
B|------------------------|------------------------|------------------------|
G|11-11-11-11-11-11-11-11-|-2--2--2--2--2--2--2--2-|-2--2--2--2--2--2--2--2-|
D|-9--9--9--9--9--9--9--9-|-0--0--0--0--0--0--0--0-|-0--0--0--0--0--0--0--0-|
A|-9--9--9--9--9--9--9--9-|-0--0--0--0--0--0--0--0-|-0--0--0--0--0--0--0--0-|
D|-9--9--9--9--9--9--9--9-|-0--0--0--0--0--0--0--0-|-0--0--0--0--0--0--0--0-|
 |Guitar 2                                                                  |
e|------------------------|------------------------|------------------------|
B|------------------------|------------------------|------------------------|
G|11-11-11-11-11-11-11-11-|14-14-14-14-14-14-14-14-|14-14-14-14-14-14-14-14-|
D|-x--x--x--x--x--x--x--x-|-x--x--x--x--x--x--x--x-|-x--x--x--x--x--x--x--x-|
A|-9--9--9--9--9--9--9--9-|12-12-12-12-12-12-12-12-|12-12-12-12-12-12-12-12-|
D|------------------------|------------------------|------------------------|

Guitar 1
e|------------------------|------------------------|------------------------|
B|------------------------|------------------------|------------------------|
G|-6--6--6--6--6--6--6--6-|-6--6--6--6--6--6--6--6-|-6--6--6--6--6--6--6--6-|
D|-4--4--4--4--4--4--4--4-|-4--4--4--4--4--4--4--4-|-4--4--4--4--4--4--4--4-|
A|-4--4--4--4--4--4--4--4-|-4--4--4--4--4--4--4--4-|-4--4--4--4--4--4--4--4-|
D|-4--4--4--4--4--4--4--4-|-4--4--4--4--4--4--4--4-|-4--4--4--4--4--4--4--4-|
 |Guitar 2                                                                  |
e|------------------------|------------------------|------------------------|
B|------------------------|------------------------|------------------------|
G|18-18-18-18-18-18-18-18-|18-18-18-18-18-18-18-18-|21-21-21-19-19-19-18-18-|
D|-x--x--x--x--x--x--x--x-|-x--x--x--x--x--x--x--x-|-x--x--x--x--x--x--x--x-|
A|16-16-16-16-16-16-16-16-|16-16-16-16-16-16-16-16-|16-16-16-16-16-16-16-16-|
D|------------------------|------------------------|------------------------|

Guitar 1
e|------------------------|
B|------------------------|
G|-6--6--6--6--6--6--6--6-|
D|-4--4--4--4--4--4--4--4-|
A|-4--4--4--4--4--4--4--4-|
D|-4--4--4--4--4--4--4--4-|
 |Guitar 2                |
e|------------------------|
B|------------------------|
G|18-16-16-16-16----------|
D|-x--x--x--x--x----------|
A|16-14-14-14-14----------|
D|------------------------|

Outro
Guitar 1
e|-2-2---2-2---2-2-|---0-0---------|-2-2---2-2---2-2-|---0-0---------|
B|-3-3---3-3---0-0-|---0-0---------|-3-3---3-3---0-0-|---0-0---------|
G|-4-4---4-4---0-0-|---0-0---------|-4-4---4-4---0-0-|---0-0---------|
D|-4-4---4-4---4-4-|---0-0---------|-4-4---4-4---4-4-|---0-0---------|
A|-----------------|---------------|-----------------|---------------|
D|-----------------|---------------|-----------------|---------------|
 |Guitar 2                                                           |
 | let ring---------------------------------------------|            |
e|-----------------|---------------|-------0---------|-(0)-----------|
B|---2-3-----------|-(3)-----------|---2h3-----------|---------------|
G|-4---------------|---------------|-4---------------|---------------|
D|-----------------|---------------|-----------------|---------------|
A|-----------------|---------------|-----------------|---------------|
D|-----------------|---------------|-----------------|---------------|

Guitar 1
e|-2-2---2-2---2-2-|---0-0---------|-2-2---2-2---2-2-|---0-0---------|
B|-3-3---3-3---0-0-|---0-0---------|-3-3---3-3---0-0-|---0-0---------|
G|-4-4---4-4---0-0-|---0-0---------|-4-4---4-4---0-0-|---0-0---------|
D|-4-4---4-4---4-4-|---0-0---------|-4-4---4-4---4-4-|---0-0---------|
A|-----------------|---------------|-----------------|---------------|
D|-----------------|---------------|-----------------|---------------|
 |Guitar 2                                                           |
 | let ring--------------------------------------------------|       |
e|-----------------|----------3--2-|(2)----------2-0-|(0)------------|
B|---2-3-----------|-(3)------3--3-|(3)----------3-3-|(3)------------|
G|-4---------------|---------------|-----------------|-------2-------|
D|-----------------|---------------|-----------------|---------------|
A|-----------------|---------------|-----------------|---------------|
D|-----------------|---------------|-----------------|---------------|

Guitar 1
e|-2-2---2-2---2-2-|---0-0-----------|-2-2---2-2---2-2-|---0-0---------|
B|-3-3---3-3---0-0-|---0-0-----------|-3-3---3-3---0-0-|---0-0---------|
G|-4-4---4-4---0-0-|---0-0-----------|-4-4---4-4---0-0-|---0-0---------|
D|-4-4---4-4---4-4-|---0-0-----------|-4-4---4-4---4-4-|---0-0---------|
A|-----------------|-----------------|-----------------|---------------|
D|-----------------|-----------------|-----------------|---------------|
 |Guitar 2                                                             |
 | let ring--------------------------------------------------|         |
e|-----------------|-----------------|-----------------|---------------|
B|-----------------|-----------------|-----------------|---------------|
G|-7-7-7-7-7-7-7-7-|-7-7-7-7-7-7-7-7-|-7-7-7-7-7-6---6-|(6)4-2---2---2-|
D|-0-0-0-0-0-0-0-0-|-0-0-0-0-0-0-0-0-|-0-0-0-0-0---0---|---0-0---0---0-|
A|-----------------|-----------------|-----------------|---------------|
D|-----------------|-----------------|-----------------|---------------|

Guitar 1
e|-2-2---2-2---2-2-|---0-0-----------|-2-2---2-2---2-2-|---0-0--------------|
B|-3-3---3-3---0-0-|---0-0-----------|-3-3---3-3---0-0-|---0-0--------------|
G|-4-4---4-4---0-0-|---0-0-----------|-4-4---4-4---0-0-|---0-0--------------|
D|-4-4---4-4---4-4-|---0-0-----------|-4-4---4-4---4-4-|---0-0--------------|
A|-----------------|-----------------|-----------------|--------------------|
D|-----------------|-----------------|-----------------|--------------------|
 |Guitar 2                                                                  |
e|-----------------|-----------------|-----------------|--------------------|
B|-----------------|-----------------|-5-5-5-------5-5-|-5------------------|
G|-7-7-7-7-7-7-7-7-|-7-7-7-7-7-7-7-7-|-7-7-7-6-6-6-7-7-|-7-6-6-6-7/11-11-11-|
D|-0-0-0-0-0-0-0-0-|-0-0-0-0-0-0-0-0-|-0-0-0-0-0-0-0-0-|-0-0-0-0-0-----0--0-|
A|-----------------|-----------------|-----------------|--------------------|
D|-----------------|-----------------|-----------------|--------------------|

Guitar 1
e|-2-2---2-2---2-2-|---0-0-----------|-2-2---2-2---2-2-|---0-0-----------|
B|-3-3---3-3---0-0-|---0-0-----------|-3-3---3-3---0-0-|---0-0-----------|
G|-4-4---4-4---0-0-|---0-0-----------|-4-4---4-4---0-0-|---0-0-----------|
D|-4-4---4-4---4-4-|---0-0-----------|-4-4---4-4---4-4-|---0-0-----------|
A|-----------------|-----------------|-----------------|-----------------|
D|-----------------|-----------------|-----------------|-----------------|
 |Guitar 2                                                               |
 | let ring------------------------------------------------------------| |
e|-------9---------|(9)-----10--9----|-----------------|---------9h10p10-|
B|----10-----------|--------------10-|------10---------|--10-------------|
G|1111-------------|-----------------|1111------11-----|-----------------|
D|-0-0-------------|(0)--------------|---------------7-|-----------------|
A|-----------------|-----------------|-----------------|-----------------|
D|-----------------|-----------------|-----------------|-----------------|

===============================================================================
7. This Song Brought to You By A Falling Bomb

This entire song is played on piano. Piano 1 is the left hand, piano 2 is the right, and 
3 is just an extra part.

Intro
Piano 1
e|-7-------4-------|-6---------------|-7-------4-------|-6---------------|
B|-7-------4-------|-7---------------|-7-------4-------|-7---------------|
G|-8-------4-------|-8---------------|-8-------4-------|-8---------------|
D|-9-------6-------|-8---------------|-9-------6-------|-8---------------|
A|-9-------6-------|-6---------------|-9-------6-------|-6---------------|
D|-9-------6-------|-----------------|-9-------4-------|-----------------|
 |Piano 2                                                                |
 | let ring------------------------------------------------------------| |
e|-2---2---2---2---|-2---2---2---2---|-2---2---2---2---|-2---2---2---2---|
B|-4---4---4---4---|-4---4---4---4---|-4---4---4---4---|-4---4---4---4---|
G|---4---4---1---1-|---3---3---3---3-|---4---4---1---1-|---3---3---3---3-|
D|-----------------|-----------------|-----------------|-----------------|
A|-----------------|-----------------|-----------------|-----------------|
D|-----------------|-----------------|-----------------|-----------------|

Verse
Piano 1
e||--7-------4-------|-6---------------|-7-------4-------|-6---------------||
B||o-7-------4-------|-7---------------|-7-------4-------|-7--------------o||
G||--8-------4-------|-8---------------|-8-------4-------|-8---------------||
D||--9-------6-------|-8---------------|-9-------6-------|-8---------------||
A||o-9-------6-------|-6---------------|-9-------6-------|-6--------------o||
D||--9-------6-------|-----------------|-9-------4-------|-----------------||
 ||Piano 2                                                                 ||
 ||  let ring------------------------------------------------------------| ||
e||--2---2---2---2---|-2---2---2---2---|-2---2---2---2---|-2---2---2---2---||
B||o-4---4---4---4---|-4---4---4---4---|-4---4---4---4---|-4---4---4---4--o||
G||----4---4---1---1-|---3---3---3---3-|---4---4---1---1-|---3---3---3---3-||
D||------------------|-----------------|-----------------|-----------------||
A||o-----------------|-----------------|-----------------|----------------o||
D||------------------|-----------------|-----------------|-----------------||

Piano 1
e|-7-------4-------|-6---------------|-7-------4-------|-6---------------|
B|-7-------4-------|-7---------------|-7-------4-------|-7---------------|
G|-8-------4-------|-8---------------|-8-------4-------|-8---------------|
D|-9-------6-------|-8---------------|-9-------6-------|-8---------------|
A|-9-------6-------|-6---------------|-9-------6-------|-6---------------|
D|-9-------6-------|-----------------|-9-------4-------|-----------------|
 |Piano 2                                                                |
 | let ring------------------------------------------------------------| |
e|-2---2---2---2---|-2---2---2---2---|-2---2---2---2---|-2---2---4---6---|
B|-4---4---4---4---|-4---4---4---4---|-4---4---4---4---|-4---4---4---4---|
G|---4---4---1---1-|---3---3---3---3-|---4---4---1---1-|---3---3---3---3-|
D|-----------------|-----------------|-----------------|-----------------|
A|-----------------|-----------------|-----------------|-----------------|
D|-----------------|-----------------|-----------------|-----------------|

Piano 1
e|-7-------4-------|-6-------6-------|-7-------4-------|-6---------------|
B|-7-------4-------|-7-------6-------|-7-------4-------|-7---------------|
G|-8-------4-------|-8-------8-------|-8-------4-------|-8---------------|
D|-9-------6-------|-8-------8-------|-9-------6-------|-8---------------|
A|-9-------6-------|-6-------6-------|-9-------6-------|-6---------------|
D|-9-------6-------|-----------------|-9-------4-------|-----------------|
 |Piano 2                                                                |
 | let ring------------------------------------------------------------| |
e|-2---2---2---2---|-2---2---1---1---|-2---2---2---2---|-2---2---2---2---|
B|-4---4---4---4---|-4---4---4---4---|-4---4---4---4---|-4---4---4---4---|
G|---4---4---1---1-|---3---3---3---3-|---4---4---1---1-|---3---3---3---3-|
D|-----------------|-----------------|-----------------|-----------------|
A|-----------------|-----------------|-----------------|-----------------|
D|-----------------|-----------------|-----------------|-----------------|

Chorus
Piano 1
e|-7-------4-------|-6---------------|-7-------4-------|-6---------------|
B|-7-------4-------|-7---------------|-7-------4-------|-7---------------|
G|-8-------4-------|-8---------------|-8-------4-------|-8---------------|
D|-9-------6-------|-8---------------|-9-------6-------|-8---------------|
A|-9-------6-------|-6---------------|-9-------6-------|-6---------------|
D|-9-------6-------|-----------------|-9-------4-------|-----------------|
 |Piano 2                                                                |
 | let ring------------------------------------------------------------| |
e|-2---2---2---2---|-2---2---2---2---|-2---2---2---2---|-2---2---2---2---|
B|-4---4---4---4---|-4---4---4---4---|-4---4---4---4---|-4---4---4---4---|
G|---4---4---1---1-|---3---3---3---3-|---4---4---1---1-|---3---3---3---3-|
D|-----------------|-----------------|-----------------|-----------------|
A|-----------------|-----------------|-----------------|-----------------|
D|-----------------|-----------------|-----------------|-----------------|
 |Piano 3                                                                |
e|-----------------|-----------------|14------18-------|-----------------|
B|-----------------|-----------------|-----------------|16---------------|
G|-----------------|-----------------|-----------------|-----------------|
D|-----------------|-----------------|-----------------|-----------------|
A|-----------------|-----------------|-----------------|-----------------|
D|-----------------|-----------------|-----------------|-----------------|

Outro
Piano 1
e|-7-------4-------|-6---------------|-7-------4-------|-6---------------|
B|-7-------4-------|-7---------------|-7-------4-------|-7---------------|
G|-8-------4-------|-8---------------|-8-------4-------|-8---------------|
D|-9-------6-------|-8---------------|-9-------6-------|-8---------------|
A|-9-------6-------|-6---------------|-9-------6-------|-6---------------|
D|-9-------6-------|-----------------|-9-------4-------|-----------------|
 |Piano 2                                                                |
 | let ring------------------------------------------------------------| |
e|-2---2---2---2---|-2---2---2---2---|-2---2---2---2---|-2---2---2---2---|
B|-4---4---4---4---|-4---4---4---4---|-4---4---4---4---|-4---4---4---4---|
G|---4---4---1---1-|---3---3---3---3-|---4---4---1---1-|---3---3---3---3-|
D|-----------------|-----------------|-----------------|-----------------|
A|-----------------|-----------------|-----------------|-----------------|
D|-----------------|-----------------|-----------------|-----------------|
 |Piano 3                                                                |
e|-----------------|-----------------|-----------------|-----------------|
B|-----------------|--16-------------|-----------------|-----------------|
G|----------16-----|15---------------|----------16-----|--15-------------|
D|-----------------|-----------------|-----------------|-----------------|
A|-----------------|-----------------|-----------------|-----------------|
D|-----------------|-----------------|-----------------|-----------------|

Piano 1
e|-(6)-------------|-(6)-------------|
B|-(7)-------------|-(7)-------------|
G|-(8)-------------|-(8)-------------|
D|-(8)-------------|-(8)-------------|
A|-(6)-------------|-(6)-------------|
D|-----------------|-----------------|
 |Piano 2                            |
e|-----------------|-----------------|
B|-----------------|-----------------|
G|-(3)-------------|-(3)-------------|
D|-----------------|-----------------|
A|-----------------|-----------------|
D|-----------------|-----------------|
 |Piano 3                            |
e|-----------------|-----------------|
B|-----------------|-----------------|
G|(15)-------------|(15)-------------|
D|-----------------|-----------------|
A|-----------------|-----------------|
D|-----------------|-----------------|

===============================================================================
8. Steps Ascending

Intro
Guitars 1,2
e||-------------------------------------------------|
B||o------12----------------------12----------------|
G||--9--9--9--9--9-12--9--9--9--9--9--9--9-12--9--9-|
D||-10-10-10-10-10-10-10-10-10-10-10-10-10-10-10-10-|
A||o-8--8--8--8--8--8--8--8--8--8--8--8--8--8--8--8-|
D||-------------------------------------------------|

Guitars 1,2
e|--------------------------------------------------||
B|-------12----------------------12----------------o||
G|--9--9--9--9--9-12--9--9--9--9--9--9--9-12--9--9--||
D|-10-10-10-10-10-10-10-10-10-10-10-10-10-10-10-10--||
A|--7--7--7--7--7--7--7--7--7--7--7--7--7--7--7--7-o||
D|--7--7--7--7--7--7--7--7--7--7--7--7--7--7--7--7--||

Verse
Guitar 1
e|10---------------|-7---------------|-7--------------|
B|-0---------------|-0---------------|-0--------------|
G|-9---------------|-4---------------|-5--------------|
D|10---------------|-5---------------|-7--------------|
A|-0---------------|-----------------|----------------|
D|-----------------|-----------------|----------------|
 |Guitar 2                                            |
 | let ring----------------------------|              |
e|-0---------0---0-|-0---------0-----|-0--------------|
B|-0-----------0---|-0-----------0---|-0--------------|
G|-9---------------|-4-------------0-|-5--------------|
D|10---------------|-5---------------|-7--------------|
A|-0---------------|-----------------|----------------|
D|-----------------|-----------------|----------------|

Guitar 1
   Let ring--------------------------------------------------------------|
e|------------------0-------0---|---10---10---10---10---10---10---10-----|
B|------0---------0---0---0-----|-0----0----0----0----0----0----0----0---|
G|---7--------7---------7-------|-9----9----9----9----9----9----9----9---|
D|-9--------9-------------------|10---10---10---10---10---10---10---10---|
A|------------------------------|----------------------------------------|
D|------------------------------|----------------------------------------|
 |Guitar 2                                                             |
 |                                let ring---------------------------| |
e|------------------------------|--------------------------------------|
B|------------------------------|------0----8-p0---10p0----------------|
G|-7----------------------------|----9---------------------9-10-9----9-|
D|-9----------------------------|10------10-----10------10--------10---|
A|------------------------------|--------------------------------------|
D|------------------------------|--------------------------------------|

Guitar 1
   Let ring------------------------------------------------------------|
e|---7---7---7---7---7---7---7---7-|---7---7---7---7---7---7---7---0---|
B|-0---0---0---0---0---0---0---0---|-0---0---0---0---0---0---0---0-0---|
G|-4---4---4---4---4---4---4---4---|-5---5---5---5---5---5---5---5/7---|
D|-5---5---5---5---5---5---5---5---|-7---7---7---7---7---7---7---7/9---|
A|---------------------------------|-----------------------------------|
D|---------------------------------|-----------------------------------|
 |Guitar 2                                                           |
 | let ring--------------------------------------------------------| |
e|---------------3p0---3p0-3/5-0---|---------------------------------|
B|-----0---3p0-------0-------------|-----0---8p0---------5p0---------|
G|---4-----------------------------|---5-----------7p5-------5p0---0-|
D|-5-----5-----5-------------------|-7-----7-----7-----7---------7---|
A|---------------------------------|---------------------------------|
D|---------------------------------|---------------------------------|

Guitar 1
e|-0-0-0-0-0-0-0-0-0-0-0-0-0--0--0---|
B|-0-0-0-0-0-0-0-0-0-0-0-0-0--0--0---|
G|-7-7-7-7-7-7-7-7-7-7-7-7-7--7--7---|
D|-9-9-9-9-9-9-9-9-9-9-9-9-9--9--9---|
A|-----------------------------------|
D|-----------------------------------|
 |Guitar 2                           |
e|-----------------------------------|
B|-----------------------------------|
G|-7-7-7-7-7-7-7-9-9-9-9-9-9/10/12---|
D|-9-9-9-9-9-9-9-9-9-9-9-9-----------|
A|-----------------------------------|
D|-----------------------------------|

Pre-Chorus
Guitars 1,2
e||-------------------------------------------------|
B||o------12----------------------12----------------|
G||--9--9--9--9--9-12--9--9--9--9--9--9--9-12--9--9-|
D||-10-10-10-10-10-10-10-10-10-10-10-10-10-10-10-10-|
A||o-8--8--8--8--8--8--8--8--8--8--8--8--8--8--8--8-|
D||-------------------------------------------------|

Guitars 1,2
e|--------------------------------------------------||
B|-------12----------------------12----------------o||
G|--9--9--9--9--9-12--9--9--9--9--9--9--9-12--9--9--||
D|-10-10-10-10-10-10-10-10-10-10-10-10-10-10-10-10--||
A|--7--7--7--7--7--7--7--7--7--7--7--7--7--7--7--7-o||
D|--7--7--7--7--7--7--7--7--7--7--7--7--7--7--7--7--||

Guitar 1
e|------------------------------------------------|
B|------------------------------------------------|
G|-9--9--9--9--9--9--9--9--9--9--9--9--9--9--9--9-|
D|10-10-10-10-10-10-10-10-10-10-10-10-10-10-10-10-|
A|-0--0--0--0--0--0--0--0--0--0--0--0--0--0--0--0-|
D|-0--0--0--0--0--0--0--0--0--0--0--0--0--0--0--0-|
 |Guitar 2                                        |
e|------------------------------------------------|
B|------------------------------------------------|
G|-9/10-10-10-10-10-10-10-10-10-10/12-12-12-12----|
D|-x--x--x--x--x--x--x--x--x--x--x--x--x--x--x----|
A|-7/-8--8--8--8--8--8--8--8--8--8/10-10-10-10----|
D|------------------------------------------------|

Guitar 1
e|------------------------------------------------|
B|------------------------------------------------|
G|-9--9--9--9--9--9--9--9--9--9--9--9--9--9--9--9-|
D|10-10-10-10-10-10-10-10-10-10-10-10-10-10-10-10-|
A|-7--7--7--7--7--7--7--7--7--7--7--7--7--7--7--7-|
D|-7--7--7--7--7--7--7--7--7--7--7--7--7--7--7--7-|
 |Guitar 2                                        |
e|------------------------------------------------|
B|------------------------------------------------|
G|-9--9--9--9--9--9--9--9--9--9--9--9--9--9--9-\7-|
D|-x--x--x--x--x--x--x--x--x--x--x--x--x--x--x--x-|
A|-7--7--7--7--7--7--7--7--7--7--7--7--7--7--7-\5-|
D|------------------------------------------------|

Guitar 1
e|------------------------------------------------|
B|------------------------------------------------|
G|-9--9--9--9--9--9--9--9--9--9--9--9--9--9--9--9-|
D|10-10-10-10-10-10-10-10-10-10-10-10-10-10-10-10-|
A|-0--0--0--0--0--0--0--0--0--0--0--0--0--0--0--0-|
D|-0--0--0--0--0--0--0--0--0--0--0--0--0--0--0--0-|
 |Guitar 2                                        |
e|------------------------------------------------|
B|------------------------------------------------|
G|-7--7--7--7--7--7--7-14-14-14-14-14-14-14-14\10-|
D|-x--x--x--x--x--x--x--x--x--x--x--x--x--x--x--x-|
A|-5--5--5--5--5--5--5-12-12-12-12-12-12-12-12\-8-|
D|------------------------------------------------|

Guitar 1
e|------------------------------------------------|
B|------------------------------------------------|
G|10-10-10-10-10-10-10-10--9--9--9--9-12-12-12-12-|
D|-8--8--8--8--8--8--8--8--7--7--7--7-10-10-10-10-|
A|-8--8--8--8--8--8--8--8--7--7--7--7-10-10-10-10-|
D|-8--8--8--8--8--8--8--8--7--7--7--7-10-10-10-10-|
 |Guitar 2                                        |
e|------------------------------------------------|
B|------------------------------------------------|
G|10-10-10-10-10-10-10-10-\9--9--9--9/12-12-12-12-|
D|-8--8--8--8--8--8--8--8-\9--9--9--9/12-12-12-12-|
A|-8--8--8--8--8--8--8--8-\7--7--7--7/10-10-10-10-|
D|------------------------------------------------|

Chorus
Guitar 1
e|-------------------------------------|--------------------------------------|
B|-------------------------------------|--------------------------------------|
G|----------9--9--9------------9--9--9-|---------7-7-7-----------7-7-7--------|
D|-0-0-0---10-10-10-----------10-10-10-|-0-0-0---9-9-9-----------9-9-9--------|
A|-0-0-0--------------0-0-0------------|-0-0-0-----------0-0-0----------------|
D|-0-0-0--------------0-0-0------------|-0-0-0-----------0-0-0----------------|
 |Guitar 2                                                                    |
e|----------0--0--0------------0--0--0-|---------0-0-0-----------0-0----------|
B|----------0--0--0------------0--0--0-|---------0-0-0-----------0-0----------|
G|----------9--9--9------------9--9--9-|---------7-7-7-----------7-7----------|
D|-0-0-0---10-10-10-----------10-10-10-|-0-0-0---9-9-9-----------9-9-0--------|
A|-0-0-0--------------0-0-0------------|-0-0-0-----------0-0-0-------0--------|
D|-0-0-0--------------0-0-0------------|-0-0-0-----------0-0-0-------0--------|

Guitar 1
e|------------------------------------------------|
B|------------------------------------------------|
G|11-11-11-11-11-11-11-11-11/12-12-12-12-12-12-12-|
D|12-12-12-12-12-12-12-12-12/12-14-14-14-14-14-14-|
A|------------------------------------------------|
D|------------------------------------------------|
 |Guitar 2                                        |
e|------------------------------------------------|
B|------------------------------------------------|
G|11-11-11-11-11-11-11-11-11/12-12-12/12-12-12-12-|
D|-9--9--9--9--9--9--9--9--9/10-10-10-12-12-12-12-|
A|-9--9--9--9--9--9--9--9--9/10-10-10-10-10-10-10-|
D|-9--9--9--9--9--9--9--9--9/10-10-10-10-10-10-10-|

Guitar 1
e|-------------------------------------|--------------------------------------|
B|-------------------------------------|--------------------------------------|
G|----------9--9--9------------9--9--9-|---------7-7-7-----------7-7-7--------|
D|-0-0-0---10-10-10-----------10-10-10-|-0-0-0---9-9-9-----------9-9-9--------|
A|-0-0-0--------------0-0-0------------|-0-0-0-----------0-0-0----------------|
D|-0-0-0--------------0-0-0------------|-0-0-0-----------0-0-0----------------|
 |Guitar 2                                                                    |
e|----------0--0--0------------0--0--0-|---------0-0-0-----------0-0----------|
B|----------0--0--0------------0--0--0-|---------0-0-0-----------0-0----------|
G|----------9--9--9------------9--9--9-|---------7-7-7-----------7-7----------|
D|-0-0-0---10-10-10-----------10-10-10-|-0-0-0---9-9-9-----------9-9-0--------|
A|-0-0-0--------------0-0-0------------|-0-0-0-----------0-0-0-------0--------|
D|-0-0-0--------------0-0-0------------|-0-0-0-----------0-0-0-------0--------|

Guitar 1
e|---------------------------|
B|---------------------------|
G|-7-----7-7/-9--9----9q^-r9-|
D|-9-----9-9/10-10---10q^r10-|
A|---------------------------|
D|---------------------------|
 |Guitar 2                   |
e|---------------------------|
B|---------------------------|
G|-4---4-4-4/-5--5-----------|
D|-2---2-2-2/-3--5-----------|
A|-2---2-2-2/-3--5-----------|
D|-2---2-2-2/-3--3-----------|

Verse
Guitar 1
e|10---------------|-7---------------|-7--------------|
B|-0---------------|-0---------------|-0--------------|
G|-9---------------|-4---------------|-5--------------|
D|10---------------|-5---------------|-7--------------|
A|-0---------------|-----------------|----------------|
D|-----------------|-----------------|----------------|
 |Guitar 2                                            |
e|-0---------0---0-|-0---------0-----|-0--------------|
B|-0-----------0---|-0-----------0---|-0--------------|
G|-9---------------|-4-------------0-|-5--------------|
D|10---------------|-5---------------|-7--------------|
A|-0---------------|-----------------|----------------|
D|-----------------|-----------------|----------------|

Guitar 1
   Let ring--------------------------------------------------------------|
e|------------------0-------0---|---10---10---10---10---10---10---10-----|
B|------0---------0---0---0-----|-0----0----0----0----0----0----0----0---|
G|---7--------7---------7-------|-9----9----9----9----9----9----9----9---|
D|-9--------9-------------------|10---10---10---10---10---10---10---10---|
A|------------------------------|----------------------------------------|
D|------------------------------|----------------------------------------|
 |Guitar 2                                                             |
 |                                let ring---------------------------| |
e|------------------------------|--------------------------------------|
B|------------------------------|------0----8-p0---10p0----------------|
G|-7----------------------------|----9---------------------9-10-9----9-|
D|-9----------------------------|10------10-----10------10--------10---|
A|------------------------------|--------------------------------------|
D|------------------------------|--------------------------------------|

Guitar 1
   Let ring------------------------------------------------------------|
e|---7---7---7---7---7---7---7---7-|---7---7---7---7---7---7---7---0---|
B|-0---0---0---0---0---0---0---0---|-0---0---0---0---0---0---0---0-0---|
G|-4---4---4---4---4---4---4---4---|-5---5---5---5---5---5---5---5/7---|
D|-5---5---5---5---5---5---5---5---|-7---7---7---7---7---7---7---7/9---|
A|---------------------------------|-----------------------------------|
D|---------------------------------|-----------------------------------|
 |Guitar 2                                                           |
 | let ring--------------------------------------------------------| |
e|---------------3p0---3p0-3/5-0---|---------------------------------|
B|-----0---3p0-------0-------------|-----0---8p0---------5p0---------|
G|---4-----------------------------|---5-----------7p5-------5p0---0-|
D|-5-----5-----5-------------------|-7-----7-----7-----7---------7---|
A|---------------------------------|---------------------------------|
D|---------------------------------|---------------------------------|

Guitar 1
e|-0-0-0-0-0-0-0-0-0-0-0-0-0--0--0---|
B|-0-0-0-0-0-0-0-0-0-0-0-0-0--0--0---|
G|-7-7-7-7-7-7-7-7-7-7-7-7-7--7--7---|
D|-9-9-9-9-9-9-9-9-9-9-9-9-9--9--9---|
A|-----------------------------------|
D|-----------------------------------|
 |Guitar 2                           |
e|-----------------------------------|
B|-----------------------------------|
G|-7-7-7-7-7-7-7-9-9-9-9-9-9/10/12---|
D|-9-9-9-9-9-9-9-9-9-9-9-9-----------|
A|-----------------------------------|
D|-----------------------------------|

Interlude
Guitar 1
e|--0--0--0--0--0--0--0--0--0--0--0--0--0--0--|
B|-13-13-13-13-13-13-13-13-13-13-13-13-13-13--|
G|--------------------------------------------|
D|--------------------------------------------|
A|--------------------------------------------|
D|--------------------------------------------|
 |Guitar 2                                    |
e|--0-----0-----0--0-----0-----0-----0--0-----|
B|--0-----0-----0--0-----0-----0-----0--0-----|
G|--9-----9-----9--9-----9-----9-----9--9-----|
D|-10-----9----10-10-----9----10-----9-10-----|
A|--------------------------------------------|
D|--------------------------------------------|

Guitar 1
e|--0--0--0--0--0--0--0--0--0--0--0--0--0--0--|
B|-12-12-12-12-12-12-12-12-12-12-12-12-12-12--|
G|--------------------------------------------|
D|--------------------------------------------|
A|--------------------------------------------|
D|--------------------------------------------|
 |Guitar 2                                    |
e|--0-----0-----0--0-----0-----0-----0--------|
B|--0-----0-----0--0-----0-----0-----0--------|
G|--4-----4-----4--4-----4-----4-----4--4-/5--|
D|--5-----5-----5--5-----5-----5-----5--5-/7--|
A|--------------------------------------------|
D|--------------------------------------------|

Guitar 1
e|-12-12-12-12-12-12-12-12-12-12-12-12-12-12--|
B|-13-13-13-13-13-13-13-13-13-13-13-13-13-13--|
G|--------------------------------------------|
D|--------------------------------------------|
A|--------------------------------------------|
D|--------------------------------------------|
 |Guitar 2                                    |
e|--0-----0-----0--0-----0-----0-----0--------|
B|--0-----0-----0--0-----0-----0-----0--------|
G|--5-----5-----5--5-----5-----5-----5--5-/7--|
D|--7-----7-----7--7-----7-----7-----7--7-/9--|
A|--------------------------------------------|
D|--------------------------------------------|

Guitar 1
e|-12-12-12-12-12-12-12-12-12-12-12-12-12-12--|
B|-13-13-13-13-13-13-13-13-13-13-13-13-13-13--|
G|--------------------------------------------|
D|--------------------------------------------|
A|--------------------------------------------|
D|--------------------------------------------|
 |Guitar 2                                    |
e|--0-----0-----0--0-----0-----0-----0--------|
B|--0-----0-----0--0-----0-----0-----0--------|
G|--7-----7-----7--7-----7-----7-----7--7-/-9-|
D|--9-----9-----9--9-----9-----9-----9--9-/10-|
A|--------------------------------------------|
D|--------------------------------------------|

Guitar 1
e|--0--0--0--0--0--0--0--0--0--0--0--0--0--0--|
B|-13-13-13-13-13-13-13-13-13-13-13-13-13-13--|
G|--------------------------------------------|
D|--------------------------------------------|
A|--------------------------------------------|
D|--------------------------------------------|
 |Guitar 2                                    |
e|--0-----0-----0--0-----0-----0-----0--0-----|
B|--0-----0-----0--0-----0-----0-----0--0-----|
G|--9-----9-----9--9-----9-----9-----9--9-----|
D|-10-----9----10-10-----9----10-----9-10-----|
A|--------------------------------------------|
D|--------------------------------------------|

Guitar 1
e|--0--0--0--0--0--0--0--0--0--0--0--0--0--0--|
B|-12-12-12-12-12-12-12-12-12-12-12-12-12-12--|
G|--------------------------------------------|
D|--------------------------------------------|
A|--------------------------------------------|
D|--------------------------------------------|
 |Guitar 2                                    |
e|--0-----0-----0--0-----0-----0-----0--------|
B|--0-----0-----0--0-----0-----0-----0--------|
G|--4-----4-----4--4-----4-----4-----4--4-/5--|
D|--5-----5-----5--5-----5-----5-----5--5-/7--|
A|--------------------------------------------|
D|--------------------------------------------|

Guitar 1
e|-12-12-12-12-12-12-12-12-12-12-12-12-12-12--|
B|-13-13-13-13-13-13-13-13-13-13-13-13-13-13--|
G|--------------------------------------------|
D|--------------------------------------------|
A|--------------------------------------------|
D|--------------------------------------------|
 |Guitar 2                                    |
e|--0-----0-----0--0-----0-----0-----0--------|
B|--0-----0-----0--0-----0-----0-----0--------|
G|--5-----5-----5--5-----5-----5-----5--5-/7--|
D|--7-----7-----7--7-----7-----7-----7--7-/9--|
A|--------------------------------------------|
D|--------------------------------------------|

Guitar 1
e|-15-15-15-15-15-15-15-15-15-15-15-15-15-15-15-15-|
B|-17-17-17-17-17-17-17-17-17-17-17-17-17-17-17-17-|
G|-------------------------------------------------|
D|-------------------------------------------------|
A|-------------------------------------------------|
D|-------------------------------------------------|
 |Guitar 2                                         |
e|--0--0--0--0--0--0--0--0--0--0--0--0--0--0--0--0-|
B|--0--0--0--0--0--0--0--0--0--0--0--0--0--0--0--0-|
G|--7--7--7--7--7--7--7--7--7--7--7--7--7--7--7--7-|
D|--9--9--9--9--9--9--9--9--9--9--9--9--9--9--9--9-|
A|-------------------------------------------------|
D|-------------------------------------------------|

Play Pre-chorus x1

Chorus
Guitar 1
e|-------------------------------------|--------------------------------------|
B|-------------------------------------|--------------------------------------|
G|----------9--9--9------------9--9--9-|---------7-7-7-----------7-7-7--------|
D|-0-0-0---10-10-10-----------10-10-10-|-0-0-0---9-9-9-----------9-9-9--------|
A|-0-0-0--------------0-0-0------------|-0-0-0-----------0-0-0----------------|
D|-0-0-0--------------0-0-0------------|-0-0-0-----------0-0-0----------------|
 |Guitar 2                                                                    |
e|----------0--0--0------------0--0--0-|---------0-0-0-----------0-0----------|
B|----------0--0--0------------0--0--0-|---------0-0-0-----------0-0----------|
G|----------9--9--9------------9--9--9-|---------7-7-7-----------7-7----------|
D|-0-0-0---10-10-10-----------10-10-10-|-0-0-0---9-9-9-----------9-9-0--------|
A|-0-0-0--------------0-0-0------------|-0-0-0-----------0-0-0-------0--------|
D|-0-0-0--------------0-0-0------------|-0-0-0-----------0-0-0-------0--------|

Guitar 1
e|------------------------------------------------|
B|------------------------------------------------|
G|11-11-11-11-11-11-11-11-11/12-12-12-12-12-12-12-|
D|12-12-12-12-12-12-12-12-12/12-14-14-14-14-14-14-|
A|------------------------------------------------|
D|------------------------------------------------|
 |Guitar 2                                        |
e|------------------------------------------------|
B|------------------------------------------------|
G|11-11-11-11-11-11-11-11-11/12-12-12/12-12-12-12-|
D|-9--9--9--9--9--9--9--9--9/10-10-10-12-12-12-12-|
A|-9--9--9--9--9--9--9--9--9/10-10-10-10-10-10-10-|
D|-9--9--9--9--9--9--9--9--9/10-10-10-10-10-10-10-|

Guitar 1
e|-------------------------------------|--------------------------------------|
B|-------------------------------------|--------------------------------------|
G|----------9--9--9------------9--9--9-|---------7-7-7-----------7-7-7--------|
D|-0-0-0---10-10-10-----------10-10-10-|-0-0-0---9-9-9-----------9-9-9--------|
A|-0-0-0--------------0-0-0------------|-0-0-0-----------0-0-0----------------|
D|-0-0-0--------------0-0-0------------|-0-0-0-----------0-0-0----------------|
 |Guitar 2                                                                    |
e|----------0--0--0------------0--0--0-|---------0-0-0-----------0-0----------|
B|----------0--0--0------------0--0--0-|---------0-0-0-----------0-0----------|
G|----------9--9--9------------9--9--9-|---------7-7-7-----------7-7----------|
D|-0-0-0---10-10-10-----------10-10-10-|-0-0-0---9-9-9-----------9-9-0--------|
A|-0-0-0--------------0-0-0------------|-0-0-0-----------0-0-0-------0--------|
D|-0-0-0--------------0-0-0------------|-0-0-0-----------0-0-0-------0--------|

Guitar 1
e|------------------------|--------------------|----------------|
B|------------------------|--------------------|----------------|
G|-7-----7-7/-9--9--------|-(9)----------------|--7-------------|
D|-9-----9-9/10-10--------|(10)----------------|--9-------------|
A|------------------------|--------------------|----------------|
D|------------------------|--------------------|----------------|
 |Guitar 2                                     |
e|------------------------|--------------------|----------------|
B|------------------------|--------------------|----------------|
G|-4---4-4-4/-5--5--------|-(5)----------------|-(5)------------|
D|-2---2-2-2/-3--5--------|-(3)----------------|-(3)------------|
A|-2---2-2-2/-3--5--------|-(3)----------------|-(3)------------|
D|-2---2-2-2/-3--3--------|-(3)----------------|-(3)------------|

Bridge
Guitar 1
e|--------------|--------------|--------------|--------------|--------------|
B|--------------|--------------|--------------|--------------|--------------|
G|-4------------|-5------------|--9-----------|-7------------|-11-----------|
D|-5------------|-7------------|-10-----------|-9------------|-12-----------|
A|--------------|--------------|--------------|--------------|--------------|
D|--------------|--------------|--------------|--------------|--------------|

Guitar 1            let ring-------------------------------------|
e|----------------|-------------------------|--------------------|
B|--------12------|-12----12----12----12----|-12--12--12--12-----|
G|--------12------|----12----12----12----12-|---12--12--12--12---|
D|--------10------|-------------------------|--------------------|
A|----------------|-------------------------|--------------------|
D|----------------|-------------------------|--------------------|
 |Guitar 2                                                     |
e|----------------|-------------------------|------------------|
B|----------------|-------------------------|------------------|
G|-12-------------|--9--9--9--9--9--9--9--9-|--7-7-7-7-7-7-7-7-|
D|-14-------------|-10-10-10-10-10-10-10-10-|--9-9-9-9-9-9-9-9-|
A|----------------|--7--7--7--7--7--7--7--7-|--5-5-5-5-5-5-5-5-|
D|----------------|--7--7--7--7--7--7--7--7-|--5-5-5-5-5-5-5-5-|

Guitar 1
   let ring--------------------------------------------------------|
e|------------------|------------------|---------------------------|
B|-12--12--12--12---|-13--13--13--13---|-12----12----12----12------|
G|---12--12--12--12-|---12--12--12--12-|----12----12----12----12---|
D|------------------|------------------|---------------------------|
A|------------------|------------------|---------------------------|
D|------------------|------------------|---------------------------|
 |Guitar 2                                                       |
e|------------------|------------------|-------------------------|
B|------------------|------------------|-------------------------|
G|--4-4-4-4-4-4-4-4-|--5-5-5-5-5-5-5-5-|--9--9--9--9--9--9--9--9-|
D|--5-5-5-5-5-5-5-5-|--7-7-7-7-7-7-7-7-|-10-10-10-10-10-10-10-10-|
A|--2-2-2-2-2-2-2-2-|--3-3-3-3-3-3-3-3-|--7--7--7--7--7--7--7--7-|
D|--2-2-2-2-2-2-2-2-|--3-3-3-3-3-3-3-3-|--7--7--7--7--7--7--7--7-|

Guitar 1
   let ring-------------------------------------|
e|------------------|-10----10----10----10------|
B|-12--12--12--12---|----13----13----13----13---|
G|---12--12--12--12-|---------------------------|
D|------------------|---------------------------|
A|------------------|---------------------------|
D|------------------|---------------------------|
 |Guitar 2                                    |
e|------------------|-------------------------|
B|------------------|-------------------------|
G|--7-7-7-7-7-7-7-7-|-11-11-11-11-11-11-11-11-|
D|--9-9-9-9-9-9-9-9-|-12-12-12-12-12-12-12-12-|
A|--5-5-5-5-5-5-5-5-|--9--9--9--9--9--9--9--9-|
D|--5-5-5-5-5-5-5-5-|--9--9--9--9--9--9--9--9-|

Guitar 1
   let ring--------------------------------------------|
e|-12----12----10----10----|---------------------------|
B|----13----13----13-------|-12----12----12----12------|
G|----------------------12-|----12----12----12----12---|
D|-------------------------|---------------------------|
A|-------------------------|---------------------------|
D|-------------------------|---------------------------|
 |Guitar 2                                           |
e|-------------------------|-------------------------|
B|-------------------------|-------------------------|
G|-12-12-12-12-12-12-12-12-|--9--9--9--9--9--9--9--9-|
D|-14-14-14-14-14-14-14-14-|-10-10-10-10-10-10-10-10-|
A|-10-10-10-10-10-10-10-10-|--7--7--7--7--7--7--7--7-|
D|-10-10-10-10-10-10-10-10-|--7--7--7--7--7--7--7--7-|

Guitar 1
   let ring-------------------------------------------------|
e|------------------|-10--10--10--10---|-12--12--10--10-----|
B|-12--12--12--12---|---13--13--13--13-|---13--13--13-------|
G|---12--12--12--12-|------------------|---------------12---|
D|------------------|------------------|--------------------|
A|------------------|------------------|--------------------|
D|------------------|------------------|--------------------|
 |Guitar 2                                                |
e|------------------|------------------|------------------|
B|------------------|------------------|------------------|
G|--7-7-7-7-7-7-7-7-|--4-4-4-4-4-4-4-4-|--5-5-5-5-5-5-5-5-|
D|--9-9-9-9-9-9-9-9-|--5-5-5-5-5-5-5-5-|--7-7-7-7-7-7-7-7-|
A|--5-5-5-5-5-5-5-5-|--2-2-2-2-2-2-2-2-|--3-3-3-3-3-3-3-3-|
D|--5-5-5-5-5-5-5-5-|--2-2-2-2-2-2-2-2-|--3-3-3-3-3-3-3-3-|

Outro
Guitar 1
e|--0--0--0--0--0--0--0--0-|--0--0--0--0--0--0--0--0-|
B|-13-13-13-12-12/15-15\12-|-13-13-13-12-12/17-17\12-|
G|-------------------------|-------------------------|
D|-------------------------|-------------------------|
A|-------------------------|-------------------------|
D|-------------------------|-------------------------|
 |Guitar 2                                           |
e|-------------------------|-------------------------|
B|-------------------------|-------------------------|
G|--9--9--9--9--9--9--9--9-|--7--7--7--7--7--7--7--7-|
D|-10-10-10-10-10-10-10-10-|--9--9--9--9--9--9--9--9-|
A|--7--7--7--7--7--7--7--7-|--5--5--5--5--5--5--5--5-|
D|--7--7--7--7--7--7--7--7-|--5--5--5--5--5--5--5--5-|

Guitar 1
e|--0--0--0--0--0--0--0--0-|--0--0--0--0--0--0--0--0-|
B|-13-13-13-12-12-13-13-12-|-13-13-13-13-13-13-13-12-|
G|-------------------------|-------------------------|
D|-------------------------|-------------------------|
A|-------------------------|-------------------------|
D|-------------------------|-------------------------|
 |Guitar 2                                           |
e|-------------------------|-------------------------|
B|-------------------------|-------------------------|
G|-11-11-11-11-11-11-11-11-|-12-12-12-12-12-12-12-12-|
D|-12-12-12-12-12-12-12-12-|-14-14-14-14-14-14-14-14-|
A|--9--9--9--9--9--9--9--9-|-10-10-10-10-10-10-10-10-|
D|--9--9--9--9--9--9--9--9-|-10-10-10-10-10-10-10-10-|

Guitar 1
e|--0--0--0--0--0--0--0--0-|--0--0--0--0--0--0--0--0-|
B|-13-13-13-12-12/15-15\12-|-13-13-13-12-12/17-17\12-|
G|-------------------------|-------------------------|
D|-------------------------|-------------------------|
A|-------------------------|-------------------------|
D|-------------------------|-------------------------|
 |Guitar 2                                           |
e|-------------------------|-------------------------|
B|-------------------------|-------------------------|
G|--9--9--9--9--9--9--9--9-|--7--7--7--7--7--7--7--7-|
D|-10-10-10-10-10-10-10-10-|--9--9--9--9--9--9--9--9-|
A|--7--7--7--7--7--7--7--7-|--5--5--5--5--5--5--5--5-|
D|--7--7--7--7--7--7--7--7-|--5--5--5--5--5--5--5--5-|

Guitar 1
e|--0--0--0--0--0--0--0--0-|--0--0--0--0--0--0--0--0-|
B|-13-13-13-12-12-13-13-12-|-13-13-13-13-13-13-13-12-|
G|-------------------------|-------------------------|
D|-------------------------|-------------------------|
A|-------------------------|-------------------------|
D|-------------------------|-------------------------|
 |Guitar 2                                           |
e|-------------------------|-------------------------|
B|-------------------------|-------------------------|
G|--4--4--4--4--4--4--4--4-|--5--5--5--5--5--5--5--5-|
D|--5--5--5--5--5--5--5--5-|--7--7--7--7--7--7--7--7-|
A|--2--2--2--2--2--2--2--2-|--3--3--3--3--3--3--3--3-|
D|--2--2--2--2--2--2--2--2-|--3--3--3--3--3--3--3--3-|

Guitar 1
e|--0--0--0--0--0--0--0--0-|--0--0--0--0--0--0--0--0-|
B|-13-13-13-12-12/15-15\12-|-13-13-13-12-12/17-17\12-|
G|-------------------------|-------------------------|
D|-------------------------|-------------------------|
A|-------------------------|-------------------------|
D|-------------------------|-------------------------|
 |Guitar 2                                           |
e|-------------------------|-------------------------|
B|-------------------------|-------------------------|
G|--9--9--9--9--9--9--9--9-|--7--7--7--7--7--7--7--7-|
D|-10-10-10-10-10-10-10-10-|--9--9--9--9--9--9--9--9-|
A|--7--7--7--7--7--7--7--7-|--5--5--5--5--5--5--5--5-|
D|--7--7--7--7--7--7--7--7-|--5--5--5--5--5--5--5--5-|

Guitar 1
e|--0--0--0--0--0--0--0--0-|--0--0--0--0--0--0--0--0-|
B|-13-13-13-12-12-13-13-12-|-13-13-13-13-13-13-13-12-|
G|-------------------------|-------------------------|
D|-------------------------|-------------------------|
A|-------------------------|-------------------------|
D|-------------------------|-------------------------|
 |Guitar 2                                           |
e|-------------------------|-------------------------|
B|-------------------------|-------------------------|
G|-11-11-11-11-11-11-11-11-|-12-12-12-12-12-12-12-12-|
D|-12-12-12-12-12-12-12-12-|-14-14-14-14-14-14-14-14-|
A|--9--9--9--9--9--9--9--9-|-10-10-10-10-10-10-10-10-|
D|--9--9--9--9--9--9--9--9-|-10-10-10-10-10-10-10-10-|

Guitar 1
e|-------------------------|-------------------------|
B|-------------------------|-------------------------|
G|--9----------------------|-(9)---------------------|
D|-10----------------------|(10)---------------------|
A|--7----------------------|-(7)---------------------|
D|--7----------------------|-(7)---------------------|
 |Guitar 2                                           |
e|--0--0--0--0--0--0--0--0-|--0----------------------|
B|-17-17-17-15-15-13-13-12-|-12----------------------|
G|-------------------------|-------------------------|
D|-------------------------|-------------------------|
A|-------------------------|-------------------------|
D|-------------------------|-------------------------|

===============================================================================
9. War All the Time

Intro
Guitar 1
e||----------------------------------|------------------------------------||
B||o---------------------------------|-----------------------------------o||
G||----------------------------------|------------------------------------||
D||--3-3-3-3-3-3-3-3-5-5-5-5\2-2-2-2-|/7-7-7-7-7-7-7-7-9-9-9-9-10-10-10\--||
A||o-0-0-0-0-0-0-0-0-0-0-0-0-0-0-0-0-|-0-0-0-0-0-0-0-0-0-0-0-0--0--0--0--o||
D||--3-3-3-3-3-3-3-3-5-5-5-5\2-2-2-2-|/7-7-7-7-7-7-7-7-9-9-9-9-10-10-10\--||

Verse
Guitar 1
e||----------------------------------|------------------------------------||
B||o---------------------------------|-----------------------------------o||
G||----------------------------------|------------------------------------||
D||--3-3-3-3-3-3-3-3-5-5-5-5\2-2-2-2-|/7-7-7-7-7-7-7-7-9-9-9-9-10-10-10\--||
A||o-0-0-0-0-0-0-0-0-0-0-0-0-0-0-0-0-|-0-0-0-0-0-0-0-0-0-0-0-0--0--0--0--o||
D||--3-3-3-3-3-3-3-3-5-5-5-5\2-2-2-2-|/7-7-7-7-7-7-7-7-9-9-9-9-10-10-10\--||
 ||Guitar 2                                                               ||
 ||  let ring------------------------------------------|                  ---|
e||----------------------------------|---------------------------------------|
B||o-7---------------5---------------|-----------------------------------o---|
G||--7---------------5---------------|---------------------------------------|
D||----------------------------------|-7---------------5---------------------|
A||o---------------------------------|-7---------------5-----------------o---|
D||----------------------------------|---------------------------------------|
     NH----------------------------------------------------------------------|

Guitar 1
e|---------------------------------|-----------------------------------|
B|---------------------------------|-----------------------------------|
G|---------------------------------|-----------------------------------|
D|-3-3-3-3-3-3-3-3-5-5-5-5\2-2-2-2-|/7-7-7-7-7-7-7-7-9-9-9-9-10-10-10\-|
A|-0-0-0-0-0-0-0-0-0-0-0-0-0-0-0-0-|-0-0-0-0-0-0-0-0-0-0-0-0--0--0--0--|
D|-3-3-3-3-3-3-3-3-5-5-5-5\2-2-2-2-|/7-7-7-7-7-7-7-7-9-9-9-9-10-10-10\-|
 |Guitar 2                                                             |
e|-5-------3-------2---------------|-----------------------------------|
B|-------------------------2-------|-2h3p2p0---------------------------|
G|---------------------------------|-----------------------------------|
D|---------------------------------|-----------------------------------|
A|---------------------------------|-----------------------------------|
D|---------------------------------|-----------------------------------|

Guitar 1
e|---------------------------------|-----------------------------------|
B|---------------------------------|-----------------------------------|
G|---------------------------------|-----------------------------------|
D|-3-3-3-3-3-3-3-3-5-5-5-5\2-2-2-2-|/7-7-7-7-7-7-7-7-9-9-9-9-10-10-10\-|
A|-0-0-0-0-0-0-0-0-0-0-0-0-0-0-0-0-|-0-0-0-0-0-0-0-0-0-0-0-0--0--0--0--|
D|-3-3-3-3-3-3-3-3-5-5-5-5\2-2-2-2-|/7-7-7-7-7-7-7-7-9-9-9-9-10-10-10\-|
 |Guitar 2                                                             |
e|-5-------3-------2---------------|-----------------------------------|
B|-------------------------2-------|-2h3p2h3---------------------------|
G|---------------------------------|-----------------------------------|
D|---------------------------------|-----------------------------------|
A|---------------------------------|-----------------------------------|
D|---------------------------------|-----------------------------------|

Guitar 1
e|---------------------------------|-----------------------------------|
B|---------------------------------|-----------------------------------|
G|---------------------------------|-----------------------------------|
D|-3-3-3-3-3-3-3-3-5-5-5-5\2-2-2-2-|/7-7-7-7-7-7-7-7-9-9-9-9-10-10-10\-|
A|-0-0-0-0-0-0-0-0-0-0-0-0-0-0-0-0-|-0-0-0-0-0-0-0-0-0-0-0-0--0--0--0--|
D|-3-3-3-3-3-3-3-3-5-5-5-5\2-2-2-2-|/7-7-7-7-7-7-7-7-9-9-9-9-10-10-10\-|
 |Guitar 2                                                             |
e|-5-------3-------2---------------|-----------------------------------|
B|-------------------------2-------|-2h3p2h3---------------------------|
G|---------------------------------|-----------------------------------|
D|---------------------------------|-----------------------------------|
A|---------------------------------|-----------------------------------|
D|---------------------------------|-----------------------------------|

Guitar 1
e|-------------------------|
B|-------------------------|
G|-------------------------|
D|-3-----------------------|
A|-0-----------------------|
D|-3-----------------------|
 |Guitar 2                 |
e|-------------------------|
B|-------------------------|
G|-------------------------|
D|-------------------------|
A|-------------------------|
D|-------------------------|

Chorus
Guitar 1                                                                 x3
e||----------------------------------|-------------------------------------||
B||o---------------------------------|------------------------------------o||
G||----------------------------------|-------------------------------------||
D||--3-3-3-3-3-3-3-3-5-5-5-5\2-2-2-2-|/7-7-7-7-7-7-7-7-9-9-9-9-10-10-10\---||
A||o-0-0-0-0-0-0-0-0-0-0-0-0-0-0-0-0-|-0-0-0-0-0-0-0-0-0-0-0-0--0--0--0---o||
D||--3-3-3-3-3-3-3-3-5-5-5-5\2-2-2-2-|/7-7-7-7-7-7-7-7-9-9-9-9-10-10-10\---||
 ||Guitar 2                                                                ||
 ||  let ring-----------------------------------------------------------|  ||
e||----5p2p0-------------------------|---5p2p0-----------------------------||
B||o-0-------5p3p2p0-2h3p2p0-2h3p2p0-|-0-------5p3p2p0-2h3p2p0--2-h3-p2p0-o||
G||----------------------------------|-------------------------------------||
D||----------------------------------|-------------------------------------||
A||o---------------------------------|------------------------------------o||
D||----------------------------------|-------------------------------------||

Bridge
Guitar 1
e||---------------------------------------------|
B||o--------------------------------------------|
G||---------------------------------------------|
D||--3--3--3--3--3--3--3--3--5--5--5--5\2-2-2-2-|
A||o-0--0--0--0--0--0--0--0--0--0--0--0-0-0-0-0-|
D||--3--3--3--3--3--3--3--3--5--5--5--5\2-2-2-2-|
 ||Guitar 2                                     |
e||--0--0--0--0--0--0--0--0--0--0--0--0-0-0-0-0-|
B||o15-15-15-14-14-14-12-12-12-10-10-10-8-8-7-7-|
G||---------------------------------------------|
D||---------------------------------------------|
A||o--------------------------------------------|
D||---------------------------------------------|

Guitar 1                                         x4
e|-------------------------------------------------||----------------|
B|------------------------------------------------o||----------------|
G|-------------------------------------------------||-4--------------|
D|-/7--7--7--7--7--7--7--7--9--9--9--9-10-10-10\---||-3--------------|
A|--0--0--0--0--0--0--0--0--0--0--0--0--0--0--0---o||-0--------------|
D|-/7--7--7--7--7--7--7--7--9--9--9--9-10-10-10\---||-3--------------|
 |Guitar 2                                                           |
e|--0--0--0--0--0--0--0--0--0--0--0--0--0--0--0-0--||-0--------------|
B|-15-15-15-14-14-14-12-12-12-10-10-10--8--8--7-7-o||-7--------------|
G|-------------------------------------------------||----------------|
D|-------------------------------------------------||----------------|
A|------------------------------------------------o||----------------|
D|-------------------------------------------------||----------------|

Chorus
Guitar 1
e||-------------------------------------------------|
B||o------------------------------------------------|
G||-------------------------------------------------|
D||--3--3--3--3--3--3--3--3--5--5--5--5-\2--2--2--2-|
A||o-0--0--0--0--0--0--0--0--0--0--0--0--0--0--0--0-|
D||--3--3--3--3--3--3--3--3--5--5--5--5-\2--2--2--2-|
 ||Guitar 2                                         |
e||----------------------------------17-17-15-15-15-|
B||o15-15-15-15-15-15-15-15-15-12-12----------------|
G||-------------------------------------------------|
D||-------------------------------------------------|
A||o------------------------------------------------|
D||-------------------------------------------------|

Guitar 1
e|-------------------------------------------------||
B|------------------------------------------------o||
G|-------------------------------------------------||
D|-/7--7--7--7--7--7--7--7--9--9--9--9-10-10-10\---||
A|--0--0--0--0--0--0--0--0--0--0--0--0--0--0--0---o||
D|-/7--7--7--7--7--7--7--7--9--9--9--9-10-10-10\---||
 |Guitar 2                                         ||
e|----------------------------------17-17-15-15-15-||
B|-15-15-15-15-15-15-15-15-15-12-12---------------o||
G|-------------------------------------------------||
D|-------------------------------------------------||
A|------------------------------------------------o||
D|-------------------------------------------------||

Verse
Guitar 1                                                                  x4
e||----------------------------------|--------------------------------------||
B||o---------------------------------|-------------------------------------o||
G||----------------------------------|--------------------------------------||
D||--3-3-3-3-3-3-3-3-5-5-5-5\2-2-2-2-|/7--7--7--7-7-7-7-7-9-9-9-9-10-10-10\-||
A||o-0-0-0-0-0-0-0-0-0-0-0-0-0-0-0-0-|-0--0--0--0-0-0-0-0-0-0-0-0--0--0--0-o||
D||--3-3-3-3-3-3-3-3-5-5-5-5\2-2-2-2-|/7--7--7--7-7-7-7-7-9-9-9-9-10-10-10\-||
 ||Guitar 2                                                                 ||
 || let ring------------------------------------|                           ||
e||-17------15------14---------------|--------------------------------------||
B||o------------------------15-------|14h15p14p12--------------------------o||
G||----------------------------------|--------------------------------------||
D||----------------------------------|--------------------------------------||
A||o---------------------------------|-------------------------------------o||
D||----------------------------------|--------------------------------------||

Guitar 1
e|-------------------------|
B|-------------------------|
G|-------------------------|
D|--3----------------------|
A|--0----------------------|
D|--3----------------------|
 |Guitar 2                 |
e|-------------------------|
B|(12)---------------------|
G|-------------------------|
D|-------------------------|
A|-------------------------|
D|-------------------------|

Chorus
Guitar 1
e||-------------------------------------------------|
B||o------------------------------------------------|
G||-------------------------------------------------|
D||--3--3--3--3--3--3--3--3--5--5--5--5-\2--2--2--2-|
A||o-0--0--0--0--0--0--0--0--0--0--0--0--0--0--0--0-|
D||--3--3--3--3--3--3--3--3--5--5--5--5-\2--2--2--2-|
 ||Guitar 2                                         |
e||-14-14--0--0-14-14--0--0-14-14--0--0-14-14--0--0-|
B||o15-15-15-15-15-15-15-15-15-15-15-15-15-15-15-15-|
G||-16-16-16-16-16-16-16-16-16-16-16-16-16-16-16-16-|
D||-------------------------------------------------|
A||o------------------------------------------------|
D||-------------------------------------------------|

Guitar 1                                         x5
e|-------------------------------------------------||
B|------------------------------------------------o||
G|-------------------------------------------------||
D|-/7--7--7--7--7--7--7--7--9--9--9--9-10-10-10\---||
A|--0--0--0--0--0--0--0--0--0--0--0--0--0--0--0---o||
D|-/7--7--7--7--7--7--7--7--9--9--9--9-10-10-10\---||
 |Guitar 2                                         ||
e|-17-17--0--0-17-17--0--0-17-17--0--0-17-17--0--0-||
B|-15-15-15-15-15-15-15-15-15-15-15-15-15-15-15-15o||
G|-16-16-16-16-16-16-16-16-16-16-16-16-16-16-16-16-||
D|-------------------------------------------------||
A|------------------------------------------------o||
D|-------------------------------------------------||

Guitar 1
e|-------------------|-------------------|
B|-------------------|-------------------|
G|-------------------|-------------------|
D|-3-----------------|-(3)---------------|
A|-0-----------------|-(0)---------------|
D|-3-----------------|-(3)---------------|
 |Guitar 2                               |
e|-------------------|-------------------|
B|-7-----------------|-(7)---------------|
G|-------------------|-------------------|
D|-------------------|-------------------|
A|-------------------|-------------------|
D|-------------------|-------------------|

Breakdown
Guitar 1
e||------------5---5-----------5---5-|-----------7---7-----------7---7-----|
B||o---------5-5-5-5---------5-5-5-5-|---------7-7-7-7---------7-7-7-7-o---|
G||----------5---5-----------5---5---|---------7---7-----------7---7-------|
D||--3-3-3-3---------3-3-3-3---------|-7-7-7-7---------7-7-7-7-------------|
A||o-3-3-3-3---------3-3-3-3---------|-7-7-7-7---------7-7-7-7---------o---|
D||--3-3-3-3---------3-3-3-3---------|-7-7-7-7---------7-7-7-7-------------|
             NH----|         NH----|           NH----|         NH----------|

Chorus
Guitar 1
e||-------------------------------------------------|
B||o------------------------------------------------|
G||-------------------------------------------------|
D||--3--3--3--3--3--3--3--3--5--5--5--5--5--5--5--5-|
A||o-3--3--3--3--3--3--3--3--5--5--5--5--5--5--5--5-|
D||--3--3--3--3--3--3--3--3--5--5--5--5--5--5--5--5-|
 ||Guitar 2                                         |
e||-14-14--0--0-14-14--0--0-14-14--0--0-14-14--0--0-|
B||o15-15-15-15-15-15-15-15-15-15-15-15-15-15-15-15-|
G||-16-16-16-16-16-16-16-16-16-16-16-16-16-16-16-16-|
D||-------------------------------------------------|
A||o------------------------------------------------|
D||-------------------------------------------------|

Guitar 1                                         x4
e|-------------------------------------------------||
B|------------------------------------------------o||
G|-------------------------------------------------||
D|--7--7--7--7--7--7--7--7--7--7--7--7--7--7--7--7-||
A|--7--7--7--7--7--7--7--7--7--7--7--7--7--7--7--7o||
D|--7--7--7--7--7--7--7--7--7--7--7--7--7--7--7--7-||
 |Guitar 2                                         ||
e|-17-17--0--0-17-17--0--0-17-17--0--0-17-17--0--0-||
B|-15-15-15-15-15-15-15-15-15-15-15-15-15-15-15-15o||
G|-16-16-16-16-16-16-16-16-16-16-16-16-16-16-16-16-||
D|-------------------------------------------------||
A|------------------------------------------------o||
D|-------------------------------------------------||

Guitar 1
e|-------------------|-------------------|
B|-------------------|-------------------|
G|-------------------|-------------------|
D|--3----------------|-(3)---------------|
A|--3----------------|-(3)---------------|
D|--3----------------|-(3)---------------|
 |Guitar 2                               |
e|-14----------------|-(14)--------------|
B|-15----------------|-(15)--------------|
G|-16----------------|-(16)--------------|
D|-------------------|-------------------|
A|-------------------|-------------------|
D|-------------------|-------------------|

===============================================================================
10. M. Shepard

This is the only song on the album that isn’t in dropped D tuning. I know your all 
“all of Thursday’s songs are in dropped D!!!,” but this one isn’t. I used to think they all 
too, before I tabbed this song. Anyways, this song is in standard tuning.

Intro
Guitar 1
e||--0---0--0---0---0-0-|-0---0--0---0---0-0-|
B||o-0---0--0---0---0-0-|-0---0--0---0---0-0-|
G||--x---x--x---x---x-x-|-x---x--x---x---x-x-|
D||--2---2--2---2---2-2-|-2---2--2---2---2-2-|
A||o-2---2--2---2---2-2-|-2---2--2---2---2-2-|
E||--0---0--0---0---0-0-|-0---0--0---0---0-0-|
 ||Guitar 2                                  |
e||--0---2--0---2---0---|-0---2--0---2---0---|
B||o-0---0--0---0---0-3-|-0---0--0---0---0-3-|
G||--x---x--x---x---x-x-|-x---x--x---x---x-x-|
D||--2---2--2---2---2-2-|-2---2--2---2---2-2-|
A||o-2---2--2---2---2-2-|-2---2--2---2---2-2-|
E||--0---0--0---0---0-0-|-0---0--0---0---0-0-|

Guitar 1
e|--0--0--0--0--0--0--0--0--0--0--0--0--0--2--2--2-|
B|--3--3--3--3--3--3--3--3--3--3--3--3--3--3--3--3-|
G|--0--0--0--0--0--0--0--0--0--0--0--0--0--0--0--0-|
D|--2--2--2--2--2--2--2--2--2--2--2--2--2--2--2--2-|
A|--3--3--3--3--3--3--3--3--3--3--3--3--3--3--3--3-|
E|-------------------------------------------------|
 |Guitar 2                                         |
 |    hold---------------------------------------| |
e|-------------------------------------------------|
B|-13----13-13-13-13-13-13-13-13-13-13-13-13-13-13-|
G|-16h^--16-16-16-16-16-16-16-16-16-16-16-16-16-16-|
D|-------------------------------------------------|
A|-------------------------------------------------|
E|-------------------------------------------------|

Guitar 1
e|--3--3--3--3----3--3-3-3-3-3-3-3-3-3-3-3--||
B|--3--3--3--3----3--3-3-3-3-3-3-3-3-3-3-3-o||
G|--0--0--0--0----0--0-0-0-0-0-0-0-0-0-0-0--||
D|--2--2--2--2----2--2-2-2-2-2-2-2-2-2-2-2--||
A|--3--3--3--3----3--3-3-3-3-3-3-3-3-3-3-3-o||
E|------------------------------------------||
 |Guitar 2                                  ||
 |           let ring--------------------|  ||
e|------------------------------------------||
B|-13----13-13------13--13--13--13--13--13-o||
G|-16r16-16-16h^r16---16--16--16--16--16----||
D|------------------------------------------||
A|-----------------------------------------o||
E|------------------------------------------||

Verse
Guitar 1
    Let ring-----------------------------------------------------------------|
e||-----------------------------------|--------------------------------------|
B||o----15-----15---------12-----12---|--------------------------------------|
G||---12-----12--12-----12-----12--12-|-----12-------------------------------|
D||-14-------------12-----------------|---14--------14-10-10-10/12\7-7-7-7---|
A||o----------------------------------|-12--------12---10-10-10/12\7-7-7-7---|
E||-----------------------------------|-----------------8--8--8/10\5-5-5-5---|
 ||Guitar 2                                                                |
 ||  let ring--------------------------------------|                       |
e||-----------------------------------|------------------------------------|
B||o-----0---------------0------------|------0-----------------------------|
G||------0---------------0----------0-|------0-----------------------------|
D||----5-------9------7-----------7---|----9-------9---10-10-10/12\7-7-7---|
A||o-7-------7---7-9------------9-----|-10--------10---10-10-10/12\7-7-7-7-|
E||--0--------------------------------|-----------------8--8--8/10\5-5-5-0-|

Guitar 1
  Let ring-------------------------------------------------------------------|
e|----------------------------------|----------------------------------------|
B|----15-----15---------12-----12---|------------------------------------o---|
G|--12-----12--12-----12-----12--12-|-----12---------------------------------|
D|14-------------12-----------------|---14--------14-10-10-10---\7-7-7-7-----|
A|----------------------------------|-12--------12---10-10-10---\7-7-7-7-o---|
E|----------------------------------|-----------------8--8--8---\5-5-5-5-----|
 |Guitar 2                                                                ||
 | let ring--------------------------------------|                        ||
e|----------------------------------|-------------------------------------||
B|-----0---------------0------------|------0-----------------------------o||
G|-----0---------------0----------0-|------0------------------------------||
D|---5-------9------7-----------7---|----9-------9---10-10-10/12\7-7-7----||
A|-7-------7---7-9------------9-----|-10--------10---10-10-10/12\7-7-7-7-o||
E|-0--------------------------------|-----------------8--8--8/10\5-5-5-0--||

Chorus
Guitar 1
e|------------------------------------------------|
B|------------------------------------------------|
G|-11-11-11-11-11-11-11-11/14-14-14-14\12-12-12---|
D|--9--9--9--9--9--9--9--9--x--x--x--x--x--x--x-0-|
A|--7--7--7--7--7--7--7--7/12-12-12-12\10-10-10-0-|
E|--0--0--0--0--0--0--0--0------------------------|
 |Guitar 2                                        |
e|------------------------------------------------|
B|------------------------------------------------|
G|-11-11-11-11-11-11-11-11/14-14-14-14\12-12-12---|
D|--9--9--9--9--9--9--9--9--x--x--x--x--x--x--x-0-|
A|--7--7--7--7--7--7--7--7/12-12-12-12\10-10-10-0-|
E|--0--0--0--0--0--0--0--0------------------------|

Guitar 1
e|---------------------------------|
B|-------------------------8-------|
G|-9-9-9-9-9-9-9-9-9-9-9-9-9-9-9---|
D|-x-x-x-x-x-x-x-x-x-x-x-x-x-x-x---|
A|-7-7-7-7-7-7-7-7-7-7-7-7-7-7-7-0-|
E|-8-8-8-8-8-8-8-8-8-8-8-8-8-8-8-0-|
 |Guitar 2                         |
e|---------------------------------|
B|---------------------------------|
G|-9-9-9-9-9-9-9-9-9-9-9-9-9-9-9-x-|
D|-x-x-x-x-x-x-x-x-x-x-x-x-x-x-x-x-|
A|-7-7-7-7-7-7-7-7-7-7-7-7-7-7-7-x-|
E|-8-8-8-8-8-8-8-8-8-8-8-8-8-8-8-x-|

Guitar 1
e|------------------------------------------------|
B|------------------------------------------------|
G|-11-11-11-11-11-11-11-11/14-14-14-14\12-12-12---|
D|--9--9--9--9--9--9--9--9--x--x--x--x--x--x--x-0-|
A|--7--7--7--7--7--7--7--7/12-12-12-12\10-10-10-0-|
E|--0--0--0--0--0--0--0--0------------------------|
 |Guitar 2                                        |
e|------------------------------------------------|
B|------------------------------------------------|
G|-11-11-11-11-11-11-11-11/14-14-14-14\12-12-12---|
D|--9--9--9--9--9--9--9--9--x--x--x--x--x--x--x-0-|
A|--7--7--7--7--7--7--7--7/12-12-12-12\10-10-10-0-|
E|--0--0--0--0--0--0--0--0------------------------|

Guitar 1
e|---------------------------------|
B|---------------------------------|
G|-9-9-9-9-9-9-9-9-9-9-9-9-9-9-9-9-|
D|-x-x-x-x-x-x-x-x-x-x-x-x-x-x-x-x-|
A|-7-7-7-7-7-7-7-7-7-7-7-7-7-7-7-7-|
E|-8-8-8-8-8-8-8-8-8-8-8-8-8-8-8---|
 |Guitar 2                         |
 | let ring----------------------| |
e|---------0---------------0-------|
B|-----------0---0-----------0---0-|
G|-----2-------2-------2-------2---|
D|---0---------------0-------------|
A|-3-----3---------2-----2---------|
E|---------------------------------|

Guitar 1
e|-------------------------------------------------|
B|-------------------------------------------------|
G|-17-17-17-17-16-16-16-16-14-14-14-14-12-12-12-11-|
D|--x--x--x--x--x--x--x--x--x--x--x--x--x--x--x--x-|
A|-15-15-15-15-14-14-14-14-12-12-12-12-10-10-10--9-|
E|-------------------------------------------------|
 |Guitar 2                                         |
e|-------------------------------------------------|
B|-------------------------------------------------|
G|-11-11-11-11-11-11-11-11/14-14-14-14\12-12-12----|
D|--9--9--9--9--9--9--9--9--x--x--x--x--x--x--x--0-|
A|--7--7--7--7--7--7--7--7/12-12-12-12\10-10-10--0-|
E|--0--0--0--0--0--0--0--0-------------------------|

Guitar 1
e|--------------------------------------------------|
B|--------------------------------------------------|
G|-11-12-12-12-12-12-12-14-14-14-14f^r14-14-14-14---|
D|--x--x--x--x--x--x--x--x--x--x--x-------x--x--x-0-|
A|--9-10-10-10-10-10-10-12-12-12-12------12-12-12-0-|
E|--------------------------------------------------|
 |Guitar 2                                          |
e|--------------------------------------------------|
B|--------------------------------------------------|
G|--9--9--9--9--9--9--9--9--9--9--9---9---9--9--9-x-|
D|--x--x--x--x--x--x--x--x--x--x--x---x---x--x--x-x-|
A|--7--7--7--7--7--7--7--7--7--7--7---7---7--7--7-x-|
E|--8--8--8--8--8--8--8--8--8--8--8---8---8--8--8-x-|

Guitar 1
e|------------------------------------------------|
B|------------------------------------------------|
G|-11-11-11-11-11-11-11-11/14-14-14-14\12-12-12---|
D|--9--9--9--9--9--9--9--9--x--x--x--x--x--x--x-0-|
A|--7--7--7--7--7--7--7--7/12-12-12-12\10-10-10-0-|
E|--0--0--0--0--0--0--0--0------------------------|
 |Guitar 2                                        |
e|------------------------------------------------|
B|------------------------------------------------|
G|-11-11-11-11-11-11-11-11/14-14-14-14\12-12-12---|
D|--9--9--9--9--9--9--9--9--x--x--x--x--x--x--x-0-|
A|--7--7--7--7--7--7--7--7/12-12-12-12\10-10-10-0-|
E|--0--0--0--0--0--0--0--0------------------------|

Guitar 1
e|---------------------------------|
B|---------------------------------|
G|-9-9-9-9-9-9-9-9-9-9-9-9-9-9-9-9-|
D|-x-x-x-x-x-x-x-x-x-x-x-x-x-x-x-x-|
A|-7-7-7-7-7-7-7-7-7-7-7-7-7-7-7-7-|
E|-8-8-8-8-8-8-8-8-8-8-8-8-8-8-8---|
 |Guitar 2                         |
 | let ring----------------------| |
e|---------0---------------0-------|
B|-----------0---0-----------0---0-|
G|-----2-------2-------2-------2---|
D|---0---------------0-------------|
A|-3-----3---------2-----2---------|
E|---------------------------------|

Verse
Guitar 1
    Let ring-----------------------------------------------------------------|
e||-----------------------------------|--------------------------------------|
B||o----15-----15---------12-----12---|--------------------------------------|
G||---12-----12--12-----12-----12--12-|-----12-------------------------------|
D||-14-------------12-----------------|---14--------14-10-10-10/12\7-7-7-7---|
A||o----------------------------------|-12--------12---10-10-10/12\7-7-7-7---|
E||-----------------------------------|-----------------8--8--8/10\5-5-5-5---|
 ||Guitar 2                                                                |
 ||  let ring--------------------------------------|                       |
e||-----------------------------------|------------------------------------|
B||o-----0---------------0------------|------0-----------------------------|
G||------0---------------0----------0-|------0-----------------------------|
D||----5-------9------7-----------7---|----9-------9---10-10-10/12\7-7-7---|
A||o-7-------7---7-9------------9-----|-10--------10---10-10-10/12\7-7-7-7-|
E||--0--------------------------------|-----------------8--8--8/10\5-5-5-0-|

Guitar 1
  Let ring-------------------------------------------------------------------|
e|----------------------------------|----------------------------------------|
B|----15-----15---------12-----12---|------------------------------------o---|
G|--12-----12--12-----12-----12--12-|-----12---------------------------------|
D|14-------------12-----------------|---14--------14-10-10-10---\7-7-7-7-----|
A|----------------------------------|-12--------12---10-10-10---\7-7-7-7-o---|
E|----------------------------------|-----------------8--8--8---\5-5-5-5-----|
 |Guitar 2                                                                ||
 | let ring--------------------------------------|                        ||
e|----------------------------------|-------------------------------------||
B|-----0---------------0------------|------0-----------------------------o||
G|-----0---------------0----------0-|------0------------------------------||
D|---5-------9------7-----------7---|----9-------9---10-10-10/12\7-7-7----||
A|-7-------7---7-9------------9-----|-10--------10---10-10-10/12\7-7-7-7-o||
E|-0--------------------------------|-----------------8--8--8/10\5-5-5-0--||

Bridge
Guitar 1
   Let ring----------------------------------------------------------------|
e|---8-----10---7-----8-----10---7---|---8-----10---7-----8-----10---7-----|
B|-----0------9---0-----0----------0-|-----0------9---0-----0----------0---|
G|-9-----9----------9-----9----9-----|-9-----9----------9-----9----9-------|
D|-----------------------------------|-------------------------------------|
A|-----------------------------------|-------------------------------------|
E|-----------------------------------|-------------------------------------|
 |Guitar 2                                                               |
e|---------------------------7-------|-----------------------------------|
B|---------------------------7-------|-----------------------------------|
G|11----11-------------------7---7---|11----11----------7---5---14q^-0---|
D|-9-----9-----------------------7---|-9-----9----------7---5----x---0---|
A|-7-----7------2-2------------------|-7-----7------2-2---------12q^-----|
E|-0-----0------0-0------------------|-0-----0------0-0------------------|
                PM|          NH--|                  PM| NH--|

Guitar 1
   Let ring------------------------------------------------------------------|
e|---8-----10---7-----8-----10---7---|---8-----10----7------8------10---7----|
B|-----0------9---0-----0----------0-|-----0------9----0-------0----------0--|
G|-9-----9----------9-----9----9-----|-9-----9-----------9--------9---9------|
D|-----------------------------------|---------------------------------------|
A|-----------------------------------|---------------------------------------|
E|-----------------------------------|---------------------------------------|
 |Guitar 2                                                                 |
e|-----------------------------------|-------------------------------------|
B|-----------------------------------|-------------------------------------|
G|11----11-------17------------------|11----11---11-11---------------------|
D|-9-----9--------x------------------|-9-----9----9--9--10-10-10-10-7-7-7-7|
A|-7-----7-------15---------------p0-|-7-----7----7--7--10-10-10-10-7-7-7-7|
E|-0-----0------0--------------------|-0-----0----0--0---8--8--8--8-5-5-5-5|

Guitar 1
e|------------------------------------------------|
B|------------------------------------------------|
G|-11-11-11-11-11-11-11-11/14-14-14-14\12-12-12---|
D|--9--9--9--9--9--9--9--9--x--x--x--x--x--x--x-0-|
A|--7--7--7--7--7--7--7--7/12-12-12-12\10-10-10-0-|
E|--0--0--0--0--0--0--0--0------------------------|
 |Guitar 2                                        |
e|------------------------------------------------|
B|------------------------------------------------|
G|-11-11-11-11-11-11-11-11/14-14-14-14\12-12-12---|
D|--9--9--9--9--9--9--9--9--x--x--x--x--x--x--x-0-|
A|--7--7--7--7--7--7--7--7/12-12-12-12\10-10-10-0-|
E|--0--0--0--0--0--0--0--0------------------------|

Guitar 1
e|---------------------------------|
B|---------------------------------|
G|-9-9-9-9-9-9-9-9-9-9-9-9-9-9-----|
D|-x-x-x-x-x-x-x-x-x-x-x-x-x-x-7-0-|
A|-7-7-7-7-7-7-7-7-7-7-7-7-7-7-7-0-|
E|-8-8-8-8-8-8-8-8-8-8-8-8-8-8-----|
 |                             NH  |
 |Guitar 2                         |
 | let ring----------------------| |
e|---------0---------------0-------|
B|-----------0---0-----------0---0-|
G|-----2-------2-------2-------2---|
D|---0---------------0-------------|
A|-3-----3---------2-----2---------|
E|---------------------------------|

Chorus
Guitar 1
e|-0---0--0---0---0-0-|-0---0--0---0---0-0-|
B|-0---0--0---0---0-0-|-0---0--0---0---0-0-|
G|-x---x--x---x---x-x-|-x---x--x---x---x-x-|
D|-2---2--2---2---2-2-|-2---2--2---2---2-2-|
A|-2---2--2---2---2-2-|-2---2--2---2---2-2-|
E|-0---0--0---0---0-0-|-0---0--0---0---0-0-|
 |Guitar 2                                 |
e|-0---2--0---2---0---|-0---2--0---2---0---|
B|-0---0--0---0---0-3-|-0---0--0---0---0-3-|
G|-x---x--x---x---x-x-|-x---x--x---x---x-x-|
D|-2---2--2---2---2-2-|-2---2--2---2---2-2-|
A|-2---2--2---2---2-2-|-2---2--2---2---2-2-|
E|-0---0--0---0---0-0-|-0---0--0---0---0-0-|


Guitar 1
e|--0-----0---0----0----0--0-|--3--3--3-------3-3---3-3---3-3---3---0-|
B|--3-----3---3----3----3--3-|--3--3--3-------3-3---3-3---3-3---3---0-|
G|--0-----0---0----0----0--0-|--0--0--0-------0-0---0-0---0-0---0---x-|
D|--2-----2---2----2----2--2-|--2--2--2-------2-2---2-2---2-2---2---2-|
A|--3-----3---3----3----3--3-|--3--3--3-------3-3---3-3---3-3---3---2-|
E|---------------------------|--------------------------------------0-|
 |Guitar 2                                                            |
 |    hold----------------------|     let ring--------------------|   |
e|---------------------------|----------------------------------------|
B|-13----13--13---13---13-13-|-13----13------13--13--13--13--13--13---|
G|-16h^--16--16---16---16-16-|-16r16-16h^r16---16--16--16--16--16-----|
D|---------------------------|----------------------------------------|
A|---------------------------|----------------------------------------|
E|---------------------------|----------------------------------------|

Interlude
Guitar 1                                let ring-----------------------------|
e|-0-----------------|----------------|----------------|---------------------|
B|-0-----------------|----------------|-1--------------|-(1)-----------------|
G|-x-----------------|----------------|-2--------------|-(2)-------0---------|
D|-2-----------------|----------------|----------------|---------------------|
A|-2-----------------|----------------|----------------|---------------------|
E|-0-----------------|----------------|----------------|---------------------|
 |Guitar 2                                                                 |
 | let ring--------------------------------------------------------|       |
e|-0---2--0---2------|-0---2--0---2---|----------------|-------------------|
B|-------------------|----------------|----------------|-------------------|
G|----------------2--|----------------|-2--------------|-(2)-------0-------|
D|-------------------|----------------|----------------|-------------------|
A|-------------------|----------------|----------------|-------------------|
E|-------------------|----------------|----------------|-------------------|

Guitar 1
   Let ring-----------------------------------------------------------------|
e|----10----------7----|(7)-------------|----------------|------------------|
B|--12----------8------|------8------7--|-8------------7-|-(7)--------------|
G|-9-------------------|----9------9----|----------------|------------------|
D|---------------------|----------------|----------------|------------------|
A|---------------------|----------------|----------------|------------------|
E|---------------------|----------------|----------------|------------------|
 |Guitar 2                                                                |
 | let ring------------------------------------------------|              |
e|-0-----2--0---2---0--|----------------|----------------|----------------|
B|---------------------|-----------0----|-1--------------|----------------|
G|---------------------|-2--------------|-x--------------|----------------|
D|---------------------|----------------|-2--------------|-4--------------|
A|---------------------|----------------|----------------|----------------|
E|---------------------|----------------|----------------|----------------|

Guitar 1
    let ring-----------------------------------------------------------------|
e|-------------------|----------------|----------------|---------------------|
B|-------------------|----------------|----------------|-12-----10-----------|
G|-------------------|----------------|----------------|---------------12----|
D|-(9)---------------|-12-------------|----------------|---------------------|
A|-------------------|----------------|-10-------------|---------------------|
E|-------------------|----------------|----------------|---------------------|
 |Guitar 2                                                                 |
 | let ring--------------------------------------------------------|       |
e|-0---2--0---2------|-0---2--0---2---|----------------|-------------------|
B|-------------------|----------------|----------------|-------------------|
G|----------------2--|----------------|-2--------------|-(2)-------0-------|
D|-------------------|----------------|----------------|-------------------|
A|-------------------|----------------|----------------|-------------------|
E|-------------------|----------------|----------------|-------------------|

Guitar 1
   Let ring-----------------------------------------------------------------|
e|----10----------7----|(7)-------------|----------------|------------------|
B|--12----------8------|------8------7--|-8------------7-|-(7)--------------|
G|-9-------------------|----9------9----|-9------------7-|-(7)--------------|
D|---------------------|----------------|----------------|------------------|
A|---------------------|----------------|----------------|------------------|
E|---------------------|----------------|----------------|------------------|
 |Guitar 2                                                                |
 | let ring------------------------------------------------|              |
e|-0-----2--0---2---0--|----------------|----------------|----------------|
B|---------------------|-----------0----|-1--------------|----------------|
G|---------------------|-2--------------|-x--------------|----------------|
D|---------------------|----------------|-2--------------|-4--------------|
A|---------------------|----------------|----------------|----------------|
E|---------------------|----------------|----------------|----------------|

Guitar 1
   Let ring-----------------------------------------------------------------|
e|----10----------7----|(7)-------------|----------------|------------------|
B|--12----------8------|------8-10---7-8|-8------------7-|--8-10------------|
G|-9-------------------|----9----9-9----|-9------------7-|------------------|
D|---------------------|----------------|----------------|------------------|
A|---------------------|----------------|----------------|------------------|
E|---------------------|----------------|----------------|------------------|
 |Guitar 2                                                                |
 | let ring------------------------------------------------|              |
e|-0-----2--0---2---0--|----------------|----------------|----------------|
B|---------------------|-----------0----|-1--------------|----------------|
G|---------------------|-2--------------|-x--------------|----------------|
D|---------------------|----------------|-2--------------|-4--------------|
A|---------------------|----------------|----------------|----------------|
E|---------------------|----------------|----------------|----------------|

Guitar 2
e|-0-----2--0---2-|
B|----------------|
G|----------------|
D|----------------|
A|----------------|
E|----------------|

Guitar 1
e|-------------------------------------------------|
B|--------------------------------7--7--7--7--8--8-|
G|--0--0--0--0--0--0--0--0--0--0--0--0--0--0--0--0-|
D|--x--x--x--x--x--x--x--x--x--x--x--x--x--x--x--x-|
A|--7--7--7--7--7--7--7--7--7--7--7--7--7--7--7--7-|
E|--8--8--8--8--8--8--8--8--8--8--8--8--8--8--8--8-|
 |Guitar 2                                         |
e|-------------------------------------------------|
B|-------------------------------------------------|
G|-------------------------------------------------|
D|-10-10-10-10-10-10-10-10-10-10-10-10-10-10-10-10-|
A|--7--7--7--7--7--7--7--7--7--7--7--7--7--7--7--7-|
E|--8--8--8--8--8--8--8--8--8--8--8--8--8--8--8--8-|

Guitar 1
e|--------------------------------7--7-------------|
B|--8--8--8--8--8--8--8--8--8--8--8--8-----8-------|
G|--0--0--0--0--0--0--0--0--0--0--0--0-----0-------|
D|--x--x--x--x--x--x--x--x--x--x--x--x-----x-------|
A|--7--7--7--7--7--7--7--7--7--7--7--7-----7--7--7-|
E|--8--8--8--8--8--8--8--8--8--8--8--8-----8--0--0-|
 |Guitar 2                                         |
e|-------------------------------------------------|
B|-------------------------------------------------|
G|-------------------------------------------------|
D|-10-10-10-10-10-10-10-10-10-10-10-10-10-10-10--9-|
A|--7--7--7--7--7--7--7--7--7--7--7--7--7--7--7--7-|
E|--8--8--8--8--8--8--8--8--8--8--8--8--8--8--8--8-|

Outro
Guitar 1
(you have to pull off the 11 hard enough to hit the open B string)
e|-----------------------------------------|
B|----0----0----0----0----0----0----0----0-|
G|-11p--11p--11p--11p--11p--11p--11p--11p--|
D|--9----9----9----9----9----9----9----9---|
A|--7----7----7----7----7----7----7----7---|
E|--0----0----0----0----0----0----0----0---|
 |Guitar 2                                 |
e|-----------------------------------------|
B|-----------------------------------------|
G|-----------------------------------------|
D|--9----9----9----9----9----9----9----9---|
A|--7----7----7----7----7----7----7----7---|
E|--0----0----0----0----0----0----0----0---|

Guitar 1
e|-------------------------------------------------|
B|--8--8--8--8--8--8--8--8--8--8--8--8-----8--8--8-|
G|--9--9--9--9--9--9--9--9--9--9--9--9--9--9--9--9-|
D|--x--x--x--x--x--x--x--x--x--x--x--x--x--x--x--x-|
A|--7--7--7--7--7--7--7--7--7--7--7--7--7--7--7--7-|
E|--8--8--8--8--8--8--8--8--8--8--8--8--8--8--8--8-|
 |Guitar 2                                         |
e|-------------------------------------------------|
B|-------------------------------------------------|
G|-------------------------------------------------|
D|-10-10-10-10-10-10-10-10-10-10-10-10-10-10--9--9-|
A|--7--7--7--7--7--7--7--7--7--7--7--7--7--7--7--7-|
E|--8--8--8--8--8--8--8--8--8--8--8--8--8--8--0--0-|

Guitar 1
e|-----------------------------------------|
B|----0----0----0----0----0----0----0----0-|
G|-11p--11p--11p--11p--11p--11p--11p--11p--|
D|--9----9----9----9----9----9----9----9---|
A|--7----7----7----7----7----7----7----7---|
E|--0----0----0----0----0----0----0----0---|
 |Guitar 2                                 |
e|-----------------------------------------|
B|-----------------------------------------|
G|-----------------------------------------|
D|--9----9----9----9----9----9----9----9---|
A|--7----7----7----7----7----7----7----7---|
E|--0----0----0----0----0----0----0----0---|

Guitar 1
e|-------------------------------------------------|
B|-------------------------------------------------|
G|--0--0--0--0--0--0--0--0-14-14-14-14-14-14-14----|
D|--x--x--x--x--x--x--x--x--x--x--x--x--x--x--x----|
A|--7--7--7--7--7--7--7--7-12-12-12-12-12-12-12----|
E|--8--8--8--8--8--8--8--8-----------------------0-|
 |Guitar 2                                         |
e|-------------------------------------------------|
B|-------------------------------------------------|
G|-------------------------------------------------|
D|-10-10-10-10-10-10-10-10-10-10-10-10-10-10-10-10-|
A|--7--7--7--7--7--7--7--7--7--7--7--7--7--7--7--7-|
E|--8--8--8--8--8--8--8--8--8--8--8--8--8--8--8--8-|

Guitar 1
e|--------------------------------------|
B|--------------------------------------|
G|-11-11----11-11----11-11----11-11-----|
D|--9--9-----9--9-----9--9-----9--9-----|
A|--7--7-----7--7-----7--7-----7--7-----|
E|--0--0-----0--0-----0--0-----0--0-----|
 |Guitar 2                              |
e|--------------------------------------|
B|--7-p0-7p0-7-p0-7p0-7-p0-7p0-7-p0-7p0-|
G|--------------------------------------|
D|--------------------------------------|
A|--------------------------------------|
E|--------------------------------------|

===============================================================================
11. Tomorrow I’ll Be You

Intro
Guitar 1
e|---------------------------------|
B|---------------------------------|
G|-11-11-11-11-11-11-11-11-11-11---|
D|--9--9--9--9--9--9--9--9--9--9---|
A|---------------------------------|
D|---------------------------------|
   PM------------------------------|

Guitar 1
e|---------------------------------------------------|
B|---------------------------------------------------|
G|-11-11-11-11-11-11-11-11-11-11-11-11-11-11-11-11---|
D|--9--9--9--9--9--9--9--9--9--9--9--9--9--9--9--9---|
A|--------------------------------------0------------|
D|---------------------------------------------------|
    PM-----------------------------------------------|

Guitar 1
e|-------------------------------------------------|
B|-------------------------------------------------|
G|-11-11-11-11-11-11-11-11-11-11-11-11-11-11-11-11-|
D|--9--9--9--9--9--9--9--9--9--9--9--9--9--9--9--9-|
A|-10-10-10-10-10-10-10-10-10-10-10-10-10-10-10-10-|
D|-------------------------------------------------|
 | PM--------------------------------------------| |
 |Guitar 2                                         |
 |        let ring----------------------------|    |
e|-------------------------------------------------|
B|-------------------------12----------------------|
G|-------------11----------------------------11----|
D|--------9----------------------------------------|
A|-------------------------------------------------|
D|-------------------------------------------------|

Guitar 1
e|-------------------------------------------------|
B|-------------------------------------------------|
G|-11-11-11-11-11-11-11-11-11-11-11-11-11-11-11-11-|
D|--9--9--9--9--9--9--9--9--9--9--9--9--9--9--9--9-|
A|-10-10-10-10-10-10-10-10-10-10-10-10-10-10-10-10-|
D|-------------------------------------------------|
 | PM--------------------------------------------| |
 |Guitar 2                                         |
 | let ring-----------------------------------|    |
e|-------------------------------------------------|
B|-------------------------------12----------------|
G|(11)11-------11----------------------11----------|
D|--------------------------------------------9----|
A|-------------------------------------------------|
D|-------------------------------------------------|

Guitar 1
   Let ring------------------------------------------|
e|---------------------|----------------0------------|
B|----7-------7------7-|-(7)----7--------------------|
G|-4-------4-------4---|-----4-------4--------4------|
D|---------------------|-----------------------------|
A|---------------------|-----------------------------|
D|---------------------|-----------------------------|
 |Guitar 2                                         |
 | let ring-----------------------------------|    |
e|-9h10-9----10p9----9-|h10-------10p9-10----------|
B|--------12------12---|----12------------12-------|
G|---------------------|-------11------------11----|
D|---------------------|---------------------------|
A|---------------------|---------------------------|
D|---------------------|---------------------------|

Guitar 1
   Let ring------------------------------------------|
e|----0-------0------0-|-(0)----0--------------------|
B|---------------------|-------------10--------------|
G|-7-------7------7----|-----7-----------------------|
D|---------------------|-----------------------------|
A|---------------------|-----------------------------|
D|---------------------|-----------------------------|
 |Guitar 2                                         |
 | let ring------------------------------------|   |
e|-12/14-12--14-----15-|----14----14----14----14---|
B|---------12----12----|-15----15----15----15------|
G|-------------12------|---------------------------|
D|---------------------|---------------------------|
A|---------------------|---------------------------|
D|---------------------|---------------------------|

Guitar 1
e|---------------------------------|---------------------------------|
B|-3---3-3-3-3-3---3-3-3-3-3-------|-3---3-3-3-3-3---3-3-3-3-3-------|
G|-x---x-x-x-x-x---x-x-x-x-x-------|-x---x-x-x-x-x---x-x-x-x-x-------|
D|-4---4-4-4-4-4---4-4-4-4-4-------|-4---4-4-4-4-4---4-4-4-4-4-------|
A|-2---2-2-2-2-2---2-2-2-2-2---0h2-|-2---2-2-2-2-2---2-2-2-2-2---0---|
D|-----------------------------0h2-|-2---2-2-2-2-2---2-2-2-2-2---0---|
 |Guitar 2                                                           |
e|---------------------------------|---------------------------------|
B|-3---3-3-3-3-3---3-3-3-3-3---3-3-|-3---3-3-3-3-----------------3---|
G|-2---2-2-2-2-2---2-2-2-2-2---2-2-|-2---2-2-2-2-2---2-2-2-2-2---2---|
D|-4---4-4-4-4-4---4-4-4-4-4---4-4-|-4---4-4-4-4-4---4-4-4-4-4---4---|
A|-2---2-2-2-2-2---2-2-2-2-2---2-2-|-2---2-2-2-2-2---2-2-2-2-2---2---|
D|---------------------------------|-2---2-2-2-2-2---2-2-2-2-2---2---|

Guitar 1
e|---------------------------------|-------------------------------|
B|---------------------------------|-------------------------------|
G|-7---7-7-7-7-7---7-7-7-7-7---7-7-|-7---7-7-7-7-7---7-7-7-7-7-----|
D|-5---5-5-5-5-5---5-5-5-5-5---5-5-|-5---5-5-5-5-5---5-5-5-5-5-----|
A|-5---5-5-5-5-5---5-5-5-5-5---5-5-|-5---5-5-5-5-5---5-5-5-5-5-0---|
D|-5---5-5-5-5-5---5-5-5-5-5---5-5-|-5---5-5-5-5-5---5-5-5-5-5-0---|
 |Guitar 2                                                         |
e|---------------------------------|-------------------------------|
B|---------------------------------|-------------------------------|
G|---------------------------------|-------------------------------|
D|-7---7-7-7-7-7---7-7-7-7-7---7-7-|-7---7-7-7-7-7---7-7-7-7-7-7---|
A|-5---5-5-5-5-5---5-5-5-5-5---5-5-|-5---5-5-5-5-5---5-5-5-5-5-5---|
D|-5---5-5-5-5-5---5-5-5-5-5---5-5-|-5---5-5-5-5-5---5-5-5-5-5-5---|

Verse
Guitar 1
e|---------------------------------|---------------------------------|
B|-3---3-3-3-3-3---3-3-3-3-3-------|-3---3-3-3-3-3---3-3-3-3-3-------|
G|-x---x-x-x-x-x---x-x-x-x-x-------|-x---x-x-x-x-x---x-x-x-x-x-------|
D|-4---4-4-4-4-4---4-4-4-4-4-------|-4---4-4-4-4-4---4-4-4-4-4-------|
A|-2---2-2-2-2-2---2-2-2-2-2---0---|-2---2-2-2-2-2---2-2-2-2-2---0---|
D|-----------------------------0---|-2---2-2-2-2-2---2-2-2-2-2---0---|
 |Guitar 2                                                           |
e|---------------------------------|---------------------------------|
B|-3---3-3-3-3-3---3-3-3-3-3---3-3-|-3---3-3-3-3---------------------|
G|-2---2-2-2-2-2---2-2-2-2-2---2-2-|-2---2-2-2-2-2---2-2-2-2-2---2---|
D|-4---4-4-4-4-4---4-4-4-4-4---4-4-|-4---4-4-4-4-4---4-4-4-4-4---4---|
A|-2---2-2-2-2-2---2-2-2-2-2---2-2-|-2---2-2-2-2-2---2-2-2-2-2---2---|
D|---------------------------------|-2---2-2-2-2-2---2-2-2-2-2---2---|

Guitar 1
e|-----------------------------------|-----------------|
B|-----------------------------------|-----------------|
G|-7---7-7-7-7-7---7-7-7-7-7---7---7-|-7-7-7-7-7-7-7---|
D|-5---5-5-5-5-5---5-5-5-5-5---5---5-|/8-8-8-8-8-8-8---|
A|-5---5-5-5-5-5---5-5-5-5-5---5---5-|/8-8-8-8-8-8-8-0-|
D|-5---5-5-5-5-5---5-5-5-5-5---5---5-|/8-8-8-8-8-8-8-0-|
 |Guitar 2                                             |
e|-----------------------------------|-----------------|
B|-----------------------------------|---------------0-|
G|-----------------------------------|-7-7-7-7-7-7-7-0-|
D|-7---7-7-7-7-7---7-7-7-7-7---7---7-|-8-8-8-8-8-8-8-0-|
A|-5---5-5-5-5-5---5-5-5-5-5---5---5-|-8-8-8-8-8-8-8-0-|
D|-5---5-5-5-5-5---5-5-5-5-5---5---5-|-8-8-8-8-8-8-8---|

Chorus
Guitar 1
e|------------------|------------------|------------------|------------------|
B|-3---3---3--3-----|------------------|------------------|-3---3---3--3-----|
G|-x---x---x--x-----|-7---7---7--7--7--|-7---7---7--6--6--|-6---6---6--6-----|
D|-4---4---4--4-----|-4---4---4--4--4--|-5---5---5--5--5--|-5---5---5--5-----|
A|-2---2---2--2--0--|-4---4---4--4--4--|-5---5---5--5--5--|-5---5---5--5--0--|
D|---------------0--|-4---4---4--4--4--|-5---5---5--5--5--|-5---5---5--5--0--|
 |Guitar 2                                                                   |
e|------------------|------------------|------------------|------------------|
B|------------3-----|------------------|-3---3---3--3--3--|-3---3---3--3-----|
G|------------x-----|-7---7---7--7-----|-4---4---4--4--4--|-4---4---4--4-----|
D|-4---4---4--4--4--|-4---4---4--4-----|-5---5---5--5--5--|-5---5---5--5-----|
A|-2---2---2--2--0--|-x---x---x--x--0--|-5---5---5--5--5--|-5---5---5--5--0--|
D|---------------0--|-4---4---4--4--0--|-5---5---5--5--5--|-5---5---5--5--0--|

Guitar 1
e|------------------|------------------|-5---5---5--5--5--|-5---5---5--5-----|
B|-3---3---3--3-----|------------------|-3---3---3--3--3--|-3---3---3--3-----|
G|-x---x---x--x-----|-7---7---7--7--7--|-x---x---x--x--x--|-x---x---x--x-----|
D|-4---4---4--4-----|-4---4---4--4--4--|-5---5---5--5--5--|-5---5---5--5-----|
A|-2---2---2--2--0--|-4---4---4--4--4--|-5---5---5--5--5--|-5---5---5--5--0--|
D|---------------0--|-4---4---4--4--4--|-5---5---5--5--5--|-5---5---5--5--0--|
 |Guitar 2                                                                   |
e|------------------|------------------|---------5--5--5--|-5---5---5--5--5--|
B|------------3-----|-3---3---3--3-----|-3---3---3--3--3--|-3---3---3--3--3--|
G|------------x--2--|-2---2---2--2--2--|-4---4---4--4--4--|-4---4---4--4--4--|
D|-4---4---4--4--0--|-4---4---4--4--0--|-5---5---5--5--5--|-5---5---5--5--5--|
A|-2---2---2--2--0--|-x---x---x--x--0--|-5---5---5--5--5--|-5---5---5--5--5--|
D|---------------0--|-4---4---4--4--0--|-5---5---5--5--5--|-5---5---5--5--5--|

Guitar 1
e|------------------|------------------|------------------|------------------|
B|-3---3---3--3-----|------------------|------------------|------------------|
G|-x---x---x--x-----|-7---7---7--7--7--|-7---7---7--7--7--|-7---7---7--7-----|
D|-4---4---4--4-----|-4---4---4--4--4--|-5---5---5--5--5--|-5---5---5--5-----|
A|-2---2---2--2--0--|-4---4---4--4--4--|-5---5---5--5--5--|-5---5---5--5--0--|
D|---------------0--|-4---4---4--4--4--|-5---5---5--5--5--|-5---5---5--5--0--|
 |Guitar 2                                                                   |
 |                    let ring--------------------------------------------|  |
e|------------------|------------------|------------------|------------------|
B|------------3-----|----15-----15-----|-----------15-----|-----------15-----|
G|------------x--2--|18h^----18--------|-----0---------0--|-----0---------0--|
D|-4---4---4--4--0--|------------------|16------16--------|16------16--------|
A|-2---2---2--2--0--|------------------|------------------|------------------|
D|---------------0--|------------------|------------------|------------------|

Guitar 1
e|------------------|------------------|------------------|------------------|
B|-3---3---3--3-----|------------------|------------------|------------------|
G|-x---x---x--x-----|-7---7---7--7--7--|-7---7---7--7--7--|-7---7---7--7-----|
D|-4---4---4--4-----|-4---4---4--4--4--|-5---5---5--5--5--|-5---5---5--5-----|
A|-2---2---2--2--0--|-4---4---4--4--4--|-5---5---5--5--5--|-5---5---5--5--0--|
D|---------------0--|-4---4---4--4--4--|-5---5---5--5--5--|-5---5---5--5-----|
 |Guitar 2                                                                   |
 |let ring-------------------------------------------------------------|     |
e|------------------|------------------|------------------|------------------|
B|-----------15-----|-----------15-----|-----------15-----|-----------15-----|
G|-----0---------0--|-----0---------0--|-----0---------0--|-----0------------|
D|16------16--------|16------16--------|16------16--------|16------16--------|
A|------------------|------------------|------------------|------------------|
D|------------------|------------------|------------------|------------------|

Guitar 1
e|------------------|------------------|------------------|------------------|
B|------------------|------------------|------------------|------------------|
G|------------------|------------------|------------------|------------------|
D|------------------|------------------|------------------|------------------|
A|-2----------------|(2)---------------|(2)---------------|------------------|
D|------------------|------------------|------------------|------------------|
 |Guitar 2                                                                   |
 |                                       volume swell-------|                |
e|------------------|------------------|------------------|------------------|
B|------------------|------------------|------------------|------------------|
G|------------------|------------------|------------------|------------------|
D|-4----------------|(4)-------2h4-4/7-|-7----------------|(7)---------------|
A|-2----------------|(2)-------2---2/5-|-5----------------|(5)---------------|
D|------------------|------------------|------------------|------------------|

Verse
Guitar 1
e|------------------|------------------|------------------|------------------|
B|-3--3-3-----------|-3--3-3-----------|------------------|------------------|
G|-x--x-x-----------|-x--x-x-----------|-7--7-7-----------|-7--7-7-----------|
D|-4--4-4-----------|-4--4-4-----------|-5--5-5-----------|-5--5-5-----------|
A|-2--2-2-----------|-2--2-2-----------|-5--5-5-----------|-5--5-5-----------|
D|------------------|------------------|-5--5-5-----------|-5--5-5-----------|
 |Guitar 2                                                                   |
e|--------10--------|(10)----9---------|--------0---------|--------0---------|
B|---------0--------|-(0)----0---------|--------5/7-------|--------5\3-------|
G|------------------|------------------|------------------|------------------|
D|------------------|------------------|------------------|------------------|
A|------------------|------------------|------------------|------------------|
D|------------------|------------------|------------------|------------------|

Guitar 1
e|------------------|------------------|------------------|------------------|
B|-3--3-3-----------|-3--3-3-----------|------------------|------------------|
G|-x--x-x-----------|-x--x-x-----------|-7--7-7-----------|-7--7-7-----------|
D|-4--4-4-----------|-4--4-4-----------|-5--5-5-----------|-5--5-5-----------|
A|-2--2-2-----------|-2--2-2-----------|-5--5-5-----------|-5--5-5-----------|
D|------------------|------------------|-5--5-5-----------|-5--5-5-----------|
 |Guitar 2                                                                   |
e|--------10--------|(10)----9---------|--------0---------|--------0---------|
B|---------0--------|-(0)----0---------|--------5/7-------|--------7/10------|
G|------------------|------------------|------------------|------------------|
D|------------------|------------------|------------------|------------------|
A|------------------|------------------|------------------|------------------|
D|------------------|------------------|------------------|------------------|

Guitar 1
e|---------------------------------|---------------------------------|
B|-3---3-3-3-3-3---3-3-3-3-3-------|---------------------------------|
G|-x---x-x-x-x-x---x-x-x-x-x-------|---------------------------------|
D|-4---4-4-4-4-4---4-4-4-4-4-------|-4---4-4-4-4-4---4-4-4-4-4---4---|
A|-2---2-2-2-2-2---2-2-2-2-2---0---|-2---2-2-2-2-2---2-2-2-2-2---2---|
D|-----------------------------0---|-2---2-2-2-2-2---2-2-2-2-2---2---|
 |Guitar 2                                                           |
e|10--10--10--10--10--10--10--10---|-9---9---9---9---9---9---9---0---|
B|-0---0---0---0---0---0---0---0---|-0---0---0---0---0---0---0---5---|
G|---------------------------------|---------------------------------|
D|---------------------------------|---------------------------------|
A|---------------------------------|---------------------------------|
D|---------------------------------|---------------------------------|

Guitar 1
e|---------------------------------|---------------------------------|
B|---------------------------------|---------------------------------|
G|---------------------------------|---------------------------------|
D|/7---7-7-7-7-7---7-7-7-7-7---7---|-7---7-7-7-7-7---7-7-7-7-7-------|
A|/5---5-5-5-5-5---5-5-5-5-5---5---|-5---5-5-5-5-5---5-5-5-5-5---0---|
D|/5---5-5-5-5-5---5-5-5-5-5---5---|-5---5-5-5-5-5---5-5-5-5-5---0---|
 |Guitar 2                                                           |
e|-0-------0---0---0---0---0---0---|-0-------0---0-------0---0-------|
B|-5--/7---7---7---7---7---7---5---|-5--\3---3---3--\2---2---2-/14---|
G|---------------------------------|---------------------------------|
D|---------------------------------|---------------------------------|
A|---------------------------------|---------------------------------|
D|---------------------------------|---------------------------------|

Guitar 1
e|---------------------------------|---------------------------------|
B|-3---3-3-3-3-3---3-3-3-3-3-------|---------------------------------|
G|-x---x-x-x-x-x---x-x-x-x-x-------|---------------------------------|
D|-4---4-4-4-4-4---4-4-4-4-4-------|-4---4-4-4-4-4---4-4-4-4-4---4---|
A|-2---2-2-2-2-2---2-2-2-2-2---0---|-2---2-2-2-2-2---2-2-2-2-2---2---|
D|-----------------------------0---|-2---2-2-2-2-2---2-2-2-2-2---2---|
 |Guitar 2                                                           |
e|-0---0---0---0---0---0---0---0---|-0---0---0---0---0---0---0-------|
B|15--15--15--15--15-/17--17--17--\|14--14--14--14--14--14--14-/19---|
G|---------------------------------|---------------------------------|
D|---------------------------------|---------------------------------|
A|---------------------------------|---------------------------------|
D|---------------------------------|---------------------------------|

Guitar 1
e|---------------------------------|---------------------------------|
B|---------------------------------|---------------------------------|
G|---------------------------------|---------------------------------|
D|/7---7-7-7-7-7---7-7-7-7-7---7---|-7---7-7-7-7-7---7-7-7-7-7-------|
A|/5---5-5-5-5-5---5-5-5-5-5---5---|-5---5-5-5-5-5---5-5-5-5-5---0---|
D|/5---5-5-5-5-5---5-5-5-5-5---5---|-5---5-5-5-5-5---5-5-5-5-5---0---|
 |Guitar 2                                                           |
 |                                       hold----|
e|-0---0---0---0---0---0---0---0---|-0---0---0---0---0---0---0---0---|
B|19--19--19--19--19--19--19--19---|19--19q^--------19--19--19--19/--|
G|---------------------------------|---------------------------------|
D|---------------------------------|---------------------------------|
A|---------------------------------|---------------------------------|
D|---------------------------------|---------------------------------|

Pre-chorus
Guitar 1
e|10-10-10-10-10-10-10-10-|-9-9-9-9-9-9-9-9-|
B|-7--7--7--7--7--7--7--7-|-7-7-7-7-7-7-7-7-|
G|-7--7--7--7--7--7--7--7-|-7-7-7-7-7-7-7-7-|
D|------------------------|-----------------|
A|------------------------|-----------------|
D|------------------------|-----------------|
 |Guitar 2                                  |
e|------------------------|-----------------|
B|-2--3--2--3--2--3--2----|-2-3-2-3-2-3-2-0-|
G|-4--4--4--4--4--4--4--4-|-2-2-2-2-2-2-2-2-|
D|-4--4--4--4--4--4--4--4-|-2-2-2-2-2-2-2-2-|
A|-2--2--2--2--2--2--2--2-|-0-0-0-0-0-0-0-0-|
D|------------------------|-----------------|

Guitar 1
e|-10-10-10-10-10-10-10-10-|-10-10-10-10-10-10-10-10-|
B|--8--8--8--8--8--8--8--8-|--7--7--7--7--7--7--7--7-|
G|--7--7--7--7--7--7--7--7-|--7--7--7--7--9--9--9--9-|
D|-------------------------|-------------------------|
A|-------------------------|-------------------------|
D|-------------------------|-------------------------|
 |Guitar 2                                           |
e|-------------------------|-------------------------|
B|-------------------------|-------------------------|
G|--6--7--6--7--6--7--6--7-|--6--7--6--7--6--7--6----|
D|--5--5--5--5--5--5--5--5-|--5--5--5--5--5--5--5--7-|
A|--5--5--5--5--5--5--5--5-|--5--5--5--5--5--5--5--5-|
D|--5--5--5--5--5--5--5--5-|--5--5--5--5--5--5--5--5-|

Guitar 1
e|-----------------|------------------------|
B|-7-7-7-7-7-7-7-x-|10-10-10-10-10-10-10-10-|
G|-7-7-7-7-7-7-7-x-|-9--9--9--9--9--9--9--9-|
D|-----------------|------------------------|
A|-----------------|------------------------|
D|-----------------|------------------------|
 |Guitar 2                                  |
e|-----------------|------------------------|
B|-2-3-2-3-2-3-2---|-2--3--2--3--2--3--2--0-|
G|-4-4-4-4-4-4-4-4-|-2--2--2--2--2--2--2--2-|
D|-4-4-4-4-4-4-4-4-|-2--2--2--2--2--2--2--2-|
A|-2-2-2-2-2-2-2-2-|-0--0--0--0--0--0--0--0-|
D|-----------------|------------------------|

Guitar 1
e|-------------------------|-----------------|
B|-10-10-10-10--7--8--8--8-|-7-7-7-8-7-7-7-7-|
G|--7--7--7--7--7--7--7--7-|-7-7-7-7-7-7-7-7-|
D|-------------------------|-----------------|
A|-------------------------|-----------------|
D|-------------------------|-----------------|
 |Guitar 2                                   |
e|-------------------------|-----------------|
B|-------------------------|-----------------|
G|--6--7--6--7--6--7--6--7-|-6-7-6-7-6-7-6---|
D|--5--5--5--5--5--5--5--5-|-5-5-5-5-5-5-5-7-|
A|--5--5--5--5--5--5--5--5-|-5-5-5-5-5-5-5-5-|
D|--5--5--5--5--5--5--5--5-|-5-5-5-5-5-5-5-5-|

Guitar 1
e|-----------------|-9---9-9-9-9-9-9-|
B|-7-7-7-7-7-7-7-7-|-7-7-7-7-7-7-7-7-|
G|-7-7-7-7-7-7-7-7-|-7-7-7-7-7-7-7-7-|
D|-----------------|-----------------|
A|-----------------|-----------------|
D|-----------------|-----------------|
 |Guitar 2                           |
e|-----------------|-----------------|
B|-2-3-2-3-2-3-2---|-2-3-2-3-2-3-2-0-|
G|-4-4-4-4-4-4-4-4-|-2-2-2-2-2-2-2-2-|
D|-4-4-4-4-4-4-4-4-|-2-2-2-2-2-2-2-2-|
A|-2-2-2-2-2-2-2-2-|-0-0-0-0-0-0-0-0-|
D|-----------------|-----------------|

Guitar 1
e|-10-10-10-10-10-10-10-10-|-10-10-10-10-10-10-10-10-|
B|--8--8--8--8--8--8--8--8-|--7--7--7--7--7--7--7--7-|
G|--7--7--7--7--7--7--7--7-|--7--7--7--7--9--9--9--9-|
D|-------------------------|-------------------------|
A|-------------------------|-------------------------|
D|-------------------------|-------------------------|
 |Guitar 2                                           |
e|-------------------------|-------------------------|
B|-------------------------|-------------------------|
G|--6--7--6--7--6--7--6--7-|--6--7--6--7--6--7--6----|
D|--5--5--5--5--5--5--5--5-|--5--5--5--5--5--5--5--7-|
A|--5--5--5--5--5--5--5--5-|--5--5--5--5--5--5--5--5-|
D|--5--5--5--5--5--5--5--5-|--5--5--5--5--5--5--5--5-|

Guitar 1
e|-------------------------|------------------------|
B|-10-10-10-10--7--8--8--8-|-10-10-10-10-10-10-10-7-|
G|--7--7--7--7--7--7--7--7-|--9--9--9--9--9--9--9-7-|
D|-------------------------|------------------------|
A|-------------------------|------------------------|
D|-------------------------|------------------------|
 |Guitar 2                                          |
e|-------------------------|------------------------|
B|--2--3--2--3--2--3--2----|--2--3--2--3--2--3--2-0-|
G|--4--4--4--4--4--4--4--4-|--2--2--2--2--2--2--2-2-|
D|--4--4--4--4--4--4--4--4-|--2--2--2--2--2--2--2-2-|
A|--2--2--2--2--2--2--2--2-|--0--0--0--0--0--0--0-0-|
D|-------------------------|------------------------|

Guitar 1
e|-----------------|-----------------|
B|-7-7-7-7-7-8-7---|-7-8-7---7-8-7---|
G|-7-7-7-7-7-7-7---|-7-7-7---7-7-7---|
D|-----------------|-----------------|
A|-----------------|-----------------|
D|-----------------|-----------------|
 |Guitar 2                           |
e|-----------------|-----------------|
B|-----------------|-----------------|
G|-6-7-6-7-6-7-6-7-|-6-7-6-7-6-7-6---|
D|-5-5-5-5-5-5-5-5-|-5-5-5-5-5-5-5-7-|
A|-5-5-5-5-5-5-5-5-|-5-5-5-5-5-5-5-5-|
D|-5-5-5-5-5-5-5-5-|-5-5-5-5-5-5-5-5-|

Chorus
Guitar 1
e|-----------------|------------------|------------------|------------------|
B|-3--3--3-3--3----|------------------|------------------|------------------|
G|-x--x--x-x--x----|-7--7--7-7--7--7--|-7--7--7-7--7--7--|-6--6--6-6--6-----|
D|-4--4--4-4--4----|-4--4--4-4--4--4--|-5--5--5-5--5--5--|-5--5--5-5--5--0--|
A|-2--2--2-2--2--0-|-x--x--x-x--x--x--|-5--5--5-5--5--5--|-5--5--5-5--5--0--|
D|---------------0-|-4--4--4-4--4--4--|-5--5--5-5--5--5--|-5--5--5-5--5--0--|
 |Guitar 2                                                                  |
e|-----------------|------------------|------------------|------------------|
B|-3--3--3-3--3----|------------------|-3--3--3-3--3--3--|-3--3--3-3--3-----|
G|-x--x--x-x--x----|-7--7--7-7--7--7--|-4--4--4-4--4--4--|-4--4--4-4--4-----|
D|-4--4--4-4--4----|-4--4--4-4--4--4--|-5--5--5-5--5--5--|-5--5--5-5--5--0--|
A|-2--2--2-2--2--0-|-4--4--4-4--4--4--|-5--5--5-5--5--5--|-5--5--5-5--5--0--|
D|---------------0-|-4--4--4-4--4--4--|-5--5--5-5--5--5--|-5--5--5-5--5--0--|

Guitar 1
e|-----------------|------------------|----5--5-5--5--5--|-5--5--5-5--5-----|
B|-3--3--3-3--3----|------------------|-3--3--3-3--3--3--|-3--3--3-3--3-----|
G|-x--x--x-x--x----|-7--7--7-7--7--7--|-x--x--x-x--x--x--|-x--x--x-x--x-----|
D|-4--4--4-4--4----|-4--4--4-4--4--4--|-5--5--5-5--5--5--|-5--5--5-5--5--0--|
A|-2--2--2-2--2--0-|-x--x--x-x--x--x--|-5--5--5-5--5--5--|-5--5--5-5--5--0--|
D|---------------0-|-4--4--4-4--4--4--|-5--5--5-5--5--5--|-5--5--5-5--5--0--|
 |Guitar 2                                                                  |
e|-----------------|------------------|------------------|------------------|
B|-3--3--3-3--3----|------------------|-3--3--3-3--3--3--|-3--3--3-3--3-----|
G|-x--x--x-x--x----|-7--7--7-7--7--7--|-4--4--4-4--4--4--|-4--4--4-4--4-----|
D|-4--4--4-4--4----|-4--4--4-4--4--4--|-5--5--5-5--5--5--|-5--5--5-5--5--0--|
A|-2--2--2-2--2--0-|-4--4--4-4--4--4--|-5--5--5-5--5--5--|-5--5--5-5--5--0--|
D|---------------0-|-4--4--4-4--4--4--|-5--5--5-5--5--5--|-5--5--5-5--5--0--|

Interlude
Guitar 1
e|-----------------5-|-(5)------------|-----------------5-|-(5)---------------|
B|-10--------7-----8-|-(8)------------|-10--------7-----8-|-(8)---------------|
G|--7--------9-----7-|-(7)------------|--7--------9-----7-|-(7)---------------|
D|--9--------9-----5-|-(5)------------|--9--------9-----5-|-(5)---------------|
A|-----------7-------|----------------|-----------7-------|-------------------|
D|-------------------|----------------|-------------------|-------------------|
 |Guitar 2                                                                    |
e|-------------------|----------------|-------------------|-------------------|
B|-------------------|----------------|-------------------|-------------------|
G|-------------------|----------------|-------------------|-------------------|
D|-------------------|----------------|-------------------|-------------------|
A|-2-----------------|----------------|-------------------|-------------------|
D|-------------------|----------------|-------------------|-------------------|

Guitar 1
e|-----------------5-|-(5)------------|-----------------5-|-(5)---------------|
B|-10--------7-----8-|-(8)------------|-10--------7-----8-|-(8)---------------|
G|--7--------9-----7-|-(7)------------|--7--------9-----7-|-(7)---------------|
D|--9--------9-----5-|-(5)------------|--9--------9-----5-|-(5)---------------|
A|-----------7-------|----------------|-----------7-------|-------------------|
D|-------------------|----------------|-------------------|-------------------|

Bridge
Guitar 1
e|------------------5-|(5)-------------|-------------------5|(5)--------------|
B|10----------7-----8-|(8)-------------|10-----------7-----8|(8)--------------|
G|-7----------9-----7-|(7)-------------|-7-----------9-----7|(7)--------------|
D|-9----------9-----5-|(5)-------------|-9-----------9-----5|(5)--------------|
A|------------7-------|----------------|-------------7------|-----------------|
D|--------------------|----------------|--------------------|-----------------|
 |Guitar 2                                                                    |
e|---0--0--0--0-0-0-0-|-0-0-0-0-0-0-0-0|-0--0--0--0--0-0-0-0|-0-0-0-0-0-0-0-0-|
B|--14-14-14-14\7-7-7-|-7-8-8-8-8-7-7-7|-7/14-14-14-14\7-7-7|-7-8-8-8-8-7-7-7-|
G|--------------------|----------------|--------------------|-----------------|
D|--------------------|----------------|--------------------|-----------------|
A|--------------------|----------------|--------------------|-----------------|
D|--------------------|----------------|--------------------|-----------------|

Guitar 1
e|------------------5-|(5)-------------|-------------------5|(5)--------------|
B|10----------7-----8-|(8)-------------|10-----------7-----8|(8)--------------|
G|-7----------9-----7-|(7)-------------|-7-----------9-----7|(7)--------------|
D|-9----------9-----5-|(5)-------------|-9-----------9-----5|(5)--------------|
A|------------7-------|----------------|-------------7------|-----------------|
D|--------------------|----------------|--------------------|-----------------|
 |Guitar 2                                                                    |
e|-0-0--0--0--0-0-0-0-|-0-0-0-0-0-0-0-0|-0--0--0--0--0-0-0-0|-0---------------|
B|-714-14-14-14\7-7-7-|-7-8-8-8-8-7-7-7|-7/14-14-14-14\7-7-7|---8-------------|
G|--------------------|----------------|--------------------|-----------------|
D|--------------------|----------------|--------------------|-----------------|
A|--------------------|----------------|--------------------|-----------------|
D|--------------------|----------------|--------------------|-----------------|

Chorus
Guitar 1
e|------------------|------------------|------------------|------------------|
B|-3---3---3--3-----|------------------|------------------|------------------|
G|-x---x---x--x-----|-7---7---7--7--7--|-7---7---7--6--6--|-6---6---6--6-----|
D|-4---4---4--4-----|-4---4---4--4--4--|-5---5---5--5--5--|-5---5---5--5-----|
A|-2---2---2--2--0--|-4---4---4--4--4--|-5---5---5--5--5--|-5---5---5--5--0--|
D|---------------0--|-4---4---4--4--4--|-5---5---5--5--5--|-5---5---5--5--0--|
 |Guitar 2                                                                   |
e|------------------|------------------|------------------|------------------|
B|------------3-----|------------------|-3---3---3--3--3--|-3---3---3--3-----|
G|------------x-----|-7---7---7--7-----|-4---4---4--4--4--|-4---4---4--4-----|
D|-4---4---4--4--4--|-4---4---4--4-----|-5---5---5--5--5--|-5---5---5--5-----|
A|-2---2---2--2--0--|-x---x---x--x--0--|-5---5---5--5--5--|-5---5---5--5--0--|
D|---------------0--|-4---4---4--4--0--|-5---5---5--5--5--|-5---5---5--5--0--|

Guitar 1
e|------------------|------------------|-5---5---5--5--5--|-5---5---5--5-----|
B|-3---3---3--3-----|------------------|-3---3---3--3--3--|-3---3---3--3-----|
G|-x---x---x--x-----|-7---7---7--7--7--|-x---x---x--x--x--|-x---x---x--x-----|
D|-4---4---4--4-----|-4---4---4--4--4--|-5---5---5--5--5--|-5---5---5--5-----|
A|-2---2---2--2--0--|-4---4---4--4--4--|-5---5---5--5--5--|-5---5---5--5--0--|
D|---------------0--|-4---4---4--4--4--|-5---5---5--5--5--|-5---5---5--5--0--|
 |Guitar 2                                                                   |
 |                    let ring-----------------------------------------|     |
e|------------------|------------------|------------------|------------------|
B|------------3-----|----15-----15-----|----15-----15-----|----15-----15-----|
G|------------x--2--|18h^----18--------|18h^----18--------|18h^----18--------|
D|-4---4---4--4--0--|------------------|------------------|------------------|
A|-2---2---2--2--0--|------------------|------------------|------------------|
D|---------------0--|------------------|------------------|------------------|

Guitar 1
e|--------------|--------------|--------------|--------------|
B|-3---3---3----|--------------|-3---3---3----|-3---3---3----|
G|-x---x---x----|-7---7---7----|-4---4---4----|-4---4---4----|
D|-4---4---4----|-4---4---4----|-5---5---5----|-5---5---5----|
A|-2---2---2----|-4---4---4----|-5---5---5----|-5---5---5----|
D|--------------|-4---4---4----|-5---5---5----|-5---5---5----|
 |Guitar 2                                                   |
e|--------------|--------------|--------------|--------------|
B|-3---3---3----|--------------|-3---3---3----|-3---3---3----|
G|-x---x---x----|-7---7---7----|-4---4---4----|-4---4---4----|
D|-4---4---4----|-4---4---4----|-5---5---5----|-5---5---5----|
A|-2---2---2----|-4---4---4----|-5---5---5----|-5---5---5----|
D|--------------|-4---4---4----|-5---5---5----|-5---5---5----|

Guitar 1
e|--------------|--------------|--------------|--------------|
B|-3---3---3----|--------------|-3---3---3----|-3---3---3----|
G|-x---x---x----|-7---7---7----|-4---4---4----|-4---4---4----|
D|-4---4---4----|-4---4---4----|-5---5---5----|-5---5---5----|
A|-2---2---2----|-4---4---4----|-5---5---5----|-5---5---5----|
D|--------------|-4---4---4----|-5---5---5----|-5---5---5----|
 |Guitar 2                                                   |
e|--------------|--------------|--------------|--------------|
B|-3---3---3----|--------------|-3---3---3----|-3---3---3----|
G|-x---x---x----|-7---7---7----|-4---4---4----|-4---4---4----|
D|-4---4---4----|-4---4---4----|-5---5---5----|-5---5---5----|
A|-2---2---2----|-4---4---4----|-5---5---5----|-5---5---5----|
D|--------------|-4---4---4----|-5---5---5----|-5---5---5----|

Verse
Guitar 1
e||--------------------------|-------------------------|
B||o-10-10-10-10-10-10-10-12-|-12-12-12-12-12-12-12-12-|
G||--11-11-11-11-11-11-11--x-|--x--x--x--x--x--x--x--x-|
D||---9--9--9--9--9--9--9--9-|--9--9--9--9--9--9--9--9-|
A||o-------------------------|-------------------------|
D||--------------------------|-------------------------|
 ||Guitar 2                                            |
e||--------------------------|-------------------------|
B||o-------------------------|-------------------------|
G||--11-11-11----------------|-------------------------|
D||---9--9--9--9--9--9--9--9-|--9--9--9--9--9--9--9--9-|
A||o-----------7--7--7-10-10-|-10-10-10-10-10-10-10-10-|
D||--------------------------|-------------------------|

Guitar 1                                             x4
e|-------------------------|--------------------------||
B|-10-10-10-10-10-10-10-12-|-12-12-12-12-12-12-12-12-o||
G|-11-11-11-11-11-11-11--x-|--x--x--x--x--x--x--x--x--||
D|--9--9--9--9--9--9--9--9-|--9--9--9--9--9--9--9--9--||
A|-------------------------|-------------------------o||
D|-------------------------|--------------------------||
 |Guitar 2                                            ||
e|-------------------------|--------------------------||
B|-------------------------|-------------------------o||
G|-11-11-11----------------|--------------------------||
D|--9--9--9--9--9--9--9--9-|--9--9--9--9--9--9--9--9--||
A|-----------7--7--7-10-10-|-10-10-10-10-10-10-10-10-o||
D|-------------------------|--------------------------||

Bridge
Guitar 1
e|-0-0-0-0-0-0-0-0-|-0-0-0-0-0-0-0-0-|-0-0-0-0-0-0-0-0-|-0-0-0-0-0-0-0-0-|
B|-5-5-5-5-5-5-5-5-|-5h^-----------5-|\3-3-3-3-3-3-3-3-|-3-3-3-3-3-3-3-3-|
G|-----------------|-----------------|-----------------|-----------------|
D|-----------------|-----------------|-----------------|-----------------|
A|-----------------|-----------------|-----------------|-----------------|
D|-----------------|-----------------|-----------------|-----------------|

Guitar 1
e|-0--0--0--0--0--0--0--0-|-0--0--0--0--0--0--0--0-|
B|-5--5--5--5--5--5--5--5-|-5h^------------------5-|
G|------------------------|------------------------|
D|------------------------|------------------------|
A|------------------------|------------------------|
D|------------------------|------------------------|
 |Guitar 2                                         |
e|14-14-14-14-14-14-14-14-|14-14-14-14-14-14-14-14-|
B|-0--0--0--0--0--0--0--0-|15-15-15-15-15-15-15-15-|
G|------------------------|------------------------|
D|------------------------|------------------------|
A|------------------------|------------------------|
D|------------------------|------------------------|

Guitar 1
e|-0--0--0--0--0--0--0--0-|--0--0--0--0--0--0-0-0-|
B|\3--3--3--3--3--3--3--3-|--3--3--3--3--3--3-3-3-|
G|------------------------|-----------------------|
D|------------------------|-----------------------|
A|------------------------|-----------------------|
D|------------------------|-----------------------|
 |Guitar 2                                        |
 |                          hold------------|     |
e|------------------------|-----------------------|
B|15-15-15-15-15-15-15-15-|(15)15-15-15-15-15-7---|
G|18-18-18-18-18h^--------|(18)18-18-18-18-18-7-7-|
D|------------------------|---------------------7-|
A|------------------------|-----------------------|
D|------------------------|-----------------------|
                                              NH|

Chorus
Guitar 1
e|-----------------|-----------------|-----------------|-----------------|
B|-----------------|-----------------|-----------------|-----------------|
G|-----------------|-----------------|-----------------|-----------------|
D|-9-9-9-9-9-9-9-9-|-7-7-7-7-7-7-7-7-|-5-5-5-5-5-5-5-5-|-5-5-5-5-5-5-5-5-|
A|-9-9-9-9-9-9-9-9-|-7-7-7-7-7-7-7-7-|-5-5-5-5-5-5-5-5-|-5-5-5-5-5-5-5-5-|
D|-9-9-9-9-9-9-9-9-|-7-7-7-7-7-7-7-7-|-5-5-5-5-5-5-5-5-|-5-5-5-5-5-5-5-5-|
 |Guitar 2                                                               |
e|-0-0-0-0-0-0-0-0-|-0-0-0-0-0-0-0-0-|-0-0-0-0-0-0-0-0-|-0-0-0-0-0-0-0-0-|
B|-5-5-5-5-5-5-5-5-|-5h^-----------5-|\3-3-3-3-3-3-3-3-|-3-3-3-3-3-3-3-3-|
G|-----------------|-----------------|-----------------|-----------------|
D|-----------------|-----------------|-----------------|-----------------|
A|-----------------|-----------------|-----------------|-----------------|
D|-----------------|-----------------|-----------------|-----------------|

Guitar 1
e|-----------------|-----------------|-----------------|-----------------|
B|-----------------|-----------------|-----------------|-----------------|
G|-----------------|-----------------|-----------------|-----------------|
D|-9-9-9-9-9-9-9-9-|-7-7-7-7-7-7-7-7-|-5-5-5-5-5-5-5-5-|-5-5-5-5-5-5-5-5-|
A|-9-9-9-9-9-9-9-9-|-7-7-7-7-7-7-7-7-|-5-5-5-5-5-5-5-5-|-5-5-5-5-5-5-5-5-|
D|-9-9-9-9-9-9-9-9-|-7-7-7-7-7-7-7-7-|-5-5-5-5-5-5-5-5-|-5-5-5-5-5-5-5-5-|
 |Guitar 2                                                               |
e|-0-0-0-0-0-0-0-0-|-0-0-0-0-0-0-0-0-|-0-0-0-0-0-0-0-0-|-0-0-0-0-0-0-0-0-|
B|-5-5-5-5-5-5-5-5-|-5h^-----------5-|\3-3-3-3-3-3-3-3-|-3-3-3-3-3-3-3-3-|
G|-----------------|-----------------|-----------------|-----------------|
D|-----------------|-----------------|-----------------|-----------------|
A|-----------------|-----------------|-----------------|-----------------|
D|-----------------|-----------------|-----------------|-----------------|

Guitar 1
e|------------------------|-----------------|
B|-2--3--2--3--2--3--2----|-2-3-2-3-2-3-2-0-|
G|-4--4--4--4--4--4--4--4-|-2-2-2-2-2-2-2-2-|
D|-4--4--4--4--4--4--4--4-|-2-2-2-2-2-2-2-2-|
A|-2--2--2--2--2--2--2--2-|-0-0-0-0-0-0-0-0-|
D|------------------------|-----------------|
 |Guitar 2                                  |
e|10-10-10-10-10-10-10-10-|-9-9-9-9-9-9-9-9-|
B|-7--7--7--7--7--7--7--7-|-7-7-7-7-7-7-7-7-|
G|-7--7--7--7--7--7--7--7-|-7-7-7-7-7-7-7-7-|
D|------------------------|-----------------|
A|------------------------|-----------------|
D|------------------------|-----------------|

Guitar 1
e|------------------------|-----------------|
B|-2--3--2--3--2--3--2----|-----------------|
G|-4--4--4--4--4--4--4--4-|-6-7-6-7-6-7-6---|
D|-4--4--4--4--4--4--4--4-|-5-5-5-5-5-5-5-7-|
A|-2--2--2--2--2--2--2--2-|-5-5-5-5-5-5-5-5-|
D|------------------------|-5-5-5-5-5-5-5-5-|
 |Guitar 2                                  |
e|10-10-10-10-10-10-10-10-|-----------------|
B|-8--8--8--8--8--8--8--8-|-7-7-7-7-7-7-7-7-|
G|-7--7--7--7--7--7--7--7-|-7-7-7-7-7-9-9-9-|
D|------------------------|-----------------|
A|------------------------|-----------------|
D|------------------------|-----------------|

Guitar 1
e|------------------------|------------------------|
B|-2--3--2--3--2--3--2----|-2--3--2--3--2--3--2--0-|
G|-4--4--4--4--4--4--4--4-|-2--2--2--2--2--2--2--2-|
D|-4--4--4--4--4--4--4--4-|-2--2--2--2--2--2--2--2-|
A|-2--2--2--2--2--2--2--2-|-0--0--0--0--0--0--0--0-|
D|------------------------|------------------------|
 |Guitar 2                                         |
e|------------------------|------------------------|
B|10-10-10-10-10-10-10-10-|10-10-10-10-10-10-10--7-|
G|-7--7--7--7--7--7--7--7-|-9--9--9--9--9--9--9--7-|
D|------------------------|------------------------|
A|------------------------|------------------------|
D|------------------------|------------------------|

Guitar 1
e|------------------------|----------------------|
B|-2--3--2--3--2--3--2----|----------------------|
G|-4--4--4--4--4--4--4--4-|-6--7-6--7--6--7--6---|
D|-4--4--4--4--4--4--4--4-|-5--5-5--5--5--5--5-7-|
A|-2--2--2--2--2--2--2--2-|-5--5-5--5--5--5--5-5-|
D|------------------------|-5--5-5--5--5--5--5-5-|
 |Guitar 2                                       |
e|------------------------|--------------------0-|
B|-7--7--7--8--7-----7-10-|-7-10-7-10-10-10-10-0-|
G|-7--7--7--7--7-----7--7-|-7--7-7--7--7--7--7---|
D|------------------------|----------------------|
A|------------------------|----------------------|
D|------------------------|----------------------|

Guitar 1
e|------------------|------------------|
B|------------------|------------------|
G|-6----------------|-(6)--------------|
D|-9----------------|-(9)--------------|
A|-9----------------|-(9)--------------|
D|-9----------------|-(9)--------------|
 |Guitar 2                             |
e|------------------|------------------|
B|-3----------------|-(3)--------------|
G|-x----------------|------------------|
D|-4----------------|-(4)--------------|
A|-2----------------|-(2)--------------|
D|------------------|------------------|

===============================================================================

h   | hammer-on
p   | pull-off
/   | slide up
\   | slide down
/// | tremolo picking
(n) | tied note
x   | muted note
f^  | full bend
h^  | half bend
q^  | quarter bend
hold| hold bend
r   | release
.   | staccato note
^   | arpeggio
NH  | natural harmonic
~   | vibrato
comments
We did not receive enough feedback on this tab! Please rate:
print report bad tab
1 2 3 4 5
1 comment total.
0 reply
Perfect_Teeth wrote on February 3 2007, 12:57 am

i forgot to note that division st. and war all the time are in open d minor tuning (D A D F A d)

I want to post or [tab]
guest
You may want to rate the tab now too:
select rating
Please do not post tabs as comments. Select "correction" instead!