Oops, an error
Loading. Please wait.

La Cancion Del Pirata Tab

ver1
ver1

Whole song

More versions @911Tabs.com
12,368 views 3 this week
no commentswrite comment
1 2 3 4 5
worth learning
x 2
Autoscroll
+/-
esc
set tempo
stop
Contributor
Hey! There's an official Ultimate Guitar app which is ideal
for learning songs when you're away from computer. Get the app
WARNING: You are trying to view
                                    content from Ultimate-Guitar.com
                                    in an unauthorized application,
                                    which is prohibited.

                                    Please use an official Ultimate
                                    Guitar Tabs application for iPhone,
                                    iPad or Android to access legitimate
                                    chords, guitar, bass, and drum tabs
                                    from Ultimate-Guitar.com database.

                                    Type "ultimate guitar tabs" in Apple
                                    App Store's or Android Market's
                                    search to find the application.
#----------------------------------PLEASE NOTE---------------------------------#
#This file is the author's own work and represents their interpretation of the #
#song. You may only use this file for private study, scholarship, or research. #
#------------------------------------------------------------------------------#

LA CANCIÓN DEL PIRATA
As recorded by Tierra Santa
(From the 2000 Album TIERRAS DE LEYENDA)

Transcribed by Lordofwisdom
        

Words and Music by Tierra Santa
Arranged by Tierra Santa

Gtr I (E A D G B E) - 'Lead Guitar'
Gtr II (E A D G B E) - 'Solo guitar'
Gtr III (E A D G B E) - 'Lead Acoustic'
Gtr IV (E A D G B E) - 'Solo Clean'

 Intro
  Q=130
  N.C.(A)
 3/4
  Gtr I
  PM---------------------------------------------------
  S  S S S S S S S S S S S   S  S S S S S S S S S S S
|--------------------------|--------------------------|
|--------------------------|--------------------------|
|--------------------------|--------------------------|
|--------------------------|--------------------------|
|-0--0-0-0-0-0-0-0-0-0-0-0-|-0--0-0-0-0-0-0-0-0-0-0-0-|
|--------------------------|--------------------------|
|
|        Gtr II
| H.                         H.
|--------------------------|--------------------------|
|--------------------------|--------------------------|
|--------------------------|--------------------------|
|--------------------------|--------------------------|
|--------------------------|--------------------------|
|--------------------------|--------------------------|


 -------------------------------------------------------|
    S  S S S S S S  S S S S S    S S S S S S S  S S S S S
||----------------------------|-----------------------------|
||o---------------------------|-----------------------------|
||----------------------------|-----------------------------|
||----------------------------|-----------------------------|
||o-0--0-0-0-0-0-0--0-0-0-0-0-|--0-0-0-0-0-0-0--0-0-0-0-0---|
||----------------------------|-----------------------------|
|
|   Q.           S  S E   E      E   Q       S  S E   E
||----------------------------|-----------------------------|
||o---------------------------|-----------------------------|
||--------------------9---7---|------7------------9---7-----|
||---------------7h10---------|-10-----------7h10-----------|
||o---------------------------|-----------------------------|
||----------------------------|-----------------------------|


   PM------------------------------------------------------
   S S S S S S S  S S S S S    S S S S  S S S S   S S S S
|---------------------------|-----------------------------|
|---------------------------|-----------------------------|
|---------------------------|-----------------------------|
|---------------------------|-----------------------------|
|--0-0-0-0-0-0-0--0-0-0-0-0-|--0-0-0-0--0-0-0-0---0-0-0-0-|
|---------------------------|-----------------------------|
|
|  E   Q       S  S E   E      E   E    E   E   a Q
|---------------------------|-----------------------------|
|---------------------------|-----------------------------|
|------7------------9---7---|---------------7---7h9-------|
|-10-----------7h10---------|-10---9---10-----------------|
|---------------------------|-----------------------------|
|---------------------------|-----------------------------|


 ------------------------------------------------------|
   S  S S S S S S  S S S S S    S S S S S S S  S S S S S
|----------------------------|-----------------------------|
|----------------------------|-----------------------------|
|----------------------------|-----------------------------|
|----------------------------|-----------------------------|
|--0--0-0-0-0-0-0--0-0-0-0-0-|--0-0-0-0-0-0-0--0-0-0-0-0---|
|----------------------------|-----------------------------|
|
| +Q.           S  S E   E      E   Q       S  S E   E
|----------------------------|-----------------------------|
|----------------------------|-----------------------------|
|-(9)----------------9---7---|------7------------9---7-----|
|---------------7h10---------|-10-----------7h10-----------|
|----------------------------|-----------------------------|
|----------------------------|-----------------------------|


               (F)               (G)            N.C.(A)
   PM------------------------------------------------------
   S S S S S S S S  S S S S    S S S S  S S S S S S S S
|---------------------------|----------------------------||
|---------------------------|---------------------------o||
|---------------------------|----------------------------||
|---------------------------|----------------------------||
|--0-0-0-0-0-0--------------|-------------------0-0-0-0-o||
|--------------1-1--1-1-1-1-|--1-3-3-3--3-3-3-3----------||
|
|  E   Q       S S  E   E      E   E    E   E   Q
|---------------------------|----------------------------||
|---------------------------|---------------------------o||
|------7----------------7---|----------------------------||
|-10-----------7h9-10-------|-10---9---10---9---7--------||
|---------------------------|---------------------------o||
|---------------------------|----------------------------||


 -------------------------|
   S  S S S S S S S S S S S
|----------------------------|
|----------------------------|
|----------------------------|
|----------------------------|
|--0--0-0-0-0-0-0-0-0-0-0-0--|
|----------------------------|
|
| +H.
|----------------------------|
|----------------------------|
|----------------------------|
|-(7)------------------------|
|----------------------------|
|----------------------------|


   Verse
    A5
   3/4
    H.        +H.        +H.        +H.
||----------|----------|----------|--------|
||o---------|----------|----------|--------|
||----------|----------|----------|--------|
||--7-------|-(7)------|-(7)------|-(7)----|
||o-7-------|-(7)------|-(7)------|-(7)----|
||--5-------|-(5)------|-(5)------|-(5)----|
|
|   H.        +H.        +H.        +H.
||----------|----------|----------|--------|
||o---------|----------|----------|--------|
||----------|----------|----------|--------|
||--7-------|-(7)------|-(7)------|-(7)----|
||o-7-------|-(7)------|-(7)------|-(7)----|
||--5-------|-(5)------|-(5)------|-(5)----|


  F5        G5        C5        G5
  H.        H.        H.        H.
|---------|---------|---------|-------|
|---------|---------|---------|-------|
|---------|---------|-5-------|-------|
|-3-------|-5-------|-5-------|-5-----|
|-3-------|-5-------|-3-------|-5-----|
|-1-------|-3-------|---------|-3-----|
|
| H.        H.        H.        H.
|---------|---------|---------|-------|
|---------|---------|---------|-------|
|---------|---------|-5-------|-------|
|-3-------|-5-------|-5-------|-5-----|
|-3-------|-5-------|-3-------|-5-----|
|-1-------|-3-------|---------|-3-----|


  A5
  PM-------------------------------------------------
  S S S S S S S S S S S S   S S S S S S S S S S S S
|-------------------------|-------------------------|
|-------------------------|-------------------------|
|-------------------------|-------------------------|
|-7-7-7-7-7-7-7-7-7-7-7-7-|-7-7-7-7-7-7-7-7-7-7-7-7-|
|-7-7-7-7-7-7-7-7-7-7-7-7-|-7-7-7-7-7-7-7-7-7-7-7-7-|
|-5-5-5-5-5-5-5-5-5-5-5-5-|-5-5-5-5-5-5-5-5-5-5-5-5-|
|
| PM-------------------------------------------------
| S S S S S S S S S S S S   S S S S S S S S S S S S
|-------------------------|-------------------------|
|-------------------------|-------------------------|
|-------------------------|-------------------------|
|-7-7-7-7-7-7-7-7-7-7-7-7-|-7-7-7-7-7-7-7-7-7-7-7-7-|
|-7-7-7-7-7-7-7-7-7-7-7-7-|-7-7-7-7-7-7-7-7-7-7-7-7-|
|-5-5-5-5-5-5-5-5-5-5-5-5-|-5-5-5-5-5-5-5-5-5-5-5-5-|


 -------------------------------------------------|
  S S S S S S S S S S S S   S S S S S S S S S S S S
|-------------------------|----------------------------|
|-------------------------|----------------------------|
|-------------------------|----------------------------|
|-7-7-7-7-7-7-7-7-7-7-7-7-|-7-7-7-7-7-7-7-7-7-7-7-7----|
|-7-7-7-7-7-7-7-7-7-7-7-7-|-7-7-7-7-7-7-7-7-7-7-7-7----|
|-5-5-5-5-5-5-5-5-5-5-5-5-|-5-5-5-5-5-5-5-5-5-5-5-5----|
|
|-------------------------------------------------|
| S S S S S S S S S S S S   S S S S S S S S S S S S
|-------------------------|----------------------------|
|-------------------------|----------------------------|
|-------------------------|----------------------------|
|-7-7-7-7-7-7-7-7-7-7-7-7-|-7-7-7-7-7-7-7-7-7-7-7-7----|
|-7-7-7-7-7-7-7-7-7-7-7-7-|-7-7-7-7-7-7-7-7-7-7-7-7----|
|-5-5-5-5-5-5-5-5-5-5-5-5-|-5-5-5-5-5-5-5-5-5-5-5-5----|


  F5        G5        C5        (G5)
  H.        H.        H.        H     +E  S S
|---------|---------|---------|---------------|
|---------|---------|---------|---------------|
|---------|---------|-5-------|---------------|
|-3-------|-5-------|-5-------|-5-----(5)-----|
|-3-------|-5-------|-3-------|-5-----(5)-0-0-|
|-1-------|-3-------|---------|-3-----(3)-----|
|
| H.        H.        H.        H.
|---------|---------|---------|---------------|
|---------|---------|---------|---------------|
|---------|---------|-5-------|---------------|
|-3-------|-5-------|-5-------|-5-------------|
|-3-------|-5-------|-3-------|-5-------------|
|-1-------|-3-------|---------|-3-------------|


  N.C.(A)
  PM-----------------------------------------------------
  S  S S S S S  S S S S S S   S  S S S S S  S S S S S S
|---------------------------|---------------------------|
|---------------------------|---------------------------|
|---------------------------|---------------------------|
|---------------------------|---------------------------|
|-0--0-0-0-0-0--0-0-0-0-0-0-|-0--0-0-0-0-0--0-0-0-0-0-0-|
|---------------------------|---------------------------|
|
| S  S E   E    E   Q         S  S E   E    E   Q
|---------------------------|---------------------------|
|---------------------------|---------------------------|
|------9---7--------7-------|------9---7--------7-------|
|-7h10---------10-----------|-7h10---------10-----------|
|---------------------------|---------------------------|
|---------------------------|---------------------------|


 --------------------------------------------------------|
  S  S S S S S  S S S S  S S   S S   S S S S  S  S S S S S
|----------------------------|-------------------------------|
|----------------------------|-------------------------------|
|----------------------------|-------------------------------|
|----------------------------|-------------------------------|
|-0--0-0-0-0-0--0-0-0-0--0-0-|-0-0---0-0-0-0--0--0-0-0-0-0---|
|----------------------------|-------------------------------|
|
| S  S E   E    E   E    E     E   a Q       +Q.
|----------------------------|-------------------------------|
|----------------------------|-------------------------------|
|------9---7-----------------|-7---7h9-------(9)-------------|
|-7h10---------10---9---10---|-------------------------------|
|----------------------------|-------------------------------|
|----------------------------|-------------------------------|


  PM-----------------------------------------------------
  S  S S S S S  S S S S S S   S  S S S S S  S S S S S S
|---------------------------|---------------------------|
|---------------------------|---------------------------|
|---------------------------|---------------------------|
|---------------------------|---------------------------|
|-0--0-0-0-0-0--0-0-0-0-0-0-|-0--0-0-0-0-0--0-0-0-0-0-0-|
|---------------------------|---------------------------|
|
| S  S E   E    E   Q         S  S E   E    E   Q
|---------------------------|---------------------------|
|---------------------------|---------------------------|
|------9---7--------7-------|------9---7--------7-------|
|-7h10---------10-----------|-7h10---------10-----------|
|---------------------------|---------------------------|
|---------------------------|---------------------------|


  (F)             (G)              N.C.  (A)
                              4/4
 ------------------------------------------|
  S S  S S S S  S S S S  S S   S S S   S S S S S S S S S S S S S
|----------------------------|--------------------------------------||
|----------------------------|-------------------------------------o||
|----------------------------|--------------------------------------||
|----------------------------|--------------------------------------||
|----------------------------|-----0---0-0-0-0-0-0-0-0-0-0-0-0-0---o||
|-1-1--1-1-1-1--1-3-3-3--3-3-|-3-3----------------------------------||
|
| S S  E   E    E   E    E     E   H..
|----------------------------|--------------------------------------||
|----------------------------|-------------------------------------o||
|----------7-----------------|--------------------------------------||
|-7h9-10-------10---9---10---|-9---7--------------------------------||
|----------------------------|-------------------------------------o||
|----------------------------|--------------------------------------||


 Pre-Chorus
  F5        G5        C5        G5
 3/4
  H.        H.        H.        H.
|---------|---------|---------|-------|
|---------|---------|---------|-------|
|---------|---------|-5-------|-------|
|-3-------|-5-------|-5-------|-5-----|
|-3-------|-5-------|-3-------|-5-----|
|-1-------|-3-------|---------|-3-----|
|
| H.        H.        H.        H.
|---------|---------|---------|-------|
|---------|---------|---------|-------|
|---------|---------|-5-------|-------|
|-3-------|-5-------|-5-------|-5-----|
|-3-------|-5-------|-3-------|-5-----|
|-1-------|-3-------|---------|-3-----|


  F5        G5        F5        G5
  H.        H.        H.        H.
|---------|---------|---------|-------|
|---------|---------|---------|-------|
|---------|---------|---------|-------|
|-3-------|-5-------|-3-------|-5-----|
|-3-------|-5-------|-3-------|-5-----|
|-1-------|-3-------|-1-------|-3-----|
|
| H.        H.        H.        H.
|---------|---------|---------|-------|
|---------|---------|---------|-------|
|---------|---------|---------|-------|
|-3-------|-5-------|-3-------|-5-----|
|-3-------|-5-------|-3-------|-5-----|
|-1-------|-3-------|-1-------|-3-----|


    D5        C5        Bb5       A5   Bb5C5
    H.        H.        H.        Q.   E. E.
||----------|---------|---------|-------------||
||o---------|---------|---------|------------o||
||--7-------|-5-------|-3-------|-2----3--5---||
||--7-------|-5-------|-3-------|-2----3--5---||
||o-5-------|-3-------|-1-------|-0----1--3--o||
||----------|---------|---------|-------------||
|
|   H.        H.        H.        Q.   E. E.
||----------|---------|---------|-------------||
||o---------|---------|---------|------------o||
||--7-------|-5-------|-3-------|-2----3--5---||
||--7-------|-5-------|-3-------|-2----3--5---||
||o-5-------|-3-------|-1-------|-0----1--3--o||
||----------|---------|---------|-------------||


   Chorus
    D5                        C5
    S S S S S S S S S S S S   S S S S S S S S S S S S
||--------------------------|-------------------------|
||o-------------------------|-------------------------|
||--7-7-7-7-7-7-7-7-7-7-7-7-|-5-5-5-5-5-5-5-5-5-5-5-5-|
||--7-7-7-7-7-7-7-7-7-7-7-7-|-5-5-5-5-5-5-5-5-5-5-5-5-|
||o-5-5-5-5-5-5-5-5-5-5-5-5-|-3-3-3-3-3-3-3-3-3-3-3-3-|
||--------------------------|-------------------------|
|
|   S S S S S S S S S S S S   S S S S S S S S S S S S
||--------------------------|-------------------------|
||o-------------------------|-------------------------|
||--7-7-7-7-7-7-7-7-7-7-7-7-|-5-5-5-5-5-5-5-5-5-5-5-5-|
||--7-7-7-7-7-7-7-7-7-7-7-7-|-5-5-5-5-5-5-5-5-5-5-5-5-|
||o-5-5-5-5-5-5-5-5-5-5-5-5-|-3-3-3-3-3-3-3-3-3-3-3-3-|
||--------------------------|-------------------------|


                            1.
  Bb5                       A5
  S S S S S S S S S S S S   S S S S S S E. E.
|-------------------------|----------------------||
|-------------------------|---------------------o||
|-3-3-3-3-3-3-3-3-3-3-3-3-|-2-2-2-2-2-2-3--5-----||
|-3-3-3-3-3-3-3-3-3-3-3-3-|-2-2-2-2-2-2-3--5-----||
|-1-1-1-1-1-1-1-1-1-1-1-1-|-0-0-0-0-0-0-1--3----o||
|-------------------------|----------------------||
|
| S S S S S S S S S S S S   S S S S S S E. E.
|-------------------------|----------------------||
|-------------------------|---------------------o||
|-3-3-3-3-3-3-3-3-3-3-3-3-|-2-2-2-2-2-2-3--5-----||
|-3-3-3-3-3-3-3-3-3-3-3-3-|-2-2-2-2-2-2-3--5-----||
|-1-1-1-1-1-1-1-1-1-1-1-1-|-0-0-0-0-0-0-1--3----o||
|-------------------------|----------------------||


                        Solo
  2.
  A5                     D5
  H.        +H.          S  S S S S S  S S S S S  S
|---------|----------||-----------------------------|
|---------|----------||o----------------------------|
|-2-------|-(2)------||--7--7-7-7-7-7--7-7-7-7-7--7-|
|-2-------|-(2)------||--7--7-7-7-7-7--7-7-7-7-7--7-|
|-0-------|-(0)------||o-5--5-5-5-5-5--5-5-5-5-5--5-|
|---------|----------||-----------------------------|
|
| H.        +H.          E.     S S S  S S S S S  S
|---------|----------||-----------------------------|
|---------|----------||o----------------------------|
|-2-------|-(2)------||--7------9-7-9-10-9-7-9-7----|
|-2-------|-(2)------||--------------------------10-|
|-0-------|-(0)------||o----------------------------|
|---------|----------||-----------------------------|


  S  S S S S S  S S  S S  S S
|-----------------------------|
|-----------------------------|
|-7--7-7-7-7-7--7-7--7-7--7-7-|
|-7--7-7-7-7-7--7-7--7-7--7-7-|
|-5--5-5-5-5-5--5-5--5-5--5-5-|
|-----------------------------|
|
| E.     S S S  S S  S E.
|-----------------------------|
|----------------------8------|
|-7------9-7-9-10-9-10--------|
|-----------------------------|
|-----------------------------|
|-----------------------------|


  Bb5
   S  S S  S  S S  S S  S S  S S
|--------------------------------|
|--------------------------------|
|--3--3-3--3--3-3--3-3--3-3--3-3-|
|--3--3-3--3--3-3--3-3--3-3--3-3-|
|--1--1-1--1--1-1--1-1--1-1--1-1-|
|--------------------------------|
|
|  E.      S  S S  S S  S S  S S
|--------------------------------|
|-10------11-10-8-10-8----8------|
|----------------------10---10-9-|
|--------------------------------|
|--------------------------------|
|--------------------------------|


  C5            A5                 D5
   S S S  S S S  S S S  S S  S     S  S S S S S Q.
|-------------------------------||-------------------|
|------------------------------o||-------------------|
|--5-5-5--5-5-5--2-2-2--2-2--2--||-7--7-7-7-7-7-7----|
|--5-5-5--5-5-5--2-2-2--2-2--2--||-7--7-7-7-7-7-7----|
|--3-3-3--3-3-3--0-0-0--0-0--0-o||-5--5-5-5-5-5-5----|
|-------------------------------||-------------------|
|
|  S S S  S S S  S S S  S S  S     H.
|-------------------------------||-------------------|
|------8-------------8----8-10-o||-------------------|
|-10-9---10-9-7-10-9---10-------||-7-----------------|
|-------------------------------||-------------------|
|------------------------------o||-------------------|
|-------------------------------||-------------------|


  D5
   S  S S S S S Q.
|----------------------------|
|----------------------------|
|--7--7-7-7-7-7-7------------|
|--7--7-7-7-7-7-7------------|
|--5--5-5-5-5-5-5------------|
|----------------------------|
|
| +H                S S  S S
|----------------------------|
|---------------------8----8-|
|-(7)--------------10---10---|
|----------------------------|
|----------------------------|
|----------------------------|


  Bb5                   C5            A5
  S    S S S S S Q.      S  S S S S S S S S S S S
|---------------------|----------------------------|
|---------------------|----------------------------|
|-3----3-3-3-3-3-3----|--5--5-5-5-5-5-2-2-2-2-2-2--|
|-3----3-3-3-3-3-3----|--5--5-5-5-5-5-2-2-2-2-2-2--|
|-1----1-1-1-1-1-1----|--3--3-3-3-3-3-0-0-0-0-0-0--|
|---------------------|----------------------------|
|
| H.                    +H.
|---------------------|----------------------------|
|-8b10r===============|=(8)------------------------|
|---------------------|----------------------------|
|---------------------|----------------------------|
|---------------------|----------------------------|
|---------------------|----------------------------|


  D5                         D5
  S  S S  S S  S Q.          S    S S S S   S Q.
|--------------------------|----------------------------|
|--------------------------|----------------------------|
|-7--7-7--7-7--7-7---------|-7----7-7-7-7---7-7---------|
|-7--7-7--7-7--7-7---------|-7----7-7-7-7---7-7---------|
|-5--5-5--5-5--5-5---------|-5----5-5-5-5---5-5---------|
|--------------------------|----------------------------|
|
| S  S S  S S  S E. S  S S   E      E   E     Q     S S
|--------------------------|--------8-----------------8-|
|----------------8--8----8-|-8b10-------6b8r==6b8--10---|
|-7----7-10-9-10------10---|----------------------------|
|---10---------------------|----------------------------|
|--------------------------|----------------------------|
|--------------------------|----------------------------|


  Bb5
   S S     S S S  S  Q.
|----------------------------------|
|----------------------------------|
|--3-3-----3-3-3--3--3-------------|
|--3-3-----3-3-3--3--3-------------|
|--1-1-----1-1-1--1--1-------------|
|----------------------------------|
|
|  S Q           +S  Q      +S  S
|----8b10========(8)r8b10===(8)r8--|
|-10-------------------------------|
|----------------------------------|
|----------------------------------|
|----------------------------------|
|----------------------------------|


  C5              A5              Bb5
   S S    S S S S S S S S S  S      H.
|-------------------------------|--------------|
|-------------------------------|--------------|
|--5-5----5-5-5-5-2-2-2-2-2--2--|---3----------|
|--5-5----5-5-5-5-2-2-2-2-2--2--|---3----------|
|--3-3----3-3-3-3-0-0-0-0-0--0--|---1----------|
|-------------------------------|--------------|
|
|  S Q          S S Q       +S      H     E  E
|-------------------------------|--------------|
|-10-8b10-------8p6h8-------(8)-|--------------|
|-------------------------------|-/10-----9-10-|
|-------------------------------|--------------|
|-------------------------------|--------------|
|-------------------------------|--------------|


  C5             D5
  H.              S  S S S S S E E S S
|--------------|-------------------------|
|--------------|-------------------------|
|-5------------|--7--7-7-7-7-7-7-7-7-7---|
|-5------------|--7--7-7-7-7-7-7-7-7-7---|
|-3------------|--5--5-5-5-5-5-5-5-5-5---|
|--------------|-------------------------|
|
| Q.   E.  E.     H.
|--------------|-------------------------|
|--------------|-------------------------|
|-9----7-------|-/7----------------------|
|---------10---|-------------------------|
|--------------|-------------------------|
|--------------|-------------------------|


  D5                             Bb5          C5
   S S  S S S  S E    E   S  S   H.           H.
|------------------------------|------------|--------------|
|------------------------------|------------|--------------|
|--7-7--7-7-7--7-7----7---7--7-|-3----------|-5------------|
|--7-7--7-7-7--7-7----7---7--7-|-3----------|-5------------|
|--5-5--5-5-5--5-5----5---5--5-|-1----------|-3------------|
|------------------------------|------------|--------------|
|
|  S S  S S S  S S  E   S S  S   H     E  E   H       E  E
|------------------------------|------------|--------------|
|-10p8-------------------------|------------|-8-----/10-11-|
|------10-9p7----9h10---9p7----|-------9-10-|--------------|
|-------------10------------10-|-8----------|--------------|
|------------------------------|------------|--------------|
|------------------------------|------------|--------------|


                                   Verse
  A5                                D5
   H.            +H.                H.
|-------------|-----------------||--------|
|-------------|-----------------||o-------|
|--2----------|--(2)------------||--7-----|
|--2----------|--(2)------------||--7-----|
|--0----------|--(0)------------||o-5-----|
|-------------|-----------------||--------|
|
|  H.            +Q        H        H.
|-------------|-----------------||--------|
|-10tr11------|-(10tr11)--10----||o-------|
|-------------|-----------------||--7-----|
|-------------|-----------------||--7-----|
|-------------|-----------------||o-5-----|
|-------------|-----------------||--------|


  Bb5       C5        A5   Bb5C5
  H.        H.        Q.   E. E.
|---------|---------|--------------||
|---------|---------|-------------o||
|-3-------|-5-------|-2----3--5----||
|-3-------|-5-------|-2----3--5----||
|-1-------|-3-------|-0----1--3---o||
|---------|---------|--------------||
|
| H.        H.        H.
|---------|---------|--------------||
|---------|---------|-------------o||
|-3-------|-5-------|-2------------||
|-3-------|-5-------|-2------------||
|-1-------|-3-------|-0-----------o||
|---------|---------|--------------||


   Pre-Chorus
    D5        C5        Bb5       A5   Bb5C5
    H.        H.        H.        Q.   E. E.
||----------|---------|---------|-------------||
||o---------|---------|---------|------------o||
||--7-------|-5-------|-3-------|-2----3--5---||
||--7-------|-5-------|-3-------|-2----3--5---||
||o-5-------|-3-------|-1-------|-0----1--3--o||
||----------|---------|---------|-------------||
|
|   H.        H.        H.        Q.   E. E.
||----------|---------|---------|-------------||
||o---------|---------|---------|------------o||
||--7-------|-5-------|-3-------|-2----3--5---||
||--7-------|-5-------|-3-------|-2----3--5---||
||o-5-------|-3-------|-1-------|-0----1--3--o||
||----------|---------|---------|-------------||


   Chorus
    D5
    S S S S S S S S S S S S
||--------------------------|
||o-------------------------|
||--7-7-7-7-7-7-7-7-7-7-7-7-|
||--7-7-7-7-7-7-7-7-7-7-7-7-|
||o-5-5-5-5-5-5-5-5-5-5-5-5-|
||--------------------------|
|
|   S S S S S S S S S S S S
||--------------------------|
||o-------------------------|
||--7-7-7-7-7-7-7-7-7-7-7-7-|
||--7-7-7-7-7-7-7-7-7-7-7-7-|
||o-5-5-5-5-5-5-5-5-5-5-5-5-|
||--------------------------|


  C5                        Bb5
  S S S S S S S S S S S S   S S S S S S S S S S S S
|-------------------------|-------------------------|
|-------------------------|-------------------------|
|-5-5-5-5-5-5-5-5-5-5-5-5-|-3-3-3-3-3-3-3-3-3-3-3-3-|
|-5-5-5-5-5-5-5-5-5-5-5-5-|-3-3-3-3-3-3-3-3-3-3-3-3-|
|-3-3-3-3-3-3-3-3-3-3-3-3-|-1-1-1-1-1-1-1-1-1-1-1-1-|
|-------------------------|-------------------------|
|
| S S S S S S S S S S S S   S S S S S S S S S S S S
|-------------------------|-------------------------|
|-------------------------|-------------------------|
|-5-5-5-5-5-5-5-5-5-5-5-5-|-3-3-3-3-3-3-3-3-3-3-3-3-|
|-5-5-5-5-5-5-5-5-5-5-5-5-|-3-3-3-3-3-3-3-3-3-3-3-3-|
|-3-3-3-3-3-3-3-3-3-3-3-3-|-1-1-1-1-1-1-1-1-1-1-1-1-|
|-------------------------|-------------------------|


                                                  Breakdown
  1.                    2.
  A5          Bb5C5     A5                         N.C.(A)
  S S S S S S E. E.     H.        +H     +E  S S   S  S  S S S S  S S S S S S
|--------------------||---------|----------------|----------------------------|
|-------------------o||---------|----------------|----------------------------|
|-2-2-2-2-2-2-3--5---||-2-------|-(2)----(2)-----|----------------------------|
|-2-2-2-2-2-2-3--5---||-2-------|-(2)----(2)-----|----------------------------|
|-0-0-0-0-0-0-1--3--o||-0-------|-(0)----(0)-5-5-|-5--5--5-5-5-5--5-5-5-5-5-5-|
|--------------------||---------|----------------|----------------------------|
|
| S S S S S S E. E.     H.        +H.              S  S  E   E    E   Q
|--------------------||---------|----------------|----------------------------|
|-------------------o||---------|----------------|------10---8--------8-------|
|-2-2-2-2-2-2-3--5---||-2-------|-(2)------------|-7h10----------10-----------|
|-2-2-2-2-2-2-3--5---||-2-------|-(2)------------|----------------------------|
|-0-0-0-0-0-0-1--3--o||-0-------|-(0)------------|----------------------------|
|--------------------||---------|----------------|----------------------------|


  S  S  S S S S  S S S S S S   S  S  S S S S  S S S S  S S
|----------------------------|-----------------------------|
|----------------------------|-----------------------------|
|----------------------------|-----------------------------|
|----------------------------|-----------------------------|
|-5--5--5-5-5-5--5-5-5-5-5-5-|-5--5--5-5-5-5--5-5-5-5--5-5-|
|----------------------------|-----------------------------|
|
| S  S  E   E    E   Q         S  S  E   E    E   E    E
|----------------------------|-----------------------------|
|------10---8--------8-------|------10---8-----------------|
|-7h10----------10-----------|-7h10----------10---9---10---|
|----------------------------|-----------------------------|
|----------------------------|-----------------------------|
|----------------------------|-----------------------------|


  S S    S S S S   S  S S S S S
|-------------------------------|
|-------------------------------|
|-------------------------------|
|-------------------------------|
|-5-5----5-5-5-5---5--5-5-5-5-5-|
|-------------------------------|
|
| E   a  Q        +Q.
|-------------------------------|
|-8---8h10-------(10)-----------|
|-------------------------------|
|-------------------------------|
|-------------------------------|
|-------------------------------|


  S  S  S S S S  S S S S S S
|----------------------------|
|----------------------------|
|----------------------------|
|----------------------------|
|-5--5--5-5-5-5--5-5-5-5-5-5-|
|----------------------------|
|
| S  S  E   E    E   Q
|----------------------------|
|------10---8--------8-------|
|-7h10----------10-----------|
|----------------------------|
|----------------------------|
|----------------------------|


                                   (Bb)          (C)
  S  S  S S S S  S S S S S S   S S  S S S S  S S S S  S S
|----------------------------|-----------------------------|
|----------------------------|-----------------------------|
|----------------------------|-----------------------------|
|----------------------------|-----------------------------|
|-5--5--5-5-5-5--5-5-5-5-5-5-|-5-5--1-1-1-1--1-1-3-3--3-3--|
|----------------------------|-----------------------------|
|
| S  S  E   E    E   Q         S S  E   E    E   E    E
|----------------------------|-----------------------------|
|------10---8--------8-------|----------8------------------|
|-7h10----------10-----------|-7h9-10-------10---9---10----|
|----------------------------|-----------------------------|
|----------------------------|-----------------------------|
|----------------------------|-----------------------------|


                            Q=90     H.=H                       Q=80
      N.(A)                 Bb5             C5                  D5
  S S S S S S S S S S S S    H.             Q.    E. E.          H.
|-------------------------|---------------|-------------------|--------|
|-------------------------|---------------|-------------------|--------|
|-------------------------|--3------------|-5-----------------|--7-----|
|-------------------------|--3------------|-5----/3--2--------|--7-----|
|-3-3-5-5-5-5-5-5-5-5-5-5-|--1------------|-3-----------------|--5-----|
|-------------------------|---------------|-------------------|--------|
|
| E   H               S S    Q.   E.  E.    Q.    E. E  +T  T    H.
|-------------------------|---------------|-------------------|--------|
|-------------------------|-------8-------|-------------------|--------|
|-9---7---------------7-9-|-10-------10---|-9----10--9--(9)---|-/7-----|
|-------------------------|---------------|-------------------|--------|
|-------------------------|---------------|-------------------|--------|
|-------------------------|---------------|-------------------|--------|


                                    Intro 2ª parte
                                 Q=120
  D5                                 (Dm)
                                    4/4
                                     Gtr III
  +H.        +H.        +H.           E  E E E E E E E  4x
|----------|----------|----------||---------------------||
|----------|----------|----------||o-----------6-------o||
|-(7)------|-(7)------|-(7)------||--------7-----7---7--||
|-(7)------|-(7)------|-(7)------||------7---7-----7----||
|-(5)------|-(5)------|-(5)------||o--5----------------o||
|----------|----------|----------||---------------------||
|
|                                    Gtr IV
| +H.        +H.        +H.          +W                 4x
|----------|----------|----------||---------------------||
|----------|----------|----------||o-------------------o||
|-(7)------|-(7)------|-(7)------||--(7)----------------||
|----------|----------|----------||---------------------||
|----------|----------|----------||o-------------------o||
|----------|----------|----------||---------------------||


 Solo 2ª parte
    (Dm)                  (Bb)
    E E E E  E  E E E     E  E E E  E E E E
|---------------------|---------------------|
|------------6--------|-------------3-------|
|-------7-------7---7-|--------3------3---3-|
|-----7---7-------7---|------3---3------3---|
|---5-----------------|---1-----------------|
|---------------------|---------------------|
|
| a H       +E  E E E   a Q.     Q.     Q
|---------------------|---------------------|
|-------------------5-|-5h6------5----------|
|-5s7-------(7)-5-7---|-----------------7---|
|---------------------|---------------------|
|---------------------|---------------------|
|---------------------|---------------------|


    (C)                 (A)
    E E E E  E  E E E   E E E E E E E E
|---------------------|------------------|
|------------5--------|---------2--------|
|-------5-------5---5-|-----2-----2---2--|
|-----5---5-------5---|---2---2-----2----|
|---3-----------------|-0----------------|
|---------------------|------------------|
|
|                         ~
| a H       +E  Q   E   E H       Q   E
|---------------------|------------------|
|---------------6---8-|-6----------------|
|-7s9-------(9)-------|---9-------7---5--|
|---------------------|------------------|
|---------------------|------------------|
|---------------------|------------------|


    (Dm)                (Bb)
    E E E E  E  E E E   E E E E  E   E  E E
|---------------------|---------------------|
|------------6--------|----------3----------|
|-------7-------7---7-|-----3--------3----3-|
|-----7---7-------7---|---3---3---------3---|
|---5-----------------|-1-------------------|
|---------------------|---------------------|
|
| a H       +E  Q   E   H       +E   Q.
|---------------------|---------------------|
|---------------5-----|-------------/6------|
|-5s7-------(7)-----7-|---------------------|
|---------------------|-8-------(8)---------|
|---------------------|---------------------|
|---------------------|---------------------|


  (C)                 (A)
  E   E E E E E E E   E E E E  E E E E
|-------------------|------------------|
|-----------5-------|----------2-------|
|-------5-----5---5-|-----2------2---2-|
|-----5---5-----5---|---2---2------2---|
|-3-----------------|-0----------------|
|-------------------|------------------|
|
|                           ~~
| H..             E   E Q   Q.     E E
|-------------------|------------------|
|-----------------6-|-8-6--------------|
|-9-----------------|-------9------7-5-|
|-------------------|------------------|
|-------------------|------------------|
|-------------------|------------------|


  (Bb)                (C)                 (Dm)              (Dm)
  E E E E  E  E E E   E E E E  E  E E E   E E E E E E E E    E  E E E E E E E
|-------------------|-------------------|-----------------|-------------------|
|----------3--------|----------5--------|---------6-------|-----------6-------|
|-----3-------3---3-|-----5-------5---5-|-----7-----7---7-|-------7-----7---7-|
|---3---3-------3---|---5---5-------5---|---7---7-----7---|-----7---7-----7---|
|-1-----------------|-3-----------------|-5---------------|--5----------------|
|-------------------|-------------------|-----------------|-------------------|
|
| H       +E  Q   E   H       +E  Q   E   W                 +E  E E E E E E E
|-------------------|-------------------|-----------------|-------------------|
|-6-------(6)-5---6-|-5-------(5)-------|-----------------|---------5-6-5-----|
|-------------------|-------------7---5-|-7---------------|-(7)-5-7-------7-5-|
|-------------------|-------------------|-----------------|-------------------|
|-------------------|-------------------|-----------------|-------------------|
|-------------------|-------------------|-----------------|-------------------|


  (Bb)              (C)                    (A)                 (A)
  E E E E E E E E    E E E E  E  E E E     E E E E  E  E  Q    W
|-----------------|----------------------|----------5--------|------|
|---------3-------|-----------5----------|-------------------|------|
|-----3-----3---3-|------5-------5---5---|-----6-------6-----|------|
|---3---3-----3---|----5---5-------5-----|---7---7--------7--|------|
|-1---------------|--3-------------------|-------------------|------|
|-----------------|----------------------|-5-----------------|-5----|
|
| W                  H       +E  Q   S S   H       +E  Q.      W
|-----------------|----------------------|-------------------|------|
|-----------------|----------------------|-------------3-----|-5----|
|-----------------|-/5-------(5)-3---5p3-|-2-------(2)-------|------|
|-8---------------|----------------------|-------------------|------|
|-----------------|----------------------|-------------------|------|
|-----------------|----------------------|-------------------|------|


   Verse
    (Dm)              (Bb)              (C)               (A)
    E E E E E E E E   E E E E E E E E   E E E E E E E E   E E E E E E E E   4x
||------------------|-----------------|-----------------|-------------------||
||o---------6-------|---------3-------|---------5-------|---------2--------o||
||------7-----7---7-|-----3-----3---3-|-----5-----5---5-|-----2-----2---2---||
||----7---7-----7---|---3---3-----3---|---5---5-----5---|---2---2-----2-----||
||o-5---------------|-1---------------|-3---------------|-0----------------o||
||------------------|-----------------|-----------------|-------------------||


 2º Solo
    (Dm)                  (Bb)
    E E E E  E  E E E     E  E E E  E E E E
|---------------------|---------------------|
|------------6--------|-------------3-------|
|-------7-------7---7-|--------3------3---3-|
|-----7---7-------7---|------3---3------3---|
|---5-----------------|---1-----------------|
|---------------------|---------------------|
|
| Gtr IV
| a H       +E  E E E   a Q.     Q.     Q
|---------------------|---------------------|
|-------------------5-|-5h6------5----------|
|-5s7-------(7)-5-7---|-----------------7---|
|---------------------|---------------------|
|---------------------|---------------------|
|---------------------|---------------------|


    (C)                 (A)
    E E E E  E  E E E   E E E E E E E E
|---------------------|------------------|
|------------5--------|---------2--------|
|-------5-------5---5-|-----2-----2---2--|
|-----5---5-------5---|---2---2-----2----|
|---3-----------------|-0----------------|
|---------------------|------------------|
|
|                         ~
| a H       +E  Q   E   E H       Q   E
|---------------------|------------------|
|---------------6---8-|-6----------------|
|-7s9-------(9)-------|---9-------7---5--|
|---------------------|------------------|
|---------------------|------------------|
|---------------------|------------------|


  H.=H
    (Dm)                (Bb)
    E E E E  E  E E E   E E E E  E   E  E E
|---------------------|---------------------|
|------------6--------|----------3----------|
|-------7-------7---7-|-----3--------3----3-|
|-----7---7-------7---|---3---3---------3---|
|---5-----------------|-1-------------------|
|---------------------|---------------------|
|
| a H       +E  Q   E   H       +E   Q.
|---------------------|---------------------|
|---------------5-----|-------------/6------|
|-5s7-------(7)-----7-|---------------------|
|---------------------|-8-------(8)---------|
|---------------------|---------------------|
|---------------------|---------------------|


  (C)                 (A)
  E   E E E E E E E   E E E E  E E E E
|-------------------|------------------|
|-----------5-------|----------2-------|
|-------5-----5---5-|-----2------2---2-|
|-----5---5-----5---|---2---2------2---|
|-3-----------------|-0----------------|
|-------------------|------------------|
|
| ~~~                       ~~
| H..             E   E Q   Q.     E E
|-------------------|------------------|
|-----------------6-|-8-6--------------|
|-9-----------------|-------9------7-5-|
|-------------------|------------------|
|-------------------|------------------|
|-------------------|------------------|


   Verse
    (Dm)                (Bb)              (C)               (A)
     E  E E E E E E E   E E E E E E E E   E E E E E E E E   E E E E E E E E   6x
||--------------------|-----------------|-----------------|-------------------||
||o-----------6-------|---------3-------|---------5-------|---------2--------o||
||--------7-----7---7-|-----3-----3---3-|-----5-----5---5-|-----2-----2---2---||
||------7---7-----7---|---3---3-----3---|---5---5-----5---|---2---2-----2-----||
||o--5----------------|-1---------------|-3---------------|-0----------------o||
||--------------------|-----------------|-----------------|-------------------||
|
|    W                  W                 W                 W                 6x
||--------------------|-----------------|-----------------|-------------------||
||o-------------------|-----------------|-----------------|------------------o||
||--(7)---------------|-----------------|-----------------|-------------------||
||--------------------|-----------------|-----------------|-------------------||
||o-------------------|-----------------|-----------------|------------------o||
||--------------------|-----------------|-----------------|-------------------||


   Pre-Chorus
    Q=125
    D5             C5             Bb5            A5     Bb5C5
    Gtr I
    E E E E H      E E E E H      E E E E H      E E Q  Q  Q
||---------------|--------------|--------------|----------------||
||o--------------|--------------|--------------|---------------o||
||--7-7-7-7-7----|-5-5-5-5-5----|-3-3-3-3-3----|-2-2-2--3--5----||
||--7-7-7-7-7----|-5-5-5-5-5----|-3-3-3-3-3----|-2-2-2--3--5----||
||o-5-5-5-5-5----|-3-3-3-3-3----|-1-1-1-1-1----|-0-0-0--1--3---o||
||---------------|--------------|--------------|----------------||
|
|   Gtr II
|   E E E E H      E E E E H      E E E E H      E E Q  Q  Q
||---------------|--------------|--------------|----------------||
||o--------------|--------------|--------------|---------------o||
||--7-7-7-7-7----|-5-5-5-5-5----|-3-3-3-3-3----|-2-2-2--3--5----||
||--7-7-7-7-7----|-5-5-5-5-5----|-3-3-3-3-3----|-2-2-2--3--5----||
||o-5-5-5-5-5----|-3-3-3-3-3----|-1-1-1-1-1----|-0-0-0--1--3---o||
||---------------|--------------|--------------|----------------||


   Chorus
                                                 1.
    D5             C5             Bb5            A5     Bb5C5
    E E E E H      E E E E H      E E E E H      E E Q  Q  Q
||---------------|--------------|--------------|----------------||
||o--------------|--------------|--------------|---------------o||
||--7-7-7-7-7----|-5-5-5-5-5----|-3-3-3-3-3----|-2-2-2--3--5----||
||--7-7-7-7-7----|-5-5-5-5-5----|-3-3-3-3-3----|-2-2-2--3--5----||
||o-5-5-5-5-5----|-3-3-3-3-3----|-1-1-1-1-1----|-0-0-0--1--3---o||
||---------------|--------------|--------------|----------------||
|
|   E E E E H      E E E E H      E E E E H      E E Q  Q  Q
||---------------|--------------|--------------|----------------||
||o--------------|--------------|--------------|---------------o||
||--7-7-7-7-7----|-5-5-5-5-5----|-3-3-3-3-3----|-2-2-2--3--5----||
||--7-7-7-7-7----|-5-5-5-5-5----|-3-3-3-3-3----|-2-2-2--3--5----||
||o-5-5-5-5-5----|-3-3-3-3-3----|-1-1-1-1-1----|-0-0-0--1--3---o||
||---------------|--------------|--------------|----------------||


 Ending
  2.=H
  A5
 3/4
  H.        +H.         +H.           +H.
|---------|-----------|-------------|------------|
|---------|-----------|-------------|------------|
|-2-------|-(2)-------|-(2)---------|-(2)--------|
|-2-------|-(2)-------|-(2)---------|-(2)--------|
|-0-------|-(0)-------|-(0)---------|-(0)--------|
|---------|-----------|-------------|------------|
|
| H.        +H     Q     Q   Q   Q     Q   Q  Q
|---------|-----------|-------------|------------|
|---------|-----------|--3---5--/6--|--5---3-----|
|-2-------|-(2)----2--|-------------|---------5--|
|-2-------|-(2)-------|-------------|------------|
|-0-------|-(0)-------|-------------|------------|
|---------|-----------|-------------|------------|


  D5   C5     Bb5        A5         D5
 4/4
  H    H      W          W           W          +W
|-----------|----------|----------|-----------|--------*|
|-----------|----------|----------|-----------|--------*|
|-7----5----|-3--------|-2--------|-/7--------|-(7)----*|
|-7----5----|-3--------|-2--------|-/7--------|-(7)----*|
|-5----3----|-1--------|-0--------|-/5--------|-(5)----*|
|-----------|----------|----------|-----------|--------*|
|
| H    H      W          W           W          +W
|-----------|----------|----------|-----------|--------*|
|-3----1----|----------|----------|-/3--------|-(3)----*|
|-----------|-3--------|-2--------|-----------|--------*|
|-----------|----------|----------|-----------|--------*|
|-----------|----------|----------|-----------|--------*|
|-----------|----------|----------|-----------|--------*|



Duration Legend
---------------
W - whole; H - half; Q - quarter; E - 8th; S - 16th; T - 32nd; X - 64th; a - acciaccatura
+ - note tied to previous; . - note dotted; .. - note double dotted
Uncapitalized letters represent notes that are staccato (1/2 duration)
Irregular groupings are notated above the duration line
Duration letters will always appear directly above the note/fret number it represents the
duration for.  Duration letters with no fret number below them represent rests.  Multi-
bar rests are notated in the form Wxn, where n is the number of bars to rest for.  Low
melody durations appear below the staff

Tablature Legend
----------------
 h   - hammer-on
 p   - pull-off
 b   - bend
 pb  - pre-bend
 r   - bend release (if no number after the r, then release immediately)
 /\  - slide into or out of (from/to "nowhere")
 s   - legato slide
 S   - shift slide
<n> - natural harmonic
[n]  - artificial harmonic
n(n) - tapped harmonic
 ~   - vibrato
 tr  - trill
 T   - tap
 TP  - trem. picking
 PM  - palm muting
\n/  - tremolo bar dip; n = amount to dip
 \n  - tremolo bar down
 n/  - tremolo bar up
/n\  - tremolo bar inverted dip
 =   - hold bend; also acts as connecting device for hammers/pulls
 <> - volume swell (louder/softer)
 x   - on rhythm slash represents muted slash
 o   - on rhythm slash represents single note slash

Misc Legend
-----------
 |  - bar
||  - double bar
||o - repeat start
o|| - repeat end
*|  - double bar (ending)
 :  - bar (freetime)
 $  - Segno
 &  - Coda
Tempo markers - <E/E./Q/Q./H/H.> = BPM(8/16=s8/s16), where s8 = swing 8ths, s16 = swing 16ths

comments
We did not receive enough feedback on this tab! Please rate:
print report bad tab
1 2 3 4 5
I want to post or [tab]
guest
You may want to rate the tab now too:
select rating
Please do not post tabs as comments. Select "correction" instead!