Oops, an error
Loading. Please wait.

La Ciudad Secreta Tab

ver2
ver2

Whole song

More versions @911Tabs.com
185 views 1 this week
no commentswrite comment
1 2 3 4 5
please rate
Autoscroll
+/-
esc
set tempo
stop
Contributor
WARNING: You are trying to view
                                    content from Ultimate-Guitar.com
                                    in an unauthorized application,
                                    which is prohibited.

                                    Please use an official Ultimate
                                    Guitar Tabs application for iPhone,
                                    iPad or Android to access legitimate
                                    chords, guitar, bass, and drum tabs
                                    from Ultimate-Guitar.com database.

                                    Type "ultimate guitar tabs" in Apple
                                    App Store's or Android Market's
                                    search to find the application.
#----------------------------------PLEASE NOTE---------------------------------#
#This file is the author's own work and represents their interpretation of the #
#song. You may only use this file for private study, scholarship, or research. #
#------------------------------------------------------------------------------#

LA CIUDAD SECRETA
As recorded by Tierra Santa
(From the 2001 Album SANGRE DE REYES)

Transcribed by Ultrawaba
        

Words and Music by Tierra Santa

Gtr I (E A D G B E) - 'Rythm'
Gtr II (E A D G B E) - 'Lead'
Gtr III (E A D G B E) - 'Keyboard'

 Intro
  Q=80
  N.C.    D5/A   A5
 4/4
  Gtr I
  H.       Q     W
|--------------|-----------------|
|--------------|-----------------|
|--------------|-2---------------|
|---------12\--|-2---------------|
|---------12\--|-0---------------|
|--------------|-----------------|
|
| Gtr II
| H.       Q     E   E  E E H
|--------------|---/10-10-8-8----|
|--------------|---/10-10-8-8----|
|--------------|-----------------|
|---------12\--|-----------------|
|---------12\--|-----------------|
|--------------|-----------------|
|
| Gtr III
| W              E   E  E E H
|--------------|-----------------|
|--------------|-----------------|
|--------------|----/7--7-5-5----|
|--------------|----/7--7-5-5----|
|--------------|-----------------|
|--------------|-----------------|


  A5            F5G5  A5                  F     D5/A
  +H.           E E    W                   H    H
|-------------------|-------------------|--1---------|
|-------------------|-------------------|--1----3----|
|-(2)---------------|--2----------------|--2----2----|
|-(2)-----------3-5-|--2----------------|--3----0----|
|-(0)-----------3-5-|--0----------------|--3----0----|
|---------------1-3-|-------------------|--1---------|
|
| +E   E E E H        +E    E  E E H       H    H
|-(8)-\3-3-5-5------|-(5)-/10-10-8-8----|-\1----2----|
|-(8)-\3-3-5-5------|-(5)-/10-10-8-8----|-\1----3----|
|-------------------|-------------------|------------|
|-------------------|-------------------|------------|
|-------------------|-------------------|------------|
|-------------------|-------------------|------------|
|
| +E   E E E H        +E    E  E E H       H    H
|-------------------|-------------------|------------|
|-------------------|-------------------|------------|
|-(5)---------------|------/7--7-5-5----|------------|
|-(5)-\5-5-7-7------|-(7)--/7--7-5-5----|-\3----4----|
|-----\5-5-7-7------|-(7)---------------|-\3----5----|
|-------------------|-------------------|------------|


  A5                A5              F5G5  A5                  F     D5/A
  W                 +H.             E E    W                   H     H
|-----------------|---------------------|-------------------|--1----------|
|-----------------|---------------------|-------------------|--1-----3----|
|-2---------------|-(2)-----------------|--2----------------|--2-----2----|
|-2---------------|-(2)-------------3-5-|--2----------------|--3-----0----|
|-0---------------|-(0)-------------3-5-|--0----------------|--3-----0----|
|-----------------|-----------------1-3-|-------------------|--1----------|
|
|                               ~~~~~~~~~~~~~~
| E   E  E E H      +E   E E E  H         +E    E  E E H       H     H
|---/10-10-8-8----|-(8)-\3-3-5--5-------|-(5)-/10-10-8-8----|-\1----10----|
|---/10-10-8-8----|-(8)-\3-3-5-[5]------|-(5)-/10-10-8-8----|-\1----10----|
|-----------------|---------------------|-------------------|-------------|
|-----------------|---------------------|-------------------|-------------|
|-----------------|---------------------|-------------------|-------------|
|-----------------|---------------------|-------------------|-------------|
|
| E   E  E E H      +E   E E E  H         +E    E  E E H       H     H
|-----------------|---------------------|-------------------|-------------|
|-----------------|---------------------|-------------------|-------------|
|----/7--7-5-5----|-(5)-----------------|------/7--7-5-5----|--------7----|
|----/7--7-5-5----|-(5)-\5-5-7--7-------|-(7)--/7--7-5-5----|-\3-----7----|
|-----------------|-----\5-5-7--7-------|-(7)---------------|-\3----------|
|-----------------|---------------------|-------------------|-------------|


              Q=95
  D5/A          A5
    >
   +W           W
|-------------|-------------------------|
|--(3)--------|-------------------------|
|--(2)--------|-2-----------------------|
|--(0)--------|-2-----------------------|
|--(0)--------|-0-----------------------|
|-------------|-------------------------|
|
|   >
|                 PM|   PM  PM
|  +W           E S S E S E S E S S S S
|-(10)--------|-------------------------|
|-(10)--------|-------------------------|
|-------------|-2-----2---2---2---------|
|-------------|-2-2-2-2-2-2-2-2-5-4-2---|
|-------------|-0-0-0-0-0-0-0-0-------5-|
|-------------|-------------------------|
|
|   >
|  +W           W
|-------------|-------------------------|
|-------------|-------------------------|
|--(7)--------|-------------------------|
|--(7)--------|-------------------------|
|-------------|-------------------------|
|-------------|-------------------------|


  +W                          W
|---------------------------|-------------------------|
|---------------------------|-------------------------|
|-(2)-----------------------|-2-----------------------|
|-(2)-----------------------|-2-----------------------|
|-(0)-----------------------|-0-----------------------|
|---------------------------|-------------------------|
|
|     PM|   PM  PM              PM|   PM  PM
|  E  S S E S E S E S S S S   E S S E S E S E S S S S
|---------------------------|-------------------------|
|---------------------------|-------------------------|
|--2------2---2---2---------|-2-----2---2---2---------|
|--2--2-2-2-2-2-2-2-5-4-2---|-2-2-2-2-2-2-2-2-5-4-2---|
|--0--0-0-0-0-0-0-0-------5-|-0-0-0-0-0-0-0-0-------5-|
|---------------------------|-------------------------|
|
|  W                          W
|---------------------------|-------------------------|
|---------------------------|-------------------------|
|---------------------------|-------------------------|
|---------------------------|-------------------------|
|---------------------------|-------------------------|
|---------------------------|-------------------------|


  A5
  PM----------|
  S S S S S S S E  S S S S S S S
|--------------------------------|
|--------------------------------|
|---------------2----------------|
|-2-2-2-2-2-2-2-2----------------|
|-0-0-0-0-0-0-0-0----0-2-3-2-0---|
|------------------------------3-|
|
|     PM|     PM
| E   S S E   S E.   S S S S S S
|--------------------------------|
|--------------------------------|
|-2-------2-----2----------------|
|-2---2-2-2---2-2----------------|
|-0---0-0-0---0-0----0-2-3-2-0---|
|------------------------------3-|
|
| W
|--------------------------------|
|--------------------------------|
|--------------------------------|
|--------------------------------|
|--------------------------------|
|--------------------------------|


     PM|   PM  PM               PM|   PM  PM
   E S S E S E S E S S S S    E S S E S E S E S S S S
|--------------------------|--------------------------|
|--------------------------|--------------------------|
|--2-----2---2---2---------|--2-----2---2---2---------|
|--2-2-2-2-2-2-2-2-5-4-2---|--2-2-2-2-2-2-2-2-5-4-2---|
|--0-0-0-0-0-0-0-0-------5-|--0-0-0-0-0-0-0-0-------5-|
|--------------------------|--------------------------|
|
|    PM|   PM  PM               PM|   PM  PM
|  E S S E S E S E S S S S    E S S E S E S E S S S S
|--------------------------|--------------------------|
|--------------------------|--------------------------|
|--2-----2---2---2---------|--2-----2---2---2---------|
|--2-2-2-2-2-2-2-2-5-4-2---|--2-2-2-2-2-2-2-2-5-4-2---|
|--0-0-0-0-0-0-0-0-------5-|--0-0-0-0-0-0-0-0-------5-|
|--------------------------|--------------------------|
|
|  W                          W
|--------------------------|--------------------------|
|-17-----------------------|-17-----------------------|
|-14-----------------------|-14-----------------------|
|-14-----------------------|-14-----------------------|
|-12-----------------------|-12-----------------------|
|--------------------------|--------------------------|


  A5
     PM|   PM  PM               PM|   PM
   E S S E S E S E S S S S    E S S E S E. S S S S S S
|--------------------------|---------------------------|
|--------------------------|---------------------------|
|--2-----2---2---2---------|--2-----2---2--------------|
|--2-2-2-2-2-2-2-2-5-4-2---|--2-2-2-2-2-2--------------|
|--0-0-0-0-0-0-0-0-------5-|--0-0-0-0-0-0--0-2-3-2-0---|
|--------------------------|-------------------------3-|
|
|    PM|   PM  PM               PM|   PM
|  E S S E S E S E S S S S    E S S E S E. S S S S S S
|--------------------------|---------------------------|
|--------------------------|---------------------------|
|--2-----2---2---2---------|--2-----2---2--------------|
|--2-2-2-2-2-2-2-2-5-4-2---|--2-2-2-2-2-2--------------|
|--0-0-0-0-0-0-0-0-------5-|--0-0-0-0-0-0--0-2-3-2-0---|
|--------------------------|-------------------------3-|
|
|  W                          W
|-17-----------------------|-20------------------------|
|-15-----------------------|-18------------------------|
|-14-----------------------|-17------------------------|
|-12-----------------------|-15------------------------|
|--------------------------|---------------------------|
|--------------------------|---------------------------|


 Verse 1
  A5                                                D5/A
   >
   W           +W            +W            +H.       Q
|-----------|-------------|-------------|----------------|
|-----------|-------------|-------------|----------------|
|--2--------|--(2)--------|--(2)--------|--(2)-----------|
|--2--------|--(2)--------|--(2)--------|--(2)------12\--|
|--0--------|--(0)--------|--(0)--------|--(0)------12\--|
|-----------|-------------|-------------|----------------|
|
|  W            W             W             W
|-----------|-------------|-------------|----------------|
|-----------|-------------|-------------|----------------|
|-----------|-------------|-------------|----------------|
|--2--------|-------------|-------------|----------------|
|--0--------|-------------|-------------|----------------|
|-----------|-------------|-------------|----------------|
|
|  <
|  W           +W            +W            +W
|-----------|-------------|-------------|----------------|
|-13--------|-(13)--------|-(13)--------|-(13)-----------|
|-10--------|-(10)--------|-(10)--------|-(10)-----------|
|-10--------|-(10)--------|-(10)--------|-(10)-----------|
|--8--------|--(8)--------|--(8)--------|--(8)-----------|
|-----------|-------------|-------------|----------------|


  A5    E5   F5          E5   D5      A5    E5   F5          E5   D5
      PM   PM    PM    PM   PM    PM      PM   PM    PM    PM   PM    PM
   E  S  S S  E  S  E  S  S S  E  S    E  S  S S  E  S  E  S  S S  E  S
|-----------------------------------|-----------------------------------|
|------------------------------3----|------------------------------3----|
|--------4----5-----------4----2----|--------4----5-----------4----2----|
|--2--x--2-x--3--x-----x--2-x--0--x-|--2--x--2-x--3--x-----x--2-x--0--x-|
|--0--x----x-----x--0--x----x-----x-|--0--x----x-----x--0--x----x-----x-|
|-----------------------------------|-----------------------------------|
|
|  E  S  E    E.    E  S  E    E.      E  S  E    E.    E  S  E    E.
|-----------------------------------|-----------------------------------|
|-----------------------------------|-----------------------------------|
|-----------------------------------|-----------------------------------|
|--2--x--2----3-----0--x--2----0----|--2--x--2----3-----0--x--2----0----|
|--0--x--2----3-----0--x--2----0----|--0--x--2----3-----0--x--2----0----|
|-----------------------------------|-----------------------------------|
|
|  E.    e    e.    E.    e    e.      E.    e    e.    E.    e    e.
|-----------------------------------|-----------------------------------|
|-15----17---18----15----17---15----|-15----17---18----15----17---15----|
|-12----14---15----12----14---12----|-12----14---15----12----14---12----|
|-12----14---15----12----14---12----|-12----14---15----12----14---12----|
|-10----12---13----10----12---10----|-10----12---13----10----12---10----|
|-----------------------------------|-----------------------------------|


  A5    E5   F5          E5   D5      A5    E5   F5          E5   D5
      PM   PM    PM    PM   PM    PM      PM   PM    PM    PM   PM    PM
   E  S  S S  E  S  E  S  S S  E  S    E  S  S S  E  S  E  S  S S  E  S
|-----------------------------------|--------------------------------------|
|------------------------------3----|------------------------------3-------|
|--------4----5-----------4----2----|--------4----5-----------4----2-------|
|--2--x--2-x--3--x-----x--2-x--0--x-|--2--x--2-x--3--x-----x--2-x--0--x----|
|--0--x----x-----x--0--x----x-----x-|--0--x----x-----x--0--x----x-----x----|
|-----------------------------------|--------------------------------------|
|
|  E  S  E    E.    E  S  E    E.      E  S  E    E.    E  S  E    E.
|-----------------------------------|--------------------------------------|
|-----------------------------------|--------------------------------------|
|-----------------------------------|--------------------------------------|
|--2--x--2----3-----0--x--2----0----|--2--x--2----3-----0--x--2----0-------|
|--0--x--2----3-----0--x--2----0----|--0--x--2----3-----0--x--2----0-------|
|-----------------------------------|--------------------------------------|
|
|  E.    e    e.    E.    e    e.      E.    e    e.    E.    e    e.
|-----------------------------------|--------------------------------------|
|-15----17---18----15----17---15----|-15----17---18----15----17---15-------|
|-12----14---15----12----14---12----|-12----14---15----12----14---12-------|
|-12----14---15----12----14---12----|-12----14---15----12----14---12-------|
|-10----12---13----10----12---10----|-10----12---13----10----12---10-------|
|-----------------------------------|--------------------------------------|


 Pre-Verse
  F5         G5         A5
                         PM-------------------------------
  W          W           S S S S S S S S S S S S S S S S
|----------|----------|----------------------------------|
|----------|----------|----------------------------------|
|----------|----------|----------------------------------|
|-3--------|-5--------|--2-2---------------------2-2-2-2-|
|-3--------|-5--------|--0-0-0-0-0-0-0-0-0-0-0-0-0-0-0-0-|
|-1--------|-3--------|----------------------------------|
|
|                        PM|         PM|         PM-------
| W          W           S S e   S S S S e   S S S S S S
|----------|----------|----------------------------------|
|----------|----------|------6---5-6-----6---5-6---------|
|----------|----------|------5---4-5-----5---4-5---------|
|----------|----------|--2-2-3---2-3-----3---2-3-2-2-2-2-|
|-3--------|-5--------|--0-0---------0-0---------0-0-0-0-|
|-1--------|-3--------|----------------------------------|
|
| W          W           W
|----------|----------|----------------------------------|
|----------|----------|-13-------------------------------|
|----------|----------|-10-------------------------------|
|----------|----------|-10-------------------------------|
|----------|----------|--8-------------------------------|
|----------|----------|----------------------------------|


 ----------------------------------|
    S  S S S S S S S S S S S S S S S
|---------------------------------------|
|---------------------------------------|
|---------------------------------------|
|---2--2---------------------2-2-2-2----|
|---0--0-0-0-0-0-0-0-0-0-0-0-0-0-0-0----|
|---------------------------------------|
|
|------|         PM|         PM----|
|   S  S e   S S S S e   S S S S S S
|---------------------------------------|
|--------6---5-6-----6---5-6------------|
|--------5---4-5-----5---4-5------------|
|---2--2-3---2-3-----3---2-3-2-2-2-2----|
|---0--0---------0-0---------0-0-0-0----|
|---------------------------------------|
|
|  +W
|---------------------------------------|
|-(13)----------------------------------|
|-(10)----------------------------------|
|-(10)----------------------------------|
|--(8)----------------------------------|
|---------------------------------------|


  F5         G5          A5
                                  PM               PM|   PM
  W           W           E       S   E  E.        T T E S E S S
|----------|-----------|-----------------------------------------|
|----------|-----------|-----------------------------------------|
|----------|-----------|--2-----------2--2-------------2---2-2---|
|-3--------|-/5--------|--2-------2---2--2-------------2-2-2-2---|
|-3--------|-/5--------|--0-------0---0--0---------0-0-0-0-0-0-3p|
|-1--------|-/3--------|-----------------------------------------|
|
|                                                  ~~
| W           W           E       S   Q      T  T  H
|----------|-----------|---------15--15--------------------------|
|----------|-----------|-15b17==(15)-15r----15p13-15-------------|
|----------|-----------|-----------------------------------------|
|----------|-----------|-----------------------------------------|
|-3--------|-/5--------|-----------------------------------------|
|-1--------|-/3--------|-----------------------------------------|
|
| W           W           W
|----------|-----------|-----------------------------------------|
|----------|-15--------|-----------------------------------------|
|----------|-12--------|-----------------------------------------|
|----------|-12--------|-----------------------------------------|
|----------|-10--------|-----------------------------------------|
|----------|-----------|-----------------------------------------|


            PM                 PM
  S   E     S  E     E         S S S  S     S S S S
|----------------------------------------------------|
|----------------------------------------------------|
|-----2--------2-----2-------------------------------|
|-----2-----2--2-----2---------2---------------------|
|-0---0-----0--0-----0---------0-2h3p=2h====3p2------|
|-----------------------------------------------3p0--|
|
|                                           ~~~
| S   S  S  S  S  S  S   Q            T  T  Q
|----------------------------------------------------|
|---/15-13-12----------------------------------------|
|-------------14-12-14-[14]b16r======14-12-14--------|
|----------------------------------------------------|
|----------------------------------------------------|
|----------------------------------------------------|
|
| W
|----------------------------------------------------|
|----------------------------------------------------|
|----------------------------------------------------|
|----------------------------------------------------|
|----------------------------------------------------|
|----------------------------------------------------|


 Verse 2
  A5    E5   F5    A5    E5   D5      A5    E5   F5    A5
      PM   PM    PM    PM   PM    PM      PM   PM    PM
   E  S  S S  E  S  E  S  S S  E  S    E  S  S S  E  S  E  S  S S  S  S S
|-----------------------------------|-------------------------------------|
|------------------------------3----|-------------------------------------|
|--------4----5-----------4----2----|--------4----5-----------------------|
|--2--x--2-x--3--x--2--x--2-x--0--x-|--2--x--2-x--3--x--2-----------------|
|--0--x----x-----x--0--x----x-----x-|--0--x----x-----x--0--0--2-3--2--0---|
|-----------------------------------|-----------------------------------3-|
|
|  E  S  E    E.    E  S  E    E.      E  S  E    E.    E  S  S S  S  S S
|-----------------------------------|-------------------------------------|
|-----------------------------------|-------------------------------------|
|-----------------------------------|-------------------------------------|
|--2--x--2----3-----0--x--2----0----|--2--x--2----3-----2-----------------|
|--0--x--2----3-----0--x--2----0----|--0--x--2----3-----0--0--2-3--2--0---|
|-----------------------------------|-----------------------------------3-|
|
|  E.    e    e.    E.    e    e.      E.    e    e.    E.    e    e.
|-----------------------------------|-------------------------------------|
|-15----17---18----15----17---15----|-15----17---18----15----17---15------|
|-12----14---15----12----14---12----|-12----14---15----12----14---12------|
|-12----14---15----12----14---12----|-12----14---15----12----14---12------|
|-10----12---13----10----12---10----|-10----12---13----10----12---10------|
|-----------------------------------|-------------------------------------|


  A5    E5   F5    A5    E5   D5      A5    E5   F5    A5
      PM   PM    PM    PM   PM    PM      PM   PM    PM
   E  S  S S  E  S  E  S  S S  E  S    E  S  S S  E  S  E  S  S S  S  S S
|-----------------------------------|--------------------------------------|
|------------------------------3----|--------------------------------------|
|--------4----5-----------4----2----|--------4----5------------------------|
|--2--x--2-x--3--x--2--x--2-x--0--x-|--2--x--2-x--3--x--2------------------|
|--0--x----x-----x--0--x----x-----x-|--0--x----x-----x--0--3--2-3--2-------|
|-----------------------------------|---------------------------------3-0--|
|
|  E  S  E    E.    E  S  E    E.      E  S  E    E.    E  S  S S  S  S S
|-----------------------------------|--------------------------------------|
|-----------------------------------|--------------------------------------|
|-----------------------------------|--------------------------------------|
|--2--x--2----3-----0--x--2----0----|--2--x--2----3-----2------------------|
|--0--x--2----3-----0--x--2----0----|--0--x--2----3-----0--3--2-3--2-------|
|-----------------------------------|---------------------------------3-0--|
|
|  E.    e    e.    E.    e    e.      E.    e    e.    E.    e    e.
|-----------------------------------|--------------------------------------|
|-15----17---18----15----17---15----|-15----17---18----15----17---15-------|
|-12----14---15----12----14---12----|-12----14---15----12----14---12-------|
|-12----14---15----12----14---12----|-12----14---15----12----14---12-------|
|-10----12---13----10----12---10----|-10----12---13----10----12---10-------|
|-----------------------------------|--------------------------------------|


  A5    E5   F5    A5    E5   D5      A5    E5   F5    A5
      PM   PM    PM    PM   PM    PM      PM   PM    PM
   E  S  S S  E  S  E  S  S S  E  S    E  S  S S  E  S  E  S  S S  S  S S
|-----------------------------------|-------------------------------------|
|-----------------------------------|-------------------------------------|
|--------4----5-----------4----2----|--------4----5-----------------------|
|--2--x--2-x--3--x--2--x--2-x--0--x-|--2--x--2-x--3--x--2-----------------|
|--0--x----x-----x--0--x----x-----x-|--0--x----x-----x--0--0--2-3--2--0---|
|-----------------------------------|-----------------------------------3-|
|
|  E  S  E    E.    E  S  E    E.      E  S  E    E.    E  S  S S  S  S S
|-----------------------------------|-------------------------------------|
|-----------------------------------|-------------------------------------|
|-----------------------------------|-------------------------------------|
|--2--x--2----3-----0--x--2----0----|--2--x--2----3-----2-----------------|
|--0--x--2----3-----0--x--2----0----|--0--x--2----3-----0--0--2-3--2--0---|
|-----------------------------------|-----------------------------------3-|
|
|  E.    e    e.    E.    e    e.      E.    e    e.    E.    e    e.
|-----------------------------------|-------------------------------------|
|-15----17---18----15----17---15----|-15----17---18----15----17---15------|
|-12----14---15----12----14---12----|-12----14---15----12----14---12------|
|-12----14---15----12----14---12----|-12----14---15----12----14---12------|
|-10----12---13----10----12---10----|-10----12---13----10----12---10------|
|-----------------------------------|-------------------------------------|


  A5    E5   F5    A5    E5   D5      A5    E5   F5    A5
      PM   PM    PM    PM   PM    PM      PM   PM    PM
   E  S  S S  E  S  E  S  S S  E  S    E  S  S S  E  S  E  S  S S  S  S S
|-----------------------------------|--------------------------------------|
|-----------------------------------|--------------------------------------|
|--------4----5-----------4----2----|--------4----5------------------------|
|--2--x--2-x--3--x--2--x--2-x--0--x-|--2--x--2-x--3--x--2------------------|
|--0--x----x-----x--0--x----x-----x-|--0--x----x-----x--0--3--2-3--2-------|
|-----------------------------------|---------------------------------3-0--|
|
|  E  S  E    E.    E  S  E    E.      E  S  E    E.    E  S  S S  S  S S
|-----------------------------------|--------------------------------------|
|-----------------------------------|--------------------------------------|
|-----------------------------------|--------------------------------------|
|--2--x--2----3-----0--x--2----0----|--2--x--2----3-----2------------------|
|--0--x--2----3-----0--x--2----0----|--0--x--2----3-----0--3--2-3--2-------|
|-----------------------------------|---------------------------------3-0--|
|
|  E.    e    e.    E.    e    e.      E.    e    e.    E.    e    e.
|-----------------------------------|--------------------------------------|
|-15----17---18----15----17---15----|-15----17---18----15----17---15-------|
|-12----14---15----12----14---12----|-12----14---15----12----14---12-------|
|-12----14---15----12----14---12----|-12----14---15----12----14---12-------|
|-10----12---13----10----12---10----|-10----12---13----10----12---10-------|
|-----------------------------------|--------------------------------------|


 Pre-Chorus
  F5          G5   C5   B5 G5   F5          G5   E5
  H    H      H      E. E. E    H    H      H    H
|-----------|-----------------|-----------|-----------|
|-----------|-----------------|-----------|-----------|
|-----------|-----------------|-----------|-----------|
|-3---------|-5----/10--9--5--|-3---------|-5----2----|
|-3----3----|-5----/10--9--5--|-3----3----|-5----2----|
|-1----1----|-3-----/8--7--3--|-1----1----|-3----0----|
|
| H    H      H      E. E. E    H    H      H    H
|-----------|-----------------|-----------|-----------|
|-----------|-----------------|-----------|-----------|
|-----------|-----------------|-----------|-----------|
|-3---------|-5----/10--9--5--|-3---------|-5----2----|
|-3----3----|-5----/10--9--5--|-3----3----|-5----2----|
|-1----1----|-3-----/8--7--3--|-1----1----|-3----0----|
|
| W           W                 W           W
|-----------|-----------------|-----------|-----------|
|-----------|-----------------|-----------|-----------|
|-----------|-----------------|-----------|-----------|
|-----------|-----------------|-----------|-----------|
|-----------|-----------------|-----------|-----------|
|-----------|-----------------|-----------|-----------|


 Chorus
  A5                                 G5
     PM|   PM----|   PM--|   PM--|      PM|   PM----|   PM--|   PM--|
   S S S S S S S S S S S S S S S S    S S S S S S S S S S S S S S S S
|----------------------------------|----------------------------------|
|----------------------------------|----------------------------------|
|--2-----2---------2-------2-------|----------------------------------|
|--2---2-2---2-2-2-2---2-2-2---2-2-|--5-----5---------5-------5-------|
|--0-0-0-0-0-0-0-0-0-0-0-0-0-0-0-0-|--5---5-5---5-5-5-5---5-5-5---5-5-|
|----------------------------------|--3-3-3-3-3-3-3-3-3-3-3-3-3-3-3-3-|
|
|    PM|   PM----|   PM--|   PM--|      PM|   PM----|   PM--|   PM--|
|  S S S S S S S S S S S S S S S S    S S S S S S S S S S S S S S S S
|----------------------------------|----------------------------------|
|----------------------------------|----------------------------------|
|--2-----2---------2-------2-------|----------------------------------|
|--2---2-2---2-2-2-2---2-2-2---2-2-|--5-----5---------5-------5-------|
|--0-0-0-0-0-0-0-0-0-0-0-0-0-0-0-0-|--5---5-5---5-5-5-5---5-5-5---5-5-|
|----------------------------------|--3-3-3-3-3-3-3-3-3-3-3-3-3-3-3-3-|
|
|  W                                  W
|----------------------------------|----------------------------------|
|-17-------------------------------|-15-------------------------------|
|-14-------------------------------|-12-------------------------------|
|-14-------------------------------|-12-------------------------------|
|-12-------------------------------|-10-------------------------------|
|----------------------------------|----------------------------------|


  D5                                 F5            G5
     PM|   PM----|   PM--|   PM--|      PM            PM
   S S S S S S S S S S S S S S S S    E S  Q   +S   E S  Q   +S
|----------------------------------|------------------------------|
|----------------------------------|------------------------------|
|--7-----7---------7-------7-------|------------------------------|
|--7---7-7---7-7-7-7---7-7-7---7-7-|-10-x-10--(10)-12-x-12--(12)--|
|--5-5-5-5-5-5-5-5-5-5-5-5-5-5-5-5-|--8-x--8---(8)-10-x-10--(10)--|
|----------------------------------|------------------------------|
|
|    PM|   PM----|   PM--|   PM--|      PM            PM
|  S S S S S S S S S S S S S S S S    E S  Q   +S   E S  Q   +S
|----------------------------------|------------------------------|
|----------------------------------|------------------------------|
|--7-----7---------7-------7-------|------------------------------|
|--7---7-7---7-7-7-7---7-7-7---7-7-|-10-x-10--(10)-12-x-12--(12)--|
|--5-5-5-5-5-5-5-5-5-5-5-5-5-5-5-5-|--8-x--8---(8)-10-x-10--(10)--|
|----------------------------------|------------------------------|
|
|  W                                  H             H
|----------------------------------|------------------------------|
|----------------------------------|------------------------------|
|-14-------------------------------|-17------------19-------------|
|-12-------------------------------|-15------------17-------------|
|-12-------------------------------|-15------------17-------------|
|-10-------------------------------|-13------------15-------------|


  A5                                 G5
     PM|   PM----|   PM--|   PM--|      PM|   PM----|   PM--|   PM--|
   S S S S S S S S S S S S S S S S    S S S S S S S S S S S S S S S S
|----------------------------------|----------------------------------|
|----------------------------------|----------------------------------|
|--2-----2---------2-------2-------|----------------------------------|
|--2---2-2---2-2-2-2---2-2-2---2-2-|--5-----5---------5-------5-------|
|--0-0-0-0-0-0-0-0-0-0-0-0-0-0-0-0-|--5---5-5---5-5-5-5---5-5-5---5-5-|
|----------------------------------|--3-3-3-3-3-3-3-3-3-3-3-3-3-3-3-3-|
|
|    PM|   PM----|   PM--|   PM--|      PM|   PM----|   PM--|   PM--|
|  S S S S S S S S S S S S S S S S    S S S S S S S S S S S S S S S S
|----------------------------------|----------------------------------|
|----------------------------------|----------------------------------|
|--2-----2---------2-------2-------|----------------------------------|
|--2---2-2---2-2-2-2---2-2-2---2-2-|--5-----5---------5-------5-------|
|--0-0-0-0-0-0-0-0-0-0-0-0-0-0-0-0-|--5---5-5---5-5-5-5---5-5-5---5-5-|
|----------------------------------|--3-3-3-3-3-3-3-3-3-3-3-3-3-3-3-3-|
|
|  W                                  W
|----------------------------------|----------------------------------|
|-17-------------------------------|-15-------------------------------|
|-14-------------------------------|-12-------------------------------|
|-14-------------------------------|-12-------------------------------|
|-12-------------------------------|-10-------------------------------|
|----------------------------------|----------------------------------|


  F5          G5    E5
   W           H     H
|-----------|-------------|
|-----------|-------------|
|-----------|-------------|
|--3--------|-/5-----2----|
|--3--------|-/5-----2----|
|--1--------|-/3-----0----|
|
|  W           H     H
|-----------|-------------|
|-----------|-------------|
|-----------|-------------|
|--3--------|-/5-----2----|
|--3--------|-/5-----2----|
|--1--------|-/3-----0----|
|
|  W           H     H
|-----------|-------------|
|-----------|-15----------|
|-17--------|-12----16----|
|-15--------|-12----14----|
|-15--------|-10----14----|
|-13--------|-------12----|


 Bridge
  A5                 C5    D5         A5                   E5    D5    C5
                         PM                                    PM    PM
   S Q.            S  E  S  Q   +S      S  Q.            S  E  S  E  S  E
|-----------------------------------|--------------------------------------|
|-----------------------------------|--------------------------------------|
|--2------------------5--x--7---(7)-|---2-------------------9--x--7--x--5--|
|--2------------------5--x--7---(7)-|---2-------------------9--x--7--x--5--|
|--0------------------3--x--5---(5)-|---0-------------------7--x--5--x--3--|
|-----------------------------------|--------------------------------------|
|
|    PM------------|     PM                PM------------|     PM    PM
|  S S  S  S S S S S  E  S  Q   +S      S  S  S  S S S S S  E  S  E  S  E
|-----------------------------------|--------------------------------------|
|-----------------------------------|--------------------------------------|
|--2------------------5--x--7---(7)-|-----------------------9--x--7--x--5--|
|--2------------------5--x--7---(7)-|---2-------------------9--x--7--x--5--|
|--0-0--3--0-2-2-0-0--3--x--5---(5)-|---0--0--3--0-2-2-0-0--7--x--5--x--3--|
|-----------------------------------|--------------------------------------|
|
|  E    Q.            E.    Q   +S     +E     Q.            E.    E.    E
|-15-----------------15----17--(17)-|-(17)-----------------19----17----15--|
|-13-----------------13----15--(15)-|-(15)-----------------17----15----13--|
|-12-----------------12----14--(14)-|-(14)-----------------16----14----12--|
|-10-----------------10----12--(12)-|-(12)-----------------14----12----10--|
|-----------------------------------|--------------------------------------|
|-----------------------------------|--------------------------------------|


  A5                 C5    D5         F5    G5
                         PM
   S Q.            S  E  S  Q   +S     H     H
|-----------------------------------|-------------|
|-----------------------------------|-------------|
|--2------------------5--x--7---(7)-|-10----12----|
|--2------------------5--x--7---(7)-|-10----12----|
|--0------------------3--x--5---(5)-|--8----10----|
|-----------------------------------|-------------|
|
|    PM------------|     PM
|  S S  S  S S S S S  E  S  Q   +S     H     H
|-----------------------------------|-------------|
|-----------------------------------|-------------|
|--2------------------5--x--7---(7)-|-10----12----|
|--2------------------5--x--7---(7)-|-10----12----|
|--0-0--3--0-2-2-0-0--3--x--5---(5)-|--8----10----|
|-----------------------------------|-------------|
|
|  E    Q.            E.    Q   +S     H     H
|-15-----------------15----17--(17)-|-------------|
|-13-----------------13----15--(15)-|-------------|
|-12-----------------12----14--(14)-|-17----19----|
|-10-----------------10----12--(12)-|-15----17----|
|-----------------------------------|-15----17----|
|-----------------------------------|-13----15----|


 Guitar Solo
  A5
       PM|      PM------|       PM--|   PM--|
    S  S  S  S  S  S  S  S    S S S S S S S  S
|-------------------------------------------------|
|-------------------------------------------------|
|---2--------2----------------2-------2-----------|
|---2-----2--2-----2--2--2----2---2-2-2---2--2----|
|---0--0--0--0--0--0--0--0----0-0-0-0-0-0-0--0----|
|-------------------------------------------------|
|
|   S  S  S  S  S  S  S  H                   T  T
|-------------------------------------------------|
|--------------12-13-15-15b17---------------15p13-|
|-/12----12-14------------------------------------|
|-----14------------------------------------------|
|-------------------------------------------------|
|-------------------------------------------------|
|
|   W
|-------------------------------------------------|
|--17---------------------------------------------|
|--14---------------------------------------------|
|--14---------------------------------------------|
|--12---------------------------------------------|
|-------------------------------------------------|


  G5
     PM|   PM----|       PM---|      PM---|
   S S S S S S S S   S   S  S  S  S  S  S  S
|---------------------------------------------|
|---------------------------------------------|
|---------------------------------------------|
|--5-----5-----------5------------5-----------|
|--5---5-5---5-5-5---5------5--5--5-----5--5--|
|--3-3-3-3-3-3-3-3---3---3--3--3--3--3--3--3--|
|
|  ~~~~~~~~~~~~~~~~~~~~~
|  H                +S   S  S  S  S  S  S  S
|-----------------------------------12-13-15--|
|-15---------------(15)-13-12-13-15-----------|
|---------------------------------------------|
|---------------------------------------------|
|---------------------------------------------|
|---------------------------------------------|
|
|  W
|---------------------------------------------|
|-15------------------------------------------|
|-12------------------------------------------|
|-12------------------------------------------|
|-10------------------------------------------|
|---------------------------------------------|


  D5
        PM|    PM------|      PM---|         PM---------|
   S    S S S  S  S  S  S  S  S  S  S  S     S     S     S
|-------------------------------------------------------------|
|-------------------------------------------------------------|
|--7--------7--------------7-----------7----------------------|
|--7------7-7-----7--7--7--7-----7--7--7-----------7-----7----|
|--5----5-5-5--5--5--5--5--5--5--5--5--5-----5-----5-----5----|
|-------------------------------------------------------------|
|
|  Q           S  S  S  S  S  S  S  S  T  T  T  T  T  T  T  T
|-15b17-------15-13-12----12----------------------------------|
|----------------------15----15-13-12-13p12h13p12-------------|
|-------------------------------------------------14p12h14p12-|
|-------------------------------------------------------------|
|-------------------------------------------------------------|
|-------------------------------------------------------------|
|
|  W
|-------------------------------------------------------------|
|-------------------------------------------------------------|
|-14----------------------------------------------------------|
|-12----------------------------------------------------------|
|-12----------------------------------------------------------|
|-10----------------------------------------------------------|


  F5                         G5
               PM                 PM
   E           S     Q   +S    E  S  Q   +S
|---------------------------------------------|
|---------------------------------------------|
|---------------------------------------------|
|-10-----------x----10--(10)--12--x-12--(12)--|
|--8-----------x-----8---(8)--10--x-10--(10)--|
|---------------------------------------------|
|
|                              ~~~~
|  T  T  T  T  Q.              H
|---------------------------------------------|
|---------------------------------------------|
|----14p12-14-14b16r=========[14]-------------|
|-14------------------------------------------|
|---------------------------------------------|
|---------------------------------------------|
|
|  H                           H
|---------------------------------------------|
|---------------------------------------------|
|-17--------------------------19--------------|
|-15--------------------------17--------------|
|-15--------------------------17--------------|
|-13--------------------------15--------------|


  A5
      PM|        PM-----|       PM---|      PM---|
   S  S   S  S   S  S S S   S   S  S  S  S  S  S  S
|---------------------------------------------------|
|---------------------------------------------------|
|--2---------2--------------2------------2----------|
|--2------2--2------2-2-2---2------2--2--2-----2--2-|
|--0--0---0--0---0--0-0-0---0---0--0--0--0--0--0--0-|
|---------------------------------------------------|
|
|         ~~~~~~~~~~
|  S  S   E      Q          S   S  S  S  S  S  S  S
|------------------------------------------12-13-15-|
|------------------------------13-12-13-15----------|
|-------[10]----------------------------------------|
|-10-12--------[12]-------/19\----------------------|
|---------------------------------------------------|
|---------------------------------------------------|
|
|  W
|---------------------------------------------------|
|-17------------------------------------------------|
|-14------------------------------------------------|
|-14------------------------------------------------|
|-12------------------------------------------------|
|---------------------------------------------------|


  G5
        PM|   PM----|     PM---------|            PM---------|
   S    S S S S S S S  S  S     S     S     S     S     S     S
|---------------------------------------------------------------|
|---------------------------------------------------------------|
|---------------------------------------------------------------|
|--5--------5----------5--------------------5-------------------|
|--5------5-5---5-5-5--5--------5-----5-----5-----------5-----5-|
|--3----3-3-3-3-3-3-3--3--3-----3-----3-----3-----3-----3-----3-|
|
|  H                   S  T  T  T  T  T  T  T  T  T  T  T  T  S
|-15b17r==============15-13p12h13p12p10h12p10----10-------------|
|---------------------------------------------13----12h13p12-10-|
|---------------------------------------------------------------|
|---------------------------------------------------------------|
|---------------------------------------------------------------|
|---------------------------------------------------------------|
|
|  W
|---------------------------------------------------------------|
|-15------------------------------------------------------------|
|-12------------------------------------------------------------|
|-12------------------------------------------------------------|
|-10------------------------------------------------------------|
|---------------------------------------------------------------|


  F5
     PM|   PM----|     PM---|      PM---|
   S S S S S S S S  S  S  S  S  S  S  S  S
|------------------------------------------|
|------------------------------------------|
|------------------------------------------|
|--3-----3----------3-----------3----------|
|--3---3-3---3-3-3--3-----3--3--3-----3--3-|
|--1-1-1-1-1-1-1-1--1--1--1--1--1--1--1--1-|
|
|  ~~
|  H                S  S  S  S  S  S  S  S
|------------------------------------------|
|---------------------------13----12-13-15-|
|-14------------------12-14----14----------|
|------------------14----------------------|
|------------------------------------------|
|------------------------------------------|
|
|  W
|------------------------------------------|
|------------------------------------------|
|-17---------------------------------------|
|-15---------------------------------------|
|-15---------------------------------------|
|-13---------------------------------------|


  G5
        PM|   PM----|     PM--|   PM--|
   S    S S S S S S S  S  S S S S S S S
|---------------------------------------|
|---------------------------------------|
|---------------------------------------|
|--5--------5----------5--------5-------|
|--5------5-5---5-5-5--5----5-5-5---5-5-|
|--3----3-3-3-3-3-3-3--3--3-3-3-3-3-3-3-|
|
|                      ~~~
|  H                   Q.           E
|---------------------------------------|
|-15b17---------------15----------------|
|---------------------------------------|
|---------------------------------------|
|---------------------------------------|
|---------------------------------------|
|
|  W
|---------------------------------------|
|-15------------------------------------|
|-12------------------------------------|
|-12------------------------------------|
|-10------------------------------------|
|---------------------------------------|


  F5     G5             A5
                              PM|         PM----|   PM---|      PM---|
    H     H              S    S   S     S S S S S S S  S  S  S  S  S  S
|---------------------|-------------------------------------------------|
|---------------------|-------------------------------------------------|
|---------------------|--2--------------2---------2----------2----------|
|---3-----5-----------|--2--------2-----2---2-2-2-2----2--2--2-----2--2-|
|---3-----5-----------|--0----0---0-----0-0-0-0-0-0-0--0--0--0--0--0--0-|
|---1-----3-----------|-------------------------------------------------|
|
|   H     Q      +Q      E       +H                    S  S  S  S  S  S
|---------------------|-15b17r==(15)b17r==============15-13-12----------|
|--------15b17r=(15)--|----------------------------------------15-13----|
|-/14-----------------|----------------------------------------------14-|
|---------------------|-------------------------------------------------|
|---------------------|-------------------------------------------------|
|---------------------|-------------------------------------------------|
|
|   H     H              W
|---------------------|-------------------------------------------------|
|--------15-----------|-17----------------------------------------------|
|--17----12-----------|-14----------------------------------------------|
|--15----12-----------|-14----------------------------------------------|
|--15----10-----------|-12----------------------------------------------|
|--13-----------------|-------------------------------------------------|


  F5    G5       E5
                   <
                   PM---------------------------|
   H      H        S  S S S   S  S S S   S  S S S   S S S S
|--------------|--------------------------------------------|
|--------------|--------------------------------------------|
|--------------|--------------------------------------------|
|--3------5----|---2--2-2-2---2--2-2-2---2--2-2-2---2-2-2-2-|
|--3------5----|---2--2-2-2---2--2-2-2---2--2-2-2---2-2-2-2-|
|--1------3----|---0--0-0-0---0--0-0-0---0--0-0-0---0-0-0-0-|
|
|  ~~~~~~~~~~~~~~~~~~~        ~~~~       ~~~~       ~~~
|  H      H        E.     S   E.     S   E.     S   Q
|--------------|--------------------------------------------|
|--------------|--------------------------------------------|
|--------------|-/16--------/17--------/19--------/21-------|
|-15----/17----|--------------------------------------------|
|--------------|--------------------------------------------|
|--------------|--------------------------------------------|
|
|  H      H        W
|--------------|--------------------------------------------|
|--------15----|--------------------------------------------|
|-17-----12----|--16----------------------------------------|
|-15-----12----|--14----------------------------------------|
|-15-----10----|--14----------------------------------------|
|-13-----------|--12----------------------------------------|


 Out-Chorus
  A5                                   G5
       PM|   PM----|   PM--|   PM--|        PM|   PM----|   PM--|   PM--|
    S  S S S S S S S S S S S S S S S     S  S S S S S S S S S S S S S S S
|------------------------------------|------------------------------------|
|------------------------------------|------------------------------------|
|---2------2---------2-------2-------|------------------------------------|
|---2----2-2---2-2-2-2---2-2-2---2-2-|---5------5---------5-------5-------|
|---0--0-0-0-0-0-0-0-0-0-0-0-0-0-0-0-|---5----5-5---5-5-5-5---5-5-5---5-5-|
|------------------------------------|---3--3-3-3-3-3-3-3-3-3-3-3-3-3-3-3-|
|
|   >
|   ~~~~
|  +W                                   +W
|------------------------------------|------------------------------------|
|------------------------------------|------------------------------------|
|-(21)-------------------------------|-(21)-------------------------------|
|------------------------------------|------------------------------------|
|------------------------------------|------------------------------------|
|------------------------------------|------------------------------------|
|
|   W                                    W
|------------------------------------|------------------------------------|
|--17--------------------------------|--15--------------------------------|
|--14--------------------------------|--12--------------------------------|
|--14--------------------------------|--12--------------------------------|
|--12--------------------------------|--10--------------------------------|
|------------------------------------|------------------------------------|


  D5                                 F5            G5
     PM|   PM----|   PM--|   PM--|      PM            PM
   S S S S S S S S S S S S S S S S    E S  Q   +S   E S  Q   +S
|----------------------------------|------------------------------|
|----------------------------------|------------------------------|
|--7-----7---------7-------7-------|------------------------------|
|--7---7-7---7-7-7-7---7-7-7---7-7-|-10-x-10--(10)-12-x-12--(12)--|
|--5-5-5-5-5-5-5-5-5-5-5-5-5-5-5-5-|--8-x--8---(8)-10-x-10--(10)--|
|----------------------------------|------------------------------|
|
|    PM|   PM----|   PM--|   PM--|      PM            PM
|  S S S S S S S S S S S S S S S S    E S  Q   +S   E S  Q   +S
|----------------------------------|------------------------------|
|----------------------------------|------------------------------|
|--7-----7---------7-------7-------|------------------------------|
|--7---7-7---7-7-7-7---7-7-7---7-7-|-10-x-10--(10)-12-x-12--(12)--|
|--5-5-5-5-5-5-5-5-5-5-5-5-5-5-5-5-|--8-x--8---(8)-10-x-10--(10)--|
|----------------------------------|------------------------------|
|
|  W                                  H             H
|----------------------------------|------------------------------|
|----------------------------------|------------------------------|
|-14-------------------------------|-17------------19-------------|
|-12-------------------------------|-15------------17-------------|
|-12-------------------------------|-15------------17-------------|
|-10-------------------------------|-13------------15-------------|


  A5                                 G5
     PM|   PM----|   PM--|   PM--|      PM|   PM----|   PM--|   PM--|
   S S S S S S S S S S S S S S S S    S S S S S S S S S S S S S S S S
|----------------------------------|----------------------------------|
|----------------------------------|----------------------------------|
|--2-----2---------2-------2-------|----------------------------------|
|--2---2-2---2-2-2-2---2-2-2---2-2-|--5-----5---------5-------5-------|
|--0-0-0-0-0-0-0-0-0-0-0-0-0-0-0-0-|--5---5-5---5-5-5-5---5-5-5---5-5-|
|----------------------------------|--3-3-3-3-3-3-3-3-3-3-3-3-3-3-3-3-|
|
|    PM|   PM----|   PM--|   PM--|      PM|   PM----|   PM--|   PM--|
|  S S S S S S S S S S S S S S S S    S S S S S S S S S S S S S S S S
|----------------------------------|----------------------------------|
|----------------------------------|----------------------------------|
|--2-----2---------2-------2-------|----------------------------------|
|--2---2-2---2-2-2-2---2-2-2---2-2-|--5-----5---------5-------5-------|
|--0-0-0-0-0-0-0-0-0-0-0-0-0-0-0-0-|--5---5-5---5-5-5-5---5-5-5---5-5-|
|----------------------------------|--3-3-3-3-3-3-3-3-3-3-3-3-3-3-3-3-|
|
|  W                                  W
|----------------------------------|----------------------------------|
|-17-------------------------------|-15-------------------------------|
|-14-------------------------------|-12-------------------------------|
|-14-------------------------------|-12-------------------------------|
|-12-------------------------------|-10-------------------------------|
|----------------------------------|----------------------------------|


 Outro
  F5          G5
   W           W
|-----------|------------------------|
|-----------|------------------------|
|-----------|------------------------|
|--3--------|--5---------------------|
|--3--------|--5---------------------|
|--1--------|--3---------------------|
|
|  W           H    E  S S S  S S  S
|-----------|------------------------|
|-----------|------------------------|
|-----------|------------------------|
|-----------|---------10-9-7---------|
|--3--------|----------------10-7-10-|
|--1--------|------------------------|
|
|  W           W
|-----------|------------------------|
|-----------|-15---------------------|
|-17--------|-12---------------------|
|-15--------|-12---------------------|
|-15--------|-10---------------------|
|-13--------|------------------------|


  A5                               G5
   W                                W
|--------------------------------|---------------------------------|
|--------------------------------|---------------------------------|
|--------------------------------|---------------------------------|
|--7-----------------------------|--5------------------------------|
|--7-----------------------------|--5------------------------------|
|--5-----------------------------|--3------------------------------|
|
|  Q   S S  S  E.  S S S  S S  S    Q   S S  S  E.  S S S  S S  S
|--------------------------------|---------------------------------|
|--------------------------------|---------------------------------|
|--------------------------------|---------------------------------|
|-/7----------/7--10-9-7---------|-/7----------/7--10-9-7----------|
|-----10-7-10------------10-7-10-|-----10-7-10------------10-7-10--|
|--------------------------------|---------------------------------|
|
|  W                                W
|--------------------------------|---------------------------------|
|-17-----------------------------|-15------------------------------|
|-14-----------------------------|-12------------------------------|
|-14-----------------------------|-12------------------------------|
|-12-----------------------------|-10------------------------------|
|--------------------------------|---------------------------------|


  D5                               F5                G5
   W                                H                 H
|--------------------------------|--------------------------------------|
|--------------------------------|--------------------------------------|
|--7-----------------------------|-10----------------12-----------------|
|--7-----------------------------|-10----------------12-----------------|
|--5-----------------------------|--8----------------10-----------------|
|--------------------------------|--------------------------------------|
|
|  Q   S S  S  E.  S S S  S S  S    E  S S S  S S  S  E  S S S  S S  S
|--------------------------------|--------------------------------------|
|--------------------------------|--------------------------------------|
|--------------------------------|--------------------------------------|
|-/7----------/7--10-9-7---------|-/7-10-9-7---------/7-10-9-7----------|
|-----10-7-10------------10-7-10-|-----------10-7-10-----------10-7-10--|
|--------------------------------|--------------------------------------|
|
|  W                                H                 H
|--------------------------------|--------------------------------------|
|--------------------------------|--------------------------------------|
|-14-----------------------------|-17----------------19-----------------|
|-12-----------------------------|-15----------------17-----------------|
|-12-----------------------------|-15----------------17-----------------|
|-10-----------------------------|-13----------------15-----------------|


  A5                               G5
   W                                W
|--------------------------------|--------------------------------|
|--------------------------------|--------------------------------|
|--------------------------------|--------------------------------|
|--7-----------------------------|--5-----------------------------|
|--7-----------------------------|--5-----------------------------|
|--5-----------------------------|--3-----------------------------|
|
|  Q   S S  S  E.  S S S  S S  S    Q   S S  S  E.  S S S  S S  S
|--------------------------------|--------------------------------|
|--------------------------------|--------------------------------|
|--------------------------------|--------------------------------|
|-/7----------/7--10-9-7---------|-/7----------/7--10-9-7---------|
|-----10-7-10------------10-7-10-|-----10-7-10------------10-7-10-|
|--------------------------------|--------------------------------|
|
|  W                                W
|--------------------------------|--------------------------------|
|-17-----------------------------|-15-----------------------------|
|-14-----------------------------|-12-----------------------------|
|-14-----------------------------|-12-----------------------------|
|-12-----------------------------|-10-----------------------------|
|--------------------------------|--------------------------------|


  D5                               F5                G5                  A5   N.C.
   W                                H                 H                   Q   H.
|--------------------------------|-------------------------------------|------------*|
|--------------------------------|-------------------------------------|------------*|
|--7-----------------------------|-10----------------12----------------|------------*|
|--7-----------------------------|-10----------------12----------------|------------*|
|--5-----------------------------|--8----------------10----------------|--7\--------*|
|--------------------------------|-------------------------------------|--5\--------*|
|
|  Q   S S  S  E.  S S S  S S  S    E  S S S  S S  S  E  S S S  S S  S    Q   H.
|--------------------------------|-------------------------------------|------------*|
|--------------------------------|-------------------------------------|------------*|
|--------------------------------|-------------------------------------|------------*|
|-/7----------/7--10-9-7---------|-/7-10-9-7---------/7-10-9-7---------|-/7\--------*|
|-----10-7-10------------10-7-10-|-----------10-7-10-----------10-7-10-|------------*|
|--------------------------------|-------------------------------------|------------*|
|
|  W                                H                 H                   Q   H.
|--------------------------------|-------------------------------------|------------*|
|--------------------------------|-------------------------------------|------------*|
|-14-----------------------------|-17----------------19----------------|-14\--------*|
|-12-----------------------------|-15----------------17----------------|------------*|
|-12-----------------------------|-15----------------17----------------|-12\--------*|
|-10-----------------------------|-13----------------15----------------|------------*|



Duration Legend
---------------
W - whole; H - half; Q - quarter; E - 8th; S - 16th; T - 32nd; X - 64th; a - acciaccatura
+ - note tied to previous; . - note dotted; .. - note double dotted
Uncapitalized letters represent notes that are staccato (1/2 duration)
Irregular groupings are notated above the duration line
Duration letters will always appear directly above the note/fret number it represents the
duration for.  Duration letters with no fret number below them represent rests.  Multi-
bar rests are notated in the form Wxn, where n is the number of bars to rest for.  Low
melody durations appear below the staff

Tablature Legend
----------------
 h   - hammer-on
 p   - pull-off
 b   - bend
 pb  - pre-bend
 r   - bend release (if no number after the r, then release immediately)
 /\  - slide into or out of (from/to "nowhere")
 s   - legato slide
 S   - shift slide
 - natural harmonic
[n]  - artificial harmonic
n(n) - tapped harmonic
 ~   - vibrato
 tr  - trill
 T   - tap
 TP  - trem. picking
 PM  - palm muting
\n/  - tremolo bar dip; n = amount to dip
 \n  - tremolo bar down
 n/  - tremolo bar up
/n\  - tremolo bar inverted dip
 =   - hold bend; also acts as connecting device for hammers/pulls
 <> - volume swell (louder/softer)
 x   - on rhythm slash represents muted slash
 o   - on rhythm slash represents single note slash

Misc Legend
-----------
 |  - bar
||  - double bar
||o - repeat start
o|| - repeat end
*|  - double bar (ending)
 :  - bar (freetime)
 $  - Segno
 &  - Coda
Tempo markers -  = BPM(8/16=s8/s16), where s8 = swing 8ths, s16 = swing 16ths

comments
We did not receive enough feedback on this tab! Please rate:
print report bad tab
1 2 3 4 5
I want to post or [tab]
guest
You may want to rate the tab now too:
select rating
Please do not post tabs as comments. Select "correction" instead!