Oops, an error
Loading. Please wait.

Septima Estrella Tab

ver1
ver1

Whole song

Interactive

More versions @911Tabs.com
624 views 1 this week
no commentswrite comment
1 2 3 4 5
please rate
Autoscroll
+/-
esc
set tempo
stop
Contributor
Hey! There's an official Ultimate Guitar app which is ideal
for learning songs when you're away from computer. Get the app
WARNING: You are trying to view
                                    content from Ultimate-Guitar.com
                                    in an unauthorized application,
                                    which is prohibited.

                                    Please use an official Ultimate
                                    Guitar Tabs application for iPhone,
                                    iPad or Android to access legitimate
                                    chords, guitar, bass, and drum tabs
                                    from Ultimate-Guitar.com database.

                                    Type "ultimate guitar tabs" in Apple
                                    App Store's or Android Market's
                                    search to find the application.
#----------------------------------PLEASE NOTE---------------------------------#
#This file is the author's own work and represents their interpretation of the #
#song. You may only use this file for private study, scholarship, or research. #
#------------------------------------------------------------------------------#

SEPTIMA ESTRELLA
As recorded by Tierra Santa
(From the 1999 Album "LEGENDARIO")

Transcribed by Israel Velasco
	

Words and Music by Tierra Santa

A5
x 0 2 2 x x
	
C5
x 3 5 x x x
	
G5
3 5 x x x x
	
F5
1 3 x x x x

E5
0 2 x x x x
	
D5
x 5 7 x x x
	
E5VII
x 7 9 x x x
	
D5X
10 12 x x x x

Bb5
6 8 x x x x
	
C5VIII
8 10 x x x x

Gtr I (E A D G B E) - 'Guitar 1'
Gtr II (E A D G B E) - 'Guitar 2'

 Intro
  Fast Rock Q=120
             N.C.
 4/4
  Gtr I
             PM--------------------------|
  W          E S S S S S S S S S S S S S S
|----------|-------------------------------|
|----------|-------------------------------|
|----------|-------------------------------|
|----------|-----7-5-7-8-7-5-7-5---5-------|
|----------|-5-5-----------------8---8-7---|
|----------|-----------------------------8-|


  N.C.                            N.C.
  PM----------------------------------------------------------|
  E S S S S S S S S S S S S S S   E S S S S S S S S S S S S S S
|-------------------------------|--------------------------------|
|-------------------------------|--------------------------------|
|-------------------------------|--------------------------------|
|-----7-5-7-8-7-5-7-5---5-------|-----------5--------------------|
|-5-5-----------------8---8-7---|-----8-7-8---8-7-8-7-5-7-5------|
|-----------------------------8-|-6-6-----------------------8-6--|


  N.C.                            N.C.
  PM----------------------------------------------------------|
  E S S S S S S S S S S S S S S   E S S S S S S S S S S S S S S
|-------------------------------|--------------------------------|
|-------------------------------|--------------------------------|
|-------------------------------|--------------------------------|
|-----------5-------------------|-----7-5-7-8-7-5-7-5---5--------|
|-----5-7-8---8-7-5-------5-7---|-5-5-----------------8---8-7----|
|-8-8---------------8-6-8-----8-|-----------------------------8--|


  N.C.                            N.C.
  PM----------------------------------------------------------|
  E S S S S S S S S S S S S S S   E S S S S S S S S S S S S S S
|-------------------------------|--------------------------------|
|-------------------------------|--------------------------------|
|-------------------------------|--------------------------------|
|-----7-5-7-8-7-5-7-5---5-------|-----------5--------------------|
|-5-5-----------------8---8-7---|-----8-7-8---8-7-8-7-5-7-5------|
|-----------------------------8-|-6-6-----------------------8-6--|


  N.C.                            N.C.
  PM----------------------------------------------------|
  E S S S S S S S S S S S S S S   E S S S S S S E S S S S E
|-------------------------------|---------------------------|
|-------------------------------|---------------------------|
|-------------------------------|---------------------------|
|-----------5-------------------|---------------------------|
|-----5-7-8---8-7-5-------5-7---|-5-5-7-8-7-5---5-5-7-8-5---|
|-8-8---------------8-6-8-----8-|-------------8-------------|
|
| Gtr II
|                                 PM--------------------|
| W                               E S S S S S S E S S S S E
|-------------------------------|---------------------------|
|-------------------------------|---------------------------|
|-------------------------------|---------------------------|
|-------------------------------|---------------------------|
|-------------------------------|-5-5-7-8-7-5---5-5-7-8-5---|
|-------------------------------|-------------8-------------|


  N.C.                          N.C.
  PM-----------------------------------------------------|
  E S S S S S S E S S S S S S   E S S  S S S  S E S S  S S E
|-----------------------------|------------------------------|
|-----------------------------|------------------------------|
|-----------------------------|------------------------------|
|-----------------------------|------------------------------|
|-5-5-7-8-7-5---------5-7-5---|-5-5-7--8-7-5----5-5-7--8-5---|
|-------------8-6-6-8-------8-|---------------8--------------|
|
| E S S S S S S E S S S S S S   E S S  S S S  S E S S  S S E
|-----------------------------|------------------------------|
|-----------------------------|------------------------------|
|-----------------------------|-7-7-9-10-9-7----7-7-9-10-7---|
|-----------------------------|--------------10--------------|
|-5-5-7-8-7-5---------5-7-5---|------------------------------|
|-------------8-6-6-8-------8-|------------------------------|


                                    Verse
  N.C.                               A5
  PM---------------------------|       PM------------------------|
  E S S  S S S  S E S  S S S S  S    E S S S S S S S S S S S S S S
|---------------------------------||-------------------------------|
|---------------------------------||-------------------------------|
|---------------------------------||-------------------------------|
|---------------------------------||-2-----------------------------|
|-5-5-7--8-7-5-----------5-7-5----||-0-0-0-0-0-0-0-0-0-0-0-0-0-0-0-|
|---------------8-6-6--8--------8-||-------------------------------|
|
|                                      PM------------------------|
| E S S  S S S  S E S  S S S S  S    E S S S S S S S S S S S S S S
|---------------------------------||-------------------------------|
|---------------------------------||-------------------------------|
|-7-7-9-10-9-7-----------7-9-7----||-------------------------------|
|--------------10-8-8-10-------10-||-2-----------------------------|
|---------------------------------||-0-0-0-0-0-0-0-0-0-0-0-0-0-0-0-|
|---------------------------------||-------------------------------|


  C5            G5              A5
    PM--------|   PM--------|     PM------------------------|
  E S S S S S S E S S S S S S   E S S S S S S S S S S S S S S
|-----------------------------|-------------------------------|
|-----------------------------|-------------------------------|
|-----------------------------|-------------------------------|
|-5---------------------------|-2-----------------------------|
|-3-3-3-3-3-3-3-5-------------|-0-0-0-0-0-0-0-0-0-0-0-0-0-0-0-|
|---------------3-3-3-3-3-3-3-|-------------------------------|
|
|   PM--------|   PM--------|     PM------------------------|
| E S S S S S S E S S S S S S   E S S S S S S S S S S S S S S
|-----------------------------|-------------------------------|
|-----------------------------|-------------------------------|
|-----------------------------|-------------------------------|
|-5---------------------------|-2-----------------------------|
|-3-3-3-3-3-3-3-5-------------|-0-0-0-0-0-0-0-0-0-0-0-0-0-0-0-|
|---------------3-3-3-3-3-3-3-|-------------------------------|


  C5            G5              F5
  Gtrs I, II
    PM--------|                   PM------------------------|
  E S S S S S S E S S S S S S   E S S S S S S S S S S S S S S
|-----------------------------|-------------------------------|
|-----------------------------|-------------------------------|
|-----------------------------|-------------------------------|
|-5---------------------------|-------------------------------|
|-3-3-3-3-3-3-3-5-0-2-3-2-0---|-3-----------------------------|
|---------------3-----------3-|-1-1-1-1-1-1-1-1-1-1-1-1-1-1-1-|


  E5                              F5
    PM------------------------|     PM------------------------|
  E S S S S S S S S S S S S S S   E S S S S S S S S S S S S S S
|-------------------------------|--------------------------------|
|-------------------------------|--------------------------------|
|-------------------------------|--------------------------------|
|-------------------------------|--------------------------------|
|-2-----------------------------|-3------------------------------|
|-0-0-0-0-0-0-0-0-0-0-0-0-0-0-0-|-1-1-1-1-1-1-1-1-1-1-1-1-1-1-1--|


  G5            E5              A5
    PM--------|   PM--------|     PM------------------------|
  E S S S S S S E S S S S S S   E S S S S S S S S S S S S S S
|-----------------------------|-------------------------------|
|-----------------------------|-------------------------------|
|-----------------------------|-------------------------------|
|-----------------------------|-2-----------------------------|
|-5-------------2-------------|-0-0-0-0-0-0-0-0-0-0-0-0-0-0-0-|
|-3-3-3-3-3-3-3-0-0-0-0-0-0-0-|-------------------------------|


  G5            F5              A5
    PM--------|                   PM------------------------|
  E S S S S S S E S S S S S S   E S S S S S S S S S S S S S S
|-----------------------------|-------------------------------|
|-----------------------------|-------------------------------|
|-----------------------------|-------------------------------|
|-----------------------------|-2-----------------------------|
|-5-------------3-0-2-3-2-0---|-0-0-0-0-0-0-0-0-0-0-0-0-0-0-0-|
|-3-3-3-3-3-3-3-1-----------3-|-------------------------------|


  F5            C5  G5    A5
    PM--------|             PM------------------------|
  E S S S S S S E E E E   E S S S S S S S S S S S S S S
|-----------------------|--------------------------------|
|-----------------------|--------------------------------|
|-----------------------|--------------------------------|
|---------------5-x-----|-2------------------------------|
|-3-------------3-x-5-x-|-0-0-0-0-0-0-0-0-0-0-0-0-0-0-0--|
|-1-1-1-1-1-1-1-----3-x-|--------------------------------|


  G5            F5              C5
    PM--------|                   PM------------------------|
  E S S S S S S E S S S S S S   E S S S S S S S S S S S S S S
|-----------------------------|-------------------------------|
|-----------------------------|-------------------------------|
|-----------------------------|-------------------------------|
|-----------------------------|-5-----------------------------|
|-5-------------3-0-2-3-2-0---|-3-3-3-3-3-3-3-3-3-3-3-3-3-3-3-|
|-3-3-3-3-3-3-3-1-----------3-|-------------------------------|


  D5            E5VII
  E S S S S S S E S S S S S S   S S S S S S S S S S S S S S S S
|-----------------------------|----------------------------------|
|-----------------------------|----------------------------------|
|-----------------------------|----------------------------------|
|-7-7-7-7-7-7-7-9-9-9-9-9-9-9-|-9-9-9-9-9-9-9-9-9-9-9-9-9-9-9-9--|
|-5-5-5-5-5-5-5-7-7-7-7-7-7-7-|-7-7-7-7-7-7-7-7-7-7-7-7-7-7-7-7--|
|-----------------------------|----------------------------------|


 Bridge
  A5
  Gtr I
     PM------------------------------------------------------------|
  E  S S S  S S S  S S S  S S S S  S   S S  S S S  S S S  S S S  S S E.
|------------------------------------|----------------------------------|
|------------------------------------|----------------------------------|
|------------------------------------|----------------------------------|
|-2----------------------------------|-------------------------------2--|
|-0--0-0-0--0-0-0--0-0-0--0-0-0-0--0-|-0-0--0-0-0--0-0-0--0-0-0--0-0-0--|
|------------------------------------|----------------------------------|
|
| Gtr II
| E  S S S  S S S  S S S  S S S S  S   S S  S S S  S S S  S S S  S S E.
|------------------------------------|----------------------------------|
|------------------------------------|----------------------------------|
|--------------------7------7-9-7----|----------------------7------7-9--|
|-7----7-9-10-7-9-10---9-10-------10-|-9-7----7-9-10-7-9-10---9-10------|
|---10-------------------------------|-----10---------------------------|
|------------------------------------|----------------------------------|


  A5                                   C5                 G5
     PM---------------------------|         PM---------|       PM-----|
  E  S S S  S S S  S S S  S S S S  S   E    S S  S S S  S E    S S  S E S
|------------------------------------|-------------------------------------|
|------------------------------------|-------------------------------------|
|------------------------------------|-------------------------------------|
|-2----------------------------------|-5-----------------------------------|
|-0--0-0-0--0-0-0--0-0-0--0-0-0-0--0-|-3----3-3--3-3-3--3-5----------------|
|------------------------------------|--------------------3----3-3--3-3----|
|
| E  S S S  S S S  S S S  S S S S  S   S  S S S  S S S  S S S  S S  S E S
|------------------------------------|-------------------------------------|
|------------------------------------|-------------------------------------|
|--------------------7------7-9-7----|---10-9-7----9-7------7--------------|
|-7----7-9-10-7-9-10---9-10-------10-|-9--------10-----10-9---10-9----7----|
|---10-------------------------------|-----------------------------10------|
|------------------------------------|-------------------------------------|


  A5
     PM------------------------------------------------------------|
  E  S S S  S S S  S S S  S S S S  S   S S  S S S  S S S  S S S  S S E.
|------------------------------------|----------------------------------|
|------------------------------------|----------------------------------|
|------------------------------------|----------------------------------|
|-2----------------------------------|-------------------------------2--|
|-0--0-0-0--0-0-0--0-0-0--0-0-0-0--0-|-0-0--0-0-0--0-0-0--0-0-0--0-0-0--|
|------------------------------------|----------------------------------|
|
| E  S S S  S S S  S S S  S S S S  S   S S  S S S  S S S  S S S  S S E.
|------------------------------------|----------------------------------|
|------------------------------------|----------------------------------|
|--------------------7------7-9-7----|----------------------7------7-9--|
|-7----7-9-10-7-9-10---9-10-------10-|-9-7----7-9-10-7-9-10---9-10------|
|---10-------------------------------|-----10---------------------------|
|------------------------------------|----------------------------------|


  A5                                   C5                 G5
     PM---------------------------|         PM---------|       PM-----|
  E  S S S  S S S  S S S  S S S S  S   E    S S  S S S  S E    S S  S E S
|------------------------------------|-------------------------------------|
|------------------------------------|-------------------------------------|
|------------------------------------|-------------------------------------|
|-2----------------------------------|-5-----------------------------------|
|-0--0-0-0--0-0-0--0-0-0--0-0-0-0--0-|-3----3-3--3-3-3--3-5----------------|
|------------------------------------|--------------------3----3-3--3-3----|
|
| E  S S S  S S S  S S S  S S S S  S   S  S S S  S S S  S S S  S S  S E S
|------------------------------------|-------------------------------------|
|------------------------------------|-------------------------------------|
|--------------------7------7-9-7----|---10-9-7----9-7------7--------------|
|-7----7-9-10-7-9-10---9-10-------10-|-9--------10-----10-9---10-9----7----|
|---10-------------------------------|-----------------------------10------|
|------------------------------------|-------------------------------------|


 Guitar Solo
  A5                                   C5               G5
     PM----------------------------|      PM---------|        PM-----------|
  E  S S S S S  S S  S S S S  S  S S    E S S  S S S  S E     S S   S  S S S
|------------------------------------|----------------------------------------|
|------------------------------------|----------------------------------------|
|------------------------------------|----------------------------------------|
|-2----------------------------------|--5-------------------------------------|
|-0--0-0-0-0-0--0-0--0-0-0-0--0--0-0-|--3-3-3--3-3-3--3-5---------------------|
|------------------------------------|------------------3-----3-3---3--3-3-3--|
|
|                             ~~~                          ~~~~~~~~~~~~
| E.   E   E    E    S E   S  E.        E S S  S S S  S S  E.      +Q
|-7----8---7-------------------------|-10-8-7----8-7--------------------------|
|--------------10---10-8---8-10------|--------10-----10-8-10------(10)--------|
|------------------------------------|----------------------------------------|
|------------------------------------|----------------------------------------|
|------------------------------------|----------------------------------------|
|------------------------------------|----------------------------------------|


  A5
            PM---------------------------------------------------------------------|
   E        S    S     S    S     S    S     S    S     S    S     S    S     S    S
|---------------------------------------------------------------------------------------|
|---------------------------------------------------------------------------------------|
|---------------------------------------------------------------------------------------|
|--2------------------------------------------------------------------------------------|
|--0--------0----0-----0----0-----0----0-----0----0-----0----0-----0----0-----0----0----|
|---------------------------------------------------------------------------------------|
|
|  |--3--|  |---3---|  |---3---|  |---3---|  |---3---|  |---3---|  |---3---|  |---3---|
|  S  S  S  S  S    S  S  S    S  S  S    S  S  S    S  S  S    S  S  S    S  S  S    S
|-15-15-15-13-13---13-12-12---12--------------------------------------------------------|
|--------------------------------15-15---15-13-13---13-12-12---12-----------------------|
|-----------------------------------------------------------------14-14---14-12-12---12-|
|---------------------------------------------------------------------------------------|
|---------------------------------------------------------------------------------------|
|---------------------------------------------------------------------------------------|


  C5                                        G5
            PM-------------------------|       PM--------|
   E        S    S     S    S     S    S     E S S S S S S
|----------------------------------------------------------|
|----------------------------------------------------------|
|----------------------------------------------------------|
|--5-------------------------------------------------------|
|--3--------3----3-----3----3-----3----3-----5-------------|
|--------------------------------------------3-3-3-3-3-3-3-|
|
|                                            ~~
|  |--3--|  |---3---|  |---3---|  |---3---|
|  S  S  S  S  S    S  S  S    S  S  S    S  H
|----------------------------------------------------------|
|----------------------------------------------------------|
|----------------------------------------------------------|
|-15-15-15-14-14---14-12-12---12---------------------------|
|--------------------------------15-15---15-14-------------|
|----------------------------------------------------------|


     F5
        PM--------------------------------|
      E S  S  S S  S  S S  S S  S S  S  S  S
|--------------------------------------------|
|--------------------------------------------|
|--------------------------------------------|
|--------------------------------------------|
|-----3--------------------------------------|
|-----1-1--1--1-1--1--1-1--1-1--1-1--1--1--1-|
|
|  a  E S  S  S S  S  S S  S S  S S  S  S  S
|--------------------------------------------|
|-----------------------------------------10-|
|-----------------------9-10p9----9-10-12----|
|-11h12-9-10----9-10-12--------12------------|
|------------12------------------------------|
|--------------------------------------------|


  E5
         PM--------------------------------------------|
   E     S  S    S    S    S   S   S   S   S S  S  S S S
|--------------------------------------------------------|
|--------------------------------------------------------|
|--------------------------------------------------------|
|--------------------------------------------------------|
|--2-----------------------------------------------------|
|--0-----0--0----0----0----0---0---0---0---0-0--0--0-0-0-|
|
|                                               ~~~
|           |---3---| |--3---| |--3--|
|  S  S  S  S  S    S S  S   S S S   S E.       Q
|--------------------------------------------------------|
|-12p10--------------------------------------------------|
|-------12-11h12p==11-9h11p==9-7h9p==7-7b9r====(7)-------|
|--------------------------------------------------------|
|--------------------------------------------------------|
|--------------------------------------------------------|


  F5
            PM---------------------------------------------------------------------|
   E        S    S     S    S     S    S     S    S     S    S     S    S     S    S
|---------------------------------------------------------------------------------------|
|---------------------------------------------------------------------------------------|
|---------------------------------------------------------------------------------------|
|---------------------------------------------------------------------------------------|
|--3------------------------------------------------------------------------------------|
|--1--------1----1-----1----1-----1----1-----1----1-----1----1-----1----1-----1----1----|
|
|  |--3--|  |---3---|  |---3---|  |---3---|  |---3---|  |---3---|  |---3---|  |---3---|
|  S  S  S  S  S    S  S  S    S  S  S    S  S  S    S  S  S    S  S  S    S  S  S    S
|-------------------------------------------10-10---10-12-12---12-10-10---10-12-12---12-|
|-10-10-10-13-13---13-12-12---12-13-13---13---------------------------------------------|
|---------------------------------------------------------------------------------------|
|---------------------------------------------------------------------------------------|
|---------------------------------------------------------------------------------------|
|---------------------------------------------------------------------------------------|


  G5                                        E5
            PM-------------------------|          PM--------|
   E        S    S     S    S     S    S     E    S S S S S S
|-------------------------------------------------------------|
|-------------------------------------------------------------|
|-------------------------------------------------------------|
|-------------------------------------------------------------|
|--5-----------------------------------------2----------------|
|--3--------3----3-----3----3-----3----3-----0----0-0-0-0-0-0-|
|
|                                            ~~~~~
|  |--3--|  |---3---|  |---3---|  |---3---|
|  S  S  S  S  S    S  S  S    S  S  S    S  H
|-13-13-13-12-12---12-13-13---13-15-15---15-15b17-------------|
|-------------------------------------------------------------|
|-------------------------------------------------------------|
|-------------------------------------------------------------|
|-------------------------------------------------------------|
|-------------------------------------------------------------|


  D5X                                  Bb5
   W                                   W
|------------------------------------|-----------------------------------|
|------------------------------------|-----------------------------------|
|------------------------------------|-----------------------------------|
|------------------------------------|-----------------------------------|
|-12---------------------------------|-8---------------------------------|
|-10---------------------------------|-6---------------------------------|
|
|  E S  S S S  S S S  S S S S S  S S   E S  S S S  S S S  S S S S S  S S
|------------------------------------|-----------------------------------|
|------------------8-----------------|-----------------8-----------------|
|---------7-9-10-9---10-9-7-9-7------|--------7-9-10-9---10-9-7-9-7------|
|--7-7-10-----------------------10-8-|-7-7-10-----------------------10-8-|
|------------------------------------|-----------------------------------|
|------------------------------------|-----------------------------------|


  C5VIII                               A5              Bb5      C5
   W                                   H               Q         Q
|------------------------------------|------------------------------------|
|------------------------------------|------------------------------------|
|------------------------------------|------------------------------------|
|------------------------------------|------------------------------------|
|-10---------------------------------|-7---------------8--------10--------|
|--8---------------------------------|-5---------------6---------8--------|
|
|  E S  S S S  S S S  S S S S S  S S   E S  S S S  S S S  S S S  S S  S S
|------------------------------------|------------------------------------|
|------------------8-----------------|-----------------8------------------|
|---------7-9-10-9---10-9-7-9-7------|--------7-9-10-9---10-9-7--9-7------|
|--7-7-10-----------------------10-8-|-7-7-10------------------------10-8-|
|------------------------------------|------------------------------------|
|------------------------------------|------------------------------------|


  D5                                  Bb5
  W                                   W
|-----------------------------------|-----------------------------------|
|-----------------------------------|-----------------------------------|
|-----------------------------------|-----------------------------------|
|-7---------------------------------|-----------------------------------|
|-5---------------------------------|-8---------------------------------|
|-----------------------------------|-6---------------------------------|
|
| E S  S S S  S S S  S S S S S  S S   E S  S S S  S S S  S S S S S  S S
|-----------------------------------|-----------------------------------|
|-----------------8-----------------|-----------------8-----------------|
|--------7-9-10-9---10-9-7-9-7------|--------7-9-10-9---10-9-7-9-7------|
|-7-7-10-----------------------10-8-|-7-7-10-----------------------10-8-|
|-----------------------------------|-----------------------------------|
|-----------------------------------|-----------------------------------|


  C5VIII                               A5              Bb5      C5VIII
   W                                   H               Q         Q
|------------------------------------|------------------------------------|
|------------------------------------|------------------------------------|
|------------------------------------|------------------------------------|
|------------------------------------|------------------------------------|
|-10---------------------------------|-7---------------8--------10--------|
|--8---------------------------------|-5---------------6---------8--------|
|
|  E S  S S S  S S S  S S S S S  S S   E S  S S S  S S S  S S S  S S  S S
|------------------------------------|------------------------------------|
|------------------8-----------------|-----------------8------------------|
|---------7-9-10-9---10-9-7-9-7------|--------7-9-10-9---10-9-7--9-7------|
|--7-7-10-----------------------10-8-|-7-7-10------------------------10-8-|
|------------------------------------|------------------------------------|
|------------------------------------|------------------------------------|


 Pre-Chorus
  D5X         Bb5        C5VIII      A5   Bb5C5VIII
   W          W           W          H    Q   Q
|-----------|----------|-----------|-------------|
|-----------|----------|-----------|-------------|
|-----------|----------|-----------|-------------|
|-----------|----------|-----------|-------------|
|-12--------|-8--------|-10--------|-7----8--10--|
|-10--------|-6--------|--8--------|-5----6---8--|


  D5X         Bb5        C5VIII      A5   Bb5C5VIII
   W          W           W          H    Q   Q
|-----------|----------|-----------|-------------|
|-----------|----------|-----------|-------------|
|-----------|----------|-----------|-------------|
|-----------|----------|-----------|-------------|
|-12--------|-8--------|-10--------|-7----8--10--|
|-10--------|-6--------|--8--------|-5----6---8--|


  D5X         Bb5        C5VIII      A5   Bb5C5VIII
   W          W           W          H    Q   Q
|-----------|----------|-----------|-------------|
|-----------|----------|-----------|-------------|
|-----------|----------|-----------|-------------|
|-----------|----------|-----------|-------------|
|-12--------|-8--------|-10--------|-7----8--10--|
|-10--------|-6--------|--8--------|-5----6---8--|


 Guitar Solo 2
  A5
         PM---------------------------------------|
   E     S S  S     S S S  S     S S S  S     S S S
|---------------------------------------------------|
|---------------------------------------------------|
|---------------------------------------------------|
|--7------------------------------------------------|
|--5-----5-5--5-----5-5-5--5-----5-5-5--5-----5-5-5-|
|---------------------------------------------------|
|
| Gtr II
|  Q          Q            Q            Q
|-10---------12-----------13-----------15-----------|
|-13b15======15b17========16b18========18b20========|
|---------------------------------------------------|
|---------------------------------------------------|
|---------------------------------------------------|
|---------------------------------------------------|


  F5
          PM-------------------------|
   E      S S S S S S  S S S S S S S S
|--------------------------------------|
|--------------------------------------|
|--------------------------------------|
|--3-----------------------------------|
|--1------1-1-1-1-1-1--1-1-1-1-1-1-1-1-|
|--------------------------------------|
|
|                      ~~
|  H                   H
|-17b17.5-------------17---------------|
|--------------------------------------|
|--------------------------------------|
|--------------------------------------|
|--------------------------------------|
|--------------------------------------|


  C5
            PM------------------------------------|
   E        S  S  S  S  S  S  S  S  S  S  S  S  S  S
|----------------------------------------------------|
|----------------------------------------------------|
|----------------------------------------------------|
|--5-------------------------------------------------|
|--3--------3--3--3--3--3--3--3--3--3--3--3--3--3--3-|
|----------------------------------------------------|
|
|  T  T  S  S  S  S  S  S  S  S  S  S  S  S  S  S  S
|-15h17p15----15-------------------------------------|
|----------18----18-17-15-18-17-15-------------------|
|----------------------------------17-15-14-17-15-14-|
|----------------------------------------------------|
|----------------------------------------------------|
|----------------------------------------------------|


  A5          Bb5         C5VIII      Bb5
         PM|
   E     S  S  Q           Q           Q
|--------------------------------------------------|
|--------------------------------------------------|
|--------------------------------------------------|
|--------------------------------------------------|
|--7-----------8----------10-----------8-----------|
|--5-----5--5--6-----------8-----------6-----------|
|
|  S  S  S  S  S  S  S  S  S  S  S  S  S  S  S  S
|--------------------------------------------------|
|--------------------------------------------------|
|----------------------14-15-14--------------------|
|-17-15-14----14-15-17----------17-15-17-15-14-----|
|----------17----------------------------------17--|
|--------------------------------------------------|


  A5                                       F5
      PM----------------------------|         PM-------------------------|
   E  S S S S  S S  S S S S  S S  S S       E S S S S S S  S S S S S S S S
|-------------------------------------|-------------------------------------|
|-------------------------------------|-------------------------------------|
|-------------------------------------|-------------------------------------|
|--7----------------------------------|-----3-------------------------------|
|--5--5-5-5-5--5-5--5-5-5-5--5-5--5-5-|-----1-1-1-1-1-1-1--1-1-1-1-1-1-1-1--|
|-------------------------------------|-------------------------------------|
|
|  ~~~                                      ~~~~~~~~~~~~~~~~~
|  Q.          E    Q        E    E      a  H              H
|-------------------------------------|-------------------------------------|
|-------------------------------------|-------------------------------------|
|-------------------------------------|-13S14-------------12----------------|
|-------------14---15-------14---12---|-------------------------------------|
|-17----------------------------------|-------------------------------------|
|-------------------------------------|-------------------------------------|


  C5
     PM------------------------------------------|
  E  S  S  S     S  S  S     S  S  S  S  S  S  S  S
|---------------------------------------------------|
|---------------------------------------------------|
|---------------------------------------------------|
|-5-------------------------------------------------|
|-3--3--3--3-----3--3--3-----3--3--3--3--3--3--3--3-|
|---------------------------------------------------|
|
| E  S  S  T  T  S  S  T  T  S  S  S  S  S  S  S  S
|---------------------------------------12----------|
|-9h10-10-13p10----10-13p10----10-13-15----15-13-15-|
|---------------12----------12----------------------|
|---------------------------------------------------|
|---------------------------------------------------|
|---------------------------------------------------|


  A5          Bb5         C5                 Bb5
   Q           E     E     E            E     Q
|---------------------------------------------------------|
|---------------------------------------------------------|
|---------------------------------------------------------|
|---------------------------------------------------------|
|--7-----------8----------10------------------8-----------|
|--5-----------6-----------8------------------6-----------|
|
|  E     S  S  S  S  S  S  S  a      E     S  S  S  S  S
|-------10------------------------------------------------|
|-13b15----13-10-13-10------------------------------------|
|----------------------12-10-12b14r(12)---10----12-10-----|
|--------------------------------------------12-------12--|
|---------------------------------------------------------|
|---------------------------------------------------------|


                                       Verse
  A5                                    C5            G5
        PM--------------------------|     PM--------|   PM--------|
   E    S S S S S S S S   S S S S S S   E S S S S S S E S S S S S S
|-------------------------------------|-----------------------------|
|-------------------------------------|-----------------------------|
|-------------------------------------|-----------------------------|
|--2----------------------------------|-5---------------------------|
|--0----0-0-0-0-0-0-0-0---0-0-0-0-0-0-|-3-3-3-3-3-3-3-5-------------|
|-------------------------------------|---------------3-3-3-3-3-3-3-|
|
|  S H                Q..               W
|-------------------------------------|-----------------------------|
|-------------------------------------|-----------------------------|
|-10p9\-------------------------------|-----------------------------|
|-------------------------------------|-----------------------------|
|-------------------------------------|-----------------------------|
|-------------------------------------|-----------------------------|


  A5                              C5            G5
    PM------------------------|     PM--------|
  E S S S S S S S S S S S S S S   E S S S S S S E S S S S S S
|-------------------------------|-----------------------------|
|-------------------------------|-----------------------------|
|-------------------------------|-----------------------------|
|-------------------------------|-5---------------------------|
|-7-----------------------------|-3-3-3-3-3-3-3-5-0-2-3-2-0---|
|-5-5-5-5-5-5-5-5-5-5-5-5-5-5-5-|---------------3-----------3-|


  F5                              E5
    PM------------------------|     PM------------------------|
  E S S S S S S S S S S S S S S   E S S S S S S S S S S S S S S
|-------------------------------|-------------------------------|
|-------------------------------|-------------------------------|
|-------------------------------|-------------------------------|
|-------------------------------|-------------------------------|
|-3-----------------------------|-2-----------------------------|
|-1-1-1-1-1-1-1-1-1-1-1-1-1-1-1-|-0-0-0-0-0-0-0-0-0-0-0-0-0-0-0-|


  F5                              G5            E5
    PM------------------------|     PM--------|   PM--------|
  E S S S S S S S S S S S S S S   E S S S S S S E S S S S S S
|-------------------------------|-----------------------------|
|-------------------------------|-----------------------------|
|-------------------------------|-----------------------------|
|-------------------------------|-----------------------------|
|-3-----------------------------|-5-------------2-------------|
|-1-1-1-1-1-1-1-1-1-1-1-1-1-1-1-|-3-3-3-3-3-3-3-0-0-0-0-0-0-0-|


  A5                              G5            F5
    PM------------------------|     PM--------|
  E S S S S S S S S S S S S S S   E S S S S S S E S S S S S S
|-------------------------------|-----------------------------|
|-------------------------------|-----------------------------|
|-------------------------------|-----------------------------|
|-2-----------------------------|-----------------------------|
|-0-0-0-0-0-0-0-0-0-0-0-0-0-0-0-|-5-------------3-0-2-3-2-0---|
|-------------------------------|-3-3-3-3-3-3-3-1-----------3-|


  A5                              F5            C5  G5
    PM------------------------|     PM--------|
  E S S S S S S S S S S S S S S   E S S S S S S E E E E
|-------------------------------|-----------------------|
|-------------------------------|-----------------------|
|-------------------------------|-----------------------|
|-2-----------------------------|---------------5-x-----|
|-0-0-0-0-0-0-0-0-0-0-0-0-0-0-0-|-3-------------3-x-5-x-|
|-------------------------------|-1-1-1-1-1-1-1-----3-x-|


  A5                              G5            F5
    PM------------------------|     PM--------|
  E S S S S S S S S S S S S S S   E S S S S S S E S S S S S S
|-------------------------------|-----------------------------|
|-------------------------------|-----------------------------|
|-------------------------------|-----------------------------|
|-2-----------------------------|-----------------------------|
|-0-0-0-0-0-0-0-0-0-0-0-0-0-0-0-|-5-------------3-0-2-3-2-0---|
|-------------------------------|-3-3-3-3-3-3-3-1-----------3-|


  C5                              A5            E5VII
    PM------------------------|     PM--------|   PM--------|
  E S S S S S S S S S S S S S S   E S S S S S S E S S S S S S
|-------------------------------|-----------------------------|
|-------------------------------|-----------------------------|
|-------------------------------|-----------------------------|
|-5-----------------------------|-7-------------9-------------|
|-3-3-3-3-3-3-3-3-3-3-3-3-3-3-3-|-5-5-5-5-5-5-5-7-7-7-7-7-7-7-|
|-------------------------------|-----------------------------|


  (E)                                 A5
   PM-----------------------------|     PM------------------------|
   S  S S S S S S S S S S S S S S S   E S S S S S S S S S S S S S S
|-----------------------------------|--------------------------------|
|-----------------------------------|--------------------------------|
|-----------------------------------|--------------------------------|
|-(9)-------------------------------|-2------------------------------|
|--7--7-7-7-7-7-7-7-7-7-7-7-7-7-7-7-|-0-0-0-0-0-0-0-0-0-0-0-0-0-0-0--|
|-----------------------------------|--------------------------------|


  G5            F5              A5
    PM--------|                   PM------------------------|
  E S S S S S S E S S S S S S   E S S S S S S S S S S S S S S
|-----------------------------|-------------------------------|
|-----------------------------|-------------------------------|
|-----------------------------|-------------------------------|
|-----------------------------|-2-----------------------------|
|-5-------------3-0-2-3-2-0---|-0-0-0-0-0-0-0-0-0-0-0-0-0-0-0-|
|-3-3-3-3-3-3-3-1-----------3-|-------------------------------|


  F5            C5  G5    A5
    PM--------|             PM------------------------|
  E S S S S S S E E E E   E S S S S S S S S S S S S S S
|-----------------------|-------------------------------|
|-----------------------|-------------------------------|
|-----------------------|-------------------------------|
|---------------5-x-----|-2-----------------------------|
|-3-------------3-x-5-x-|-0-0-0-0-0-0-0-0-0-0-0-0-0-0-0-|
|-1-1-1-1-1-1-1-----3-x-|-------------------------------|


  G5            F5              C5
    PM--------|                   PM------------------------|
  E S S S S S S E S S S S S S   E S S S S S S S S S S S S S S
|-----------------------------|-------------------------------|
|-----------------------------|-------------------------------|
|-----------------------------|-------------------------------|
|-----------------------------|-5-----------------------------|
|-5-------------3-0-2-3-2-0---|-3-3-3-3-3-3-3-3-3-3-3-3-3-3-3-|
|-3-3-3-3-3-3-3-1-----------3-|-------------------------------|


  D5            E5VII           (E)
    PM--------|   PM--------------------------------------------|
  E S S S S S S E S S S S S S    S  S S S S S S S S S S S S S S S
|-----------------------------|-----------------------------------|
|-----------------------------|-----------------------------------|
|-----------------------------|-----------------------------------|
|-7-------------9-------------|-(9)-------------------------------|
|-5-5-5-5-5-5-5-7-7-7-7-7-7-7-|--7--7-7-7-7-7-7-7-7-7-7-7-7-7-7-7-|
|-----------------------------|-----------------------------------|


                                   Bridge
  (E)                               A5
  PM----------------------------|      PM---------------------------|
  S S S S S S S S S S S S S S S S   E  S S S  S S S  S S S  S S S S  S
|---------------------------------|-------------------------------------|
|---------------------------------|-------------------------------------|
|---------------------------------|-------------------------------------|
|---------------------------------|-2-----------------------------------|
|-7-7-7-7-7-7-7-7-7-7-7-7-7-7-7-7-|-0--0-0-0--0-0-0--0-0-0--0-0-0-0--0--|
|---------------------------------|-------------------------------------|
|
| Gtr II
| W                                 E  S S S  S S S  S S S  S S S S  S
|---------------------------------|-------------------------------------|
|---------------------------------|-------------------------------------|
|---------------------------------|--------------------7------7-9-7-----|
|---------------------------------|-7----7-9-10-7-9-10---9-10-------10--|
|---------------------------------|---10--------------------------------|
|---------------------------------|-------------------------------------|


  (A)                                A5
  PM--------------------------|         PM---------------------------|
  S S  S S S  S S S  S S S  S S E.   E  S S S  S S S  S S S  S S S S  S
|----------------------------------|------------------------------------|
|----------------------------------|------------------------------------|
|----------------------------------|------------------------------------|
|-------------------------------2--|-2----------------------------------|
|-0-0--0-0-0--0-0-0--0-0-0--0-0-0--|-0--0-0-0--0-0-0--0-0-0--0-0-0-0--0-|
|----------------------------------|------------------------------------|
|
| S S  S S S  S S S  S S S  S S E.   E  S S S  S S S  S S S  S S S S  S
|----------------------------------|------------------------------------|
|----------------------------------|------------------------------------|
|----------------------7------7-9--|--------------------7------7-9-7----|
|-9-7----7-9-10-7-9-10---9-10------|-7----7-9-10-7-9-10---9-10-------10-|
|-----10---------------------------|---10-------------------------------|
|----------------------------------|------------------------------------|


  C5                 G5                A5
       PM---------|       PM-----|        PM---------------------------|
  E    S S  S S S  S E    S S  S E S   E  S S S  S S S  S S S  S S S S  S
|------------------------------------|------------------------------------|
|------------------------------------|------------------------------------|
|------------------------------------|------------------------------------|
|-5----------------------------------|-2----------------------------------|
|-3----3-3--3-3-3--3-5---------------|-0--0-0-0--0-0-0--0-0-0--0-0-0-0--0-|
|--------------------3----3-3--3-3---|------------------------------------|
|
| S  S S S  S S S  S S S  S S  S E S   E  S S S  S S S  S S S  S S S S  S
|------------------------------------|------------------------------------|
|------------------------------------|------------------------------------|
|---10-9-7----9-7------7-------------|--------------------7------7-9-7----|
|-9--------10-----10-9---10-9----7---|-7----7-9-10-7-9-10---9-10-------10-|
|-----------------------------10-----|---10-------------------------------|
|------------------------------------|------------------------------------|


  (A)                                A5
  PM--------------------------|         PM---------------------------|
  S S  S S S  S S S  S S S  S S E.   E  S S S  S S S  S S S  S S S S  S
|----------------------------------|------------------------------------|
|----------------------------------|------------------------------------|
|----------------------------------|------------------------------------|
|-------------------------------2--|-2----------------------------------|
|-0-0--0-0-0--0-0-0--0-0-0--0-0-0--|-0--0-0-0--0-0-0--0-0-0--0-0-0-0--0-|
|----------------------------------|------------------------------------|
|
| S S  S S S  S S S  S S S  S S E.   E  S S S  S S S  S S S  S S S S  S
|----------------------------------|------------------------------------|
|----------------------------------|------------------------------------|
|----------------------7------7-9--|--------------------7------7-9-7----|
|-9-7----7-9-10-7-9-10---9-10------|-7----7-9-10-7-9-10---9-10-------10-|
|-----10---------------------------|---10-------------------------------|
|----------------------------------|------------------------------------|


                                       Outro
  C5                 G5                 N.C.
       PM---------|       PM-----|      PM--------------------------|
  E    S S  S S S  S E    S S  S E S    E S S S S S S S S S S S S S S
|------------------------------------||-------------------------------|
|------------------------------------||-------------------------------|
|------------------------------------||-------------------------------|
|-5----------------------------------||-----7-5-7-8-7-5-7-5---5-------|
|-3----3-3--3-3-3--3-5---------------||-5-5-----------------8---8-7---|
|--------------------3----3-3--3-3---||-----------------------------8-|
|
| S  S S S  S S S  S S S  S S  S E S    W
|------------------------------------||-------------------------------|
|------------------------------------||-------------------------------|
|---10-9-7----9-7------7-------------||-------------------------------|
|-9--------10-----10-9---10-9----7---||-------------------------------|
|-----------------------------10-----||-------------------------------|
|------------------------------------||-------------------------------|


  N.C.                            N.C.
  PM----------------------------------------------------------|
  E S S S S S S S S S S S S S S   E S S S S S S S S S S S S S S
|-------------------------------|-------------------------------|
|-------------------------------|-------------------------------|
|-------------------------------|-------------------------------|
|-----------5-------------------|-----------5-------------------|
|-----8-7-8---8-7-8-7-5-7-5-----|-----5-7-8---8-7-5-------5-7---|
|-6-6-----------------------8-6-|-8-8---------------8-6-8-----8-|


  N.C.                            N.C.
  PM----------------------------------------------------------|
  E S S S S S S S S S S S S S S   E S S S S S S S S S S S S S S
|-------------------------------|-------------------------------|
|-------------------------------|-------------------------------|
|-------------------------------|-------------------------------|
|-------------------------------|-----7-5-7-8-7-5-7-5---5-------|
|-----7-5-7-8-7-5-7-5---5-------|-5-5-----------------8---8-7---|
|-5-5-----------------8---8-6-8-|-----------------------------8-|


  N.C.                            N.C.
  PM----------------------------------------------------------|
  E S S S S S S S S S S S S S S   E S S S S S S S S S S S S S S
|-------------------------------|-------------------------------|
|-------------------------------|-------------------------------|
|-------------------------------|-------------------------------|
|-----------5-------------------|-----------5-------------------|
|-----8-7-8---8-7-8-7-5-7-5-----|-----5-7-8---8-7-5-------5-7---|
|-6-6-----------------------8-6-|-8-8---------------8-6-8-----8-|


  N.C.                            N.C.
  PM--------------------------|
  E S S S S S S S S S S S S S S   E S S S S S S E S S S S E
|-------------------------------|---------------------------|
|-------------------------------|---------------------------|
|-------------------------------|---------------------------|
|-------------------------------|---------------------------|
|-----7-5-7-8-7-5-7-5---5-------|-5-5-7-8-7-5---5-5-7-8-5---|
|-5-5-----------------8---8-6-8-|-------------8-------------|
|
| Gtr II
| W                               E S S S S S S E S S S S E
|-------------------------------|---------------------------|
|-------------------------------|---------------------------|
|-------------------------------|---------------------------|
|-------------------------------|---------------------------|
|-------------------------------|-5-5-7-8-7-5---5-5-7-8-5---|
|-------------------------------|-------------8-------------|


  N.C.                          N.C.
  E S S S S S S E S S S S S S   E S S  S S S  S E S S  S S E
|-----------------------------|-------------------------------|
|-----------------------------|-------------------------------|
|-----------------------------|-------------------------------|
|-----------------------------|-------------------------------|
|-5-5-7-8-7-5---------5-7-5---|-5-5-7--8-7-5----5-5-7--8-5----|
|-------------8-6-6-8-------8-|---------------8---------------|
|
| E S S S S S S E S S S S S S   E S S  S S S  S E S S  S S E
|-----------------------------|-------------------------------|
|-----------------------------|-------------------------------|
|-----------------------------|-7-7-9-10-9-7----7-7-9-10-7----|
|-----------------------------|--------------10---------------|
|-5-5-7-8-7-5---------5-7-5---|-------------------------------|
|-------------8-6-6-8-------8-|-------------------------------|


  N.C.                              A5
  E S S  S S S  S E S  S S S S  S   H    H
|---------------------------------|-----------*|
|---------------------------------|-----------*|
|---------------------------------|-----------*|
|---------------------------------|-7---------*|
|-5-5-7--8-7-5-----------5-7-5----|-5---------*|
|---------------8-6-6--8--------8-|-----------*|
|
| E S S  S S S  S E S  S S S S  S   H    H
|---------------------------------|-----------*|
|---------------------------------|-----------*|
|-7-7-9-10-9-7-----------7-9-7----|-----------*|
|--------------10-8-8-10-------10-|-7---------*|
|---------------------------------|-5---------*|
|---------------------------------|-----------*|



Duration Legend
---------------
W - whole; H - half; Q - quarter; E - 8th; S - 16th; T - 32nd; X - 64th; a - acciaccatura
+ - note tied to previous; . - note dotted; .. - note double dotted
Uncapitalized letters represent notes that are staccato (1/2 duration)
Irregular groupings are notated above the duration line
Duration letters will always appear directly above the note/fret number it represents the
duration for.  Duration letters with no fret number below them represent rests.  Multi-
bar rests are notated in the form Wxn, where n is the number of bars to rest for.  Low
melody durations appear below the staff

Tablature Legend
----------------
 h   - hammer-on
 p   - pull-off
 b   - bend
 pb  - pre-bend
 r   - bend release (if no number after the r, then release immediately)
 /\  - slide into or out of (from/to "nowhere")
 s   - legato slide
 S   - shift slide
 - natural harmonic
[n]  - artificial harmonic
n(n) - tapped harmonic
 ~   - vibrato
 tr  - trill
 T   - tap
 TP  - trem. picking
 PM  - palm muting
\n/  - tremolo bar dip; n = amount to dip
 \n  - tremolo bar down
 n/  - tremolo bar up
/n\  - tremolo bar inverted dip
 =   - hold bend; also acts as connecting device for hammers/pulls
 <> - volume swell (louder/softer)
 x   - on rhythm slash represents muted slash
 o   - on rhythm slash represents single note slash

Misc Legend
-----------
 |  - bar
||  - double bar
||o - repeat start
o|| - repeat end
*|  - double bar (ending)
 :  - bar (freetime)
 $  - Segno
 &  - Coda
Tempo markers -  = BPM(8/16=s8/s16), where s8 = swing 8ths, s16 = swing 16ths

comments
We did not receive enough feedback on this tab! Please rate:
print report bad tab
1 2 3 4 5
I want to post or [tab]
guest
You may want to rate the tab now too:
select rating
Please do not post tabs as comments. Select "correction" instead!