Oops, an error
Loading. Please wait.

So Fucking Rock Bass Tab

ver2
ver2

Whole song

Interactive

More versions @911Tabs.com
154 views 3 this week
no commentswrite comment
1 2 3 4 5
please rate
Autoscroll
+/-
esc
set tempo
stop
Contributor
Hey! There's an official Ultimate Guitar app which is ideal
for learning songs when you're away from computer. Get the app
WARNING: You are trying to view
                                    content from Ultimate-Guitar.com
                                    in an unauthorized application,
                                    which is prohibited.

                                    Please use an official Ultimate
                                    Guitar Tabs application for iPhone,
                                    iPad or Android to access legitimate
                                    chords, guitar, bass, and drum tabs
                                    from Ultimate-Guitar.com database.

                                    Type "ultimate guitar tabs" in Apple
                                    App Store's or Android Market's
                                    search to find the application.
I know there's already a bass tab for this song, but this one's a bit more concise and 
some of the fiddlier riffs are in here too.

I hope Dark Jedi doesn't mind me using his tab as a great starting point - thaks very 
much, otherwise I wouldn't have had a chance!

G|  ------------------------------------|
D|: -------------------------------- ---| Means repeat the part
A|: -------------------------------- ---| between the double dots.
D|  ------------------------------------|

I hope you enjoy!

G|--------------------------------|--------------------------------|
D|--------------------------------|--------------------------------|
A|--------------------------------|--------3---5-------------------|
D|0---0---------------------------|0---0---------------------------|
  1       2       3       4        1       2       3       4
G|--------------------------------|--------------------------------|
D|--------------------------------|101210--------------------------|
A|--------5---3-------------------|------------101210--------------|
D|0---0---------------------------|------------------------101210--|
  1       2       3       4        1       2       3       4
G|--------------------------------|--------------------------------|
D|--------------------------------|--------3-------3-----------3---|
A|--------5-------5-3-0-3-----5-3-|------------------5-3-5-------5-|
D|0---0---------------------------|3---3---------------------------|
  1       2       3       4        1       2       3       4
G|--------------------------------|---------------------------------|
D|--------5-------5-3-0-3-----5-3-|--------8-----10--1010--10-----10|
A|--------------------------------|---------------------------------|
D|5---5---------------------------|8---8-------8--------10-----10---|
  1       2       3       4        1       2       3       4
G|  --------------------------------|--------------------------------|
D|: --------------------------------|--------3-----------3-------3---|
A|: --------5-3-0-3-----5-3-----5-3-|----------5-3-5-------5-------5-|
D|  0---0-------------0-----0-------|3---3-------------------3-------|
    1       2       3       4        1       2       3       4
G|--------------------------------|------------------------------------|
D|--------5-3---3-----5-------5-3-|----------8---8---------10------ ---|
A|------------5---------3---------|-------------------------------- ---|
D|5---5-------------------5-------|8---8---8---8---10--10--------------|
  1       2       3       4        1       2       3       4
(Guitar Entry + 3x vocals)
G|  --------------------------------|--------------------------------|
D|: --------------------------------|--------3-------3-----------3---|
A|: --------5-------5-3-0-3-----5-3-|------------------5-3-5-------5-|
D|  0---0---------------------------|3---3---------------------------|
    1       2       3       4        1       2       3       4
G|--------------------------------|---------------------------------|
D|--------5-------5-3-0-3-----5-3-|--------8-----10--1010--10-----10|
A|--------------------------------|---------------------------------|
D|5---5---------------------------|8---8-------8--------10-----10---|
  1       2       3       4        1       2       3       4
G|--------------------------------|--------------------------------|
D|--------------------------------|--------3-----------3-------3---|
A|--------5-3-0-3-----5-3-----5-3-|----------5-3-5-------5-------5-|
D|0---0-------------0-----0-------|3---3-------------------3-------|
  1       2       3       4        1       2       3       4
G|--------------------------------|------------------------------------|
D|--------5-3---3-----5-3-----5-3-|----------8---8---------10------ ---|
A|------------5-------------------|-------------------------------- ---|
D|5---5-------------------5-------|8---8---8---8---10--10--------------|
  1       2       3       4        1       2       3       4
                "Fucking"                       "God-damn"
G|--------------------------------|--------------------------------|
D|--------------------------------|--------3-------------------3---|
A|--------5---5---------------5-3-|------------------------------5-|
D|0---0---------3-----------------|3---3---------------------------|
  1       2       3       4        1       2       3       4
            "Motherfucking"
G|--------------------------------|---------------------------------|
D|--------5-------------------5-3-|--------8-----10--1010--10-----10|
A|--------------------------------|---------------------------------|
D|5---5---------------------------|8---8-------8--------10-----10---|
  1       2       3       4        1       2       3         4
"I am so..."
G|--------------------------------|--------------------------------|
D|--------------------------------|--------3-----------3-------3---|
A|--------5-3-0-3-----5-3-----5-3-|----------5-3-5-------5-------5-|
D|0---0-------------0-----0-------|3---3-------------------3-------|
  1       2       3       4        1       2       3       4
G|--------------------------------|--------------------------------|
D|--------5-3---3-----5-3-----5-3-|----------8---8---------10------|
A|------------5-------------------|--------------------------------|
D|5---5-------------------5-------|8---8---8---8---10--10----------|
  1       2       3       4        1       2       3       4

G|--------------------------------|
D|--------------------------------|
A|--------------------------------|
D|0-3-5-6---0-3-5-6-7-------------|

INTERLUDE. 3x
"If you came..."
G|  --------------------------------|--------------------------------|
D|: ----0-------0-----0---0-----0---|----3-------3-----3---3-----3---|
A|: --------------------------------|--------------------------------|
D|  0-------0-------0---0-----0-----|3-------3-------3---3---3-------|
    1       2        3       4        1       2       3       4
G|--------------------------------|------------------------------------|
D|----5-------5-----5---5-----5---|----8-------8------10----------10---|
A|--------------------------------|------------------------------------|
D|5-------5-------5---5-----5-----|8-------8--------10-------10--------|
  1       2       3       4        1        2       3         4
G|--------------------------------|--------------------------------|
D|----0-------0-----0---0-----0---|----3-------3-----3---3-----3---|
A|--------------------------------|--------------------------------|
D|0-------0-------0---0-----0-----|3-------3-------3---3---3-------|

G|--------------------------------|----------------------------------------|
D|----5-------5-----5---5-----5---|--------8-----8----10-----10-----10- ---|
A|--------------------------------|------------------------------------ ---|
D|5-------5-------5---5-----5-----|8---8-------8---10---10--------10-------|
  1       2       3       4        1        2       3         4
"Goals..."
G|--------------------------------|--------------------------------|
D|--------------------------------|--------------------------------|
A|--------------------------------|--------------------------------|
D|7---7---7---7---7---7---7---7---|--------------------------------|
  1       2       3       4        1       2       3       4

"Maybe have some savings when you're old"
G|----------------------------------|--------------------------------|
D|----------------------------------|--------------------------------|
A|----------------------------------|--------------------------------|
D|----------------------------------|0-3-5-6---0-3-5-6-7-------------|
  1       2       3       4          1       2       3       4



G|--------------------------------|--------------------------------|
D|--------------------------------|--------3-------3-----------3---|
A|--------5-------5-3-0-3-----5-3-|------------------5-3-5-------5-|
D|0---0---------------------------|3---3---------------------------|
  1       2       3       4        1       2       3       4
G|--------------------------------|---------------------------------|
D|--------5-------5-3-0-3-----5-3-|--------8-----10--1010--10-----10|
A|--------------------------------|---------------------------------|
D|5---5---------------------------|8---8-------8--------10-----10---|

"I work very hard..." x2
G|  --------------------------------|--------------------------------|
D|: --------------------------------|--------------------------------|
A|: --------------------------------|--------------------------------|
D|  4-------------------------------|2-------------------------------|
    1       2       3       4        1       2       3       4
G|--------------------------------|--------------------------------|
D|--------------------------------|--------------------------------|
A|0-------------------------------|--------------------------------|
D|--------------------------------|5-------------------------------|
  1       2       3       4        1       2       3       4
G|--------------------------------|--------------------------------|
D|--------------------------------|--------------------------------|
A|--------------------------------|--------------------------------|
D|4-------------------------------|2-------------------------------|
  1       2       3       4        1       2       3       4
G|--------------------------------|--------------------------------|
D|--------------------------------|--------------------------------|
A|0-------------------------------|--------------------------------|
D|--------------------------------|5-------------------------------|
  1       2       3       4        1       2       3       4
G|--------------------------------|--------------------------------|
D|--------------------------------|--------------------------------|
A|--------------------------------|--------------------------------|
D|5-------------------------------|2-------------------------------|
  1       2       3       4        1       2       3       4
G|--------------------------------|------------------------------------|
D|--------------------------------|-------------------------------- ---|
A|--------------------------------|0------------------------------- ---|
D|5-------------------------------|------------------------------------|
  1       2       3       4        1       2       3       4
"Something from a distance..."
G|--------------------------------|--------------------------------|
D|--------------------------------|--------------------------------|
A|2-------------------------------|5-------------------------------|
D|--------------------------------|--------------------------------|
  1       2       3       4        1       2       3       4
G|--------------------------------|---------------------------------|
D|--------------------------------|---------------------------------|
A|7---------------10--------------|12-------------------------------|
D|--------------------------------|---------------------------------|
  1       2       3       4        1       2       3       4

"I am so..." x2
G|  --------------------------------|--------------------------------|
D|: --------------------------------|--------------------------------|
A|: --------------------------------|--------------------------------|
D|  0---0---------------------------|3---3---------------------------|
    1       2       3       4        1       2       3       4
G|--------------------------------|------------------------------------|
D|--------------------------------|----------8---8---------10------ ---|
A|--------------------------------|-------------------------------- ---|
D|5---5---------------------------|8---8---8---8---10--10--------------|
  1       2       3       4        1        2       3        4
With piano:
G|--------------------------------|--------------------------------|
D|--------------------------------|--------3-----------3-------3---|
A|--------5-3-0-3-----5-3-----5-3-|----------5-3-5-------5-------5-|
D|0---0-------------0-----0-------|3---3-------------------3-------|
  1       2       3       4        1       2       3       4
G|--------------------------------|--------------------------------|
D|--------5-3---3-----5-3-----5-3-|----------8---8---------10------|
A|------------5-------------------|--------------------------------|
D|5---5-------------------5-------|8---8---8---8---10--10----------|
  1       2       3       4        1       2       3       4
G|--------------------------------|--------------------------------|
D|--------------------------------|--------------------------------|
A|--------------------------------|--------------------------------|
D|0-3-5-6---0-3-5-6---7-----------|0-3-5-6---0-3-5-6---7---10------|
  1       2       3       4        1       2       3       4
G|--------------------------------|--------------------------------|
D|--------------------------------|--------------------------------|
A|--------------------------------|--------------------------------|
D|0-3-5-6---0-3-5-6---7-----------|0-3-5-6---0-3-5-6---7---12------|
  1       2       3       4        1       2       3       4
G|--------------------------------|--------------------------------|
D|----0-------0-------0-------0---|----3-------3-------3-------3---|
A|--------------------------------|--------------------------------|
D|0-------0-------0-------0-------|3-------3-------3-------3-------|
  1       2        3       4        1       2       3       4
G|--------------------------------|------------------------------------|
D|----5-------5-------5-------5---|----8-------8---------10-------10---|
A|--------------------------------|------------------------------------|
D|5-------5-------5-------5-------|8-------8--------10-------10--------|
  1       2       3       4        1        2       3         4
(During piano slaps)
G|--------------------------------|--------------------------------|
D|--------------------------------|--------------------------------|
A|--------------------------------|--------------------------------|
D|--------------------------------|--------------------------------|
  1        2      3       4        1        2       3       4
G|--------------------------------|--------------------------------|
D|--------------------------------|--------------------------------|
A|--------------------------------|--------------------------------|
D|--------------------------------|--7-101112107-5-5-7-0-7-5-3-0---|
  1        2      3       4        1        2       3       4
G|  --------------------------------|--------------------------------|
D|: ----0-------0-------0-------0---|----3-------3-------3-------3---|
A|: --------------------------------|--------------------------------|
D|  0-------0-------0-------0-------|3-------3-------3-------3-------|
    1       2        3       4        1       2       3       4
G|--------------------------------|----------------------------------------|
D|----5-------5-------5-------5---|----8-------8---------10-------10--- ---|
A|--------------------------------|------------------------------------ ---|
D|5-------5-------5-------5-------|8-------8--------10-------10------------|
  1       2       3       4        1        2       3         4
G|---------------------------------|--------------------------------|
D|---------------------------------|--------------------------------|
A|-----------rest 5 bars-----------|--------------------------------|
D|---------------------------------|0-------------------------------|
comments
We did not receive enough feedback on this tab! Please rate:
print report bad tab
1 2 3 4 5
I want to post or [tab]
guest
You may want to rate the tab now too:
select rating
Please do not post tabs as comments. Select "correction" instead!