Oops, an error
Loading. Please wait.

Inte Stor Nog Tab

5,209 views 126 this week
no commentswrite comment
1 2 3 4 5
accurate
x 2
add to favorites launch autoscroll
font size
0
reset
Autoscroll
+/-
esc
set tempo
stop
Difficulty
novice
WARNING: You are trying to view
                                    content from Ultimate-Guitar.com
                                    in an unauthorized application,
                                    which is prohibited.

                                    Please use an official Ultimate
                                    Guitar Tabs application for iPhone,
                                    iPad or Android to access legitimate
                                    chords, guitar, bass, and drum tabs
                                    from Ultimate-Guitar.com database.

                                    Type "ultimate guitar tabs" in Apple
                                    App Store's or Android Market's
                                    search to find the application.
Good luck with the song! 


Intro: G    Em  C

  G     
Alltid är man allt för liten för att hänga med
          Em                            C
Att be ägd av alla större nä jag tycker det är fel
             G
Man får inte vara med i leken man får ingen chans 
      Em                     C
Fast en vacker dag så ska jag visa alla att jag kan 
  G
Allt jag bara hör är stick iväg lille vän dra här ifrån
   Em                  C
Det blir bäst om du gör såhär du fattar inte vad vi har på gång 
Em                   D5        
Men jag vet när jag ändå tror men det vill dom inte höra på
C5
De säger vänta tills du blir stor då kommer du nog förstå

Mellanspel: 
e|----------------------------------------------------|
B|----------------------------------------------------|
G|-----7-7--------------------------------------------|
D|--9------9-9---7-7----------------------------------| x4
A|--------------------10------------------------------|
E|----------------------------------------------------|


e|----------------------------------------------------|
B|----------------------------------------------------|
G|----------------------------------------------------|  
D|-------9~--9-9-9/10\9--7-----7----------------------|
A|-10-10------------------10-----10-10----------------|
E|----------------------------------------------------|

G
Jag vet att jag belliten i men snart så blir jag stor
       Em                  C
fast växer alla andra blir jag nånsin stor nog
G
att vuxna alltid vet det bästa tror jag inte på
       Em                     C
men dom borde lyssna oftare på oss som e små
G
allt jag hörde var nejnejnej lille vän du får inte lov
            Em                             C
du blir bäst om vi gör såhär när du blir större kommer du förstå 
G
Men jag vet redan vad jag vill kan dom inte bara höra mig

Em              C  
Dom säger sitt ner sitt stil när jag bara vill röra mig
Mellanspel:
e|----------------------------------------------------|
B|----------------------------------------------------|
G|-----7-7--------------------------------------------|
D|--9------9-9---7-7----------------------------------| x4
A|--------------------10------------------------------|
E|----------------------------------------------------|


e|----------------------------------------------------|
B|----------------------------------------------------|
G|----------------------------------------------------|  
D|-------9~--9-9-9/10\9--7-----7----------------------|
A|-10-10------------------10-----10-10----------------|
E|----------------------------------------------------|
 G 
Alltid är man allt för liten för att hänga med
   Em                  C
Att be ägd av alla större nä jag tycker det är fel
 G
Man får inte vara med i leken man får ingen chans 
   Em                 C
Fast en vacker dag så ska jag visa alla att jag kan 
 G                   
Allt jag bara hör är stick iväg lille vän dra här ifrån
   Em                C
Det blir bäst om du gör såhär du fattar inte vad vi har på gång 
 Em                 D5
Men jag vet när jag ändå tror men det vill dom inte höra på
  C5
De säger vänta tills du blir stor då kommer du nog förstå


e|----------------------------------------------------|
B|----------------------------------------------------|
G|-----7-7--------------------------------------------|
D|--9------9-9---7-7----------------------------------| x4
A|--------------------10------------------------------|
E|----------------------------------------------------|


e|----------------------------------------------------|
B|----------------------------------------------------|
G|----------------------------------------------------|
D|----------7--------7-9------------------------------|
A|-7---7-10---------------8-------8-10----------------|
E|-------------------------------------10-------------|



************************************

| /   slide up
| \   slide down
| H   hammer-on
| p   pull-off
| ~   vibrato
| +   harmonic
| x   Mute note
| B   Bend
| pb  Pre-bend
| br  Bend release
| pbr Pre-bend release
| brb Bend release bend

************************************
comments
We did not receive enough feedback on this tab! Please rate:
1 2 3 4 5
I want to post or [tab]
guest
You may want to rate the tab now too:
select rating
Please do not post tabs as comments. Select "correction" instead!