Oops, an error
Loading. Please wait.

If God Will Send Her Angels Tab

ver1
ver1

Whole song

Interactive

More versions @911Tabs.com
537 views 3 this week
no commentswrite comment
1 2 3 4 5
excellent!
x 2
Autoscroll
+/-
esc
set tempo
stop
Contributor
Difficulty
Tabbers playing skills
intermediate
intermediate +
NEW! There's an official Ultimate Guitar app which is ideal
for learning songs when you're away from computer. Get the app
WARNING: You are trying to view
                                    content from Ultimate-Guitar.com
                                    in an unauthorized application,
                                    which is prohibited.

                                    Please use an official Ultimate
                                    Guitar Tabs application for iPhone,
                                    iPad or Android to access legitimate
                                    chords, guitar, bass, and drum tabs
                                    from Ultimate-Guitar.com database.

                                    Type "ultimate guitar tabs" in Apple
                                    App Store's or Android Market's
                                    search to find the application.
1st guitar

     Q.      E  E  E  E  E     Q.      E  H            Q.      E  E  E  E  E
E||-------------------------|-----------------------|-------------------------|
B||-------------------------|-----------------------|-------------------------|
G||----------------------8--|-----------------------|-------------------------|
D||-------------6--8--9-----|--8~------6--6~--------|--L----------6--8--9--6--|
A||---------/6--------------|-----------------------|---------/6--------------|
E||-------------------------|-----------------------|-------------------------|


                |--3--|
  H.            E  E  E       H.            Q         W
-------------------------|-------------------------|--------------------|
-------------------------|-------------------------|--------------------|
--6~------------L--------|-------------------------|--------------------|
-------------------9--8--|--8g9~------------9br----|--8~----------------|
-------------------------|-------------------------|--------------------|
-------------------------|-------------------------|--------------------|


  H.           Q         Q.      E  H            Q.      E  E  E  E  E
----------------------|-----------------------|-------------------------|
----------------------|-----------------------|-------------------------|
----------------------|-----------------------|----------------------8--|
--L------------8br----|--8~------6--6~--------|--L----------6--8--9-----|
----------------------|-----------------------|---------/6--------------|
----------------------|-----------------------|-------------------------|


                                                                  |--3--|
  Q.      E  H            Q.      E  E  E  E  E     H.            E  E  E
-----------------------|-------------------------|-------------------------|
-----------------------|-------------------------|-------------------------|
-----------------------|-------------------------|--6~------------L--------|
--8~------6--6~--------|--L----------6--8--9--6--|-------------------9--8--|
-----------------------|---------/6--------------|-------------------------|
-----------------------|-------------------------|-------------------------|


                  |--3--|                     |---3--|
    H.            E  E  E       H.            E  E   E
---------------------------|----------------------------|
---------------------------|----------------------------|
---------------------6--8--|--8g9~------------L--8p--6--|
--8g9~------------L--------|----------------------------|
---------------------------|----------------------------|
---------------------------|----------------------------|


                  |---3--|
    H.            E  E   E     Q.      E    E.   E.   E
----------------------------|----------------------------|
----------------------------|----------------------------|
--6g8~------------L--6p--4--|--6~------8--8g9~---8~---6--|
----------------------------|----------------------------|
----------------------------|----------------------------|
----------------------------|----------------------------|


                |---3--|
  H.            E  E   E       W                    H        E  E  Q
--------------------------|----------------------|------------------------|
--------------------------|----------------------|------------------------|
--------------------------|----------------------|------------------------|
--9~------------L--9p--6--|--6g8~----------------|--L--------L-----8br----|
--------------------------|----------------------|--------------6---------|
--------------------------|----------------------|------------------------|


  Q.      E  H            Q.       E   E   E   E   E
-----------------------|------------------------------|
-----------------------|--------------------------16--|
-----------------------|--------------13--15--16------|
--8~------6--6~--------|--L------/13------------------|
-----------------------|------------------------------|
-----------------------|------------------------------|


   Q.       Q.         Q       Q.       E   E   E      E   E
----------------------------|---------------------------------|
----------------------------|---------------------------------|
--13b------13pbr------13----|--L-----------13--15--15g16--13--|
----------------------------|---------/13---------------------|
----------------------------|---------------------------------|
----------------------------|---------------------------------|


                  |---3---|
   H.             E   E   E      H.             Q          W
-----------------------------|-------------------------|---------------------|
-----------------------------|-------------------------|---------------------|
--16b~------------L--16--15--|--16~------------16br----|--15~----------------|
-----------------------------|-------------------------|---------------------|
-----------------------------|-------------------------|---------------------|
-----------------------------|-------------------------|---------------------|


                                     \1/
   H.            Q          Q.       Q.       Q
------------------------|---------------------------|
------------------------|---------------------------|
---L------------15br----|--15~------13------(13)----|
------------------------|---------------------------|
------------------------|---------------------------|
------------------------|---------------------------|


  Q.       E   E   E   E     E      Q.       Q.           Q
--------------------------------|--------------------------------|
--------------------------<>16--|--------------------------------|
--L-----------13--15--16--------|--13b------13pbr------<>13br----|
---------/13--------------------|--------------------------------|
--------------------------------|--------------------------------|
--------------------------------|--------------------------------|


                                                    |-----3----|
  Q.       E   E   E      E   E      H.             E   E      E
---------------------------------|--------------------------------|
---------------------------------|--------------------------------|
--L-----------13--15--15g16--13--|--16b~------------L--16pbr--15--|
---------/13---------------------|--------------------------------|
---------------------------------|--------------------------------|
---------------------------------|--------------------------------|


                 |---3---|                     |---3---|
   H.            E   E   E      H.             E   E   E
----------------------------|-----------------------------|
--------------------14--16--|--16b~------------L--16--14--|
--16~------------L----------|-----------------------------|
----------------------------|-----------------------------|
----------------------------|-----------------------------|
----------------------------|-----------------------------|


                        |---3---|
      Q.        Q.      E   E   E      Q.       E   E.    S     E    E
-----------------------------------|------------------------------------|
--14g16~------(16)------L--14------|--14~------16--16b---16pbr-16~--14--|
-------------------------------16--|------------------------------------|
-----------------------------------|------------------------------------|
-----------------------------------|------------------------------------|
-----------------------------------|------------------------------------|


                 |----3---|
   H.            E   E    E         W
-----------------------------|------------------------|
-----------------------------|------------------------|
--16~------------L--16p--13--|--13g15~----------------|
-----------------------------|------------------------|
-----------------------------|------------------------|
-----------------------------|------------------------|


  H        E   E     Q          Q.       E   H            W
----------------------------|--------------------------|-------------------|
----------------------------|--------------------------|-------------------|
------------------<>15br----|--15~------13--13~--------|--L----------------|
--L--------L--13------------|--------------------------|-------------------|
----------------------------|--------------------------|-------------------|
----------------------------|--------------------------|-------------------|


   W                    Q.     S S    E.   E.   E      W
---------------------|------------------------------|--------------------|
---------------------|------------------------------|--------------------|
--/8~----------------|--L------8-9-9g11~---9~---8S--|--6~----------------|
---------------------|------------------------------|--------------------|
---------------------|------------------------------|--------------------|
---------------------|------------------------------|--------------------|


  Q.     S S   E.   E.   E      W
-----------------------------|--------------------|
-----------------------------|--------------------|
--L------6-8-8g9~---8~---6S--|--4~----------------|
-----------------------------|--------------------|
-----------------------------|--------------------|
-----------------------------|--------------------|


  Q.     S S   E.   E.   E      H         H            H          Q.       E
-----------------------------|----------------------|-------------------------|
-----------------------------|----------------------|-------------------------|
--L------4-6-6g8~---6~---4S--|--6~--------8~--------|--9~--------11b------11--|
-----------------------------|----------------------|-------------------------|
-----------------------------|----------------------|-------------------------|
-----------------------------|----------------------|-------------------------|


   W                    Q.      S  S  E.     E.    E
---------------------|---------------------------------|
--16~----------------|--L------16-17-17b~---17~---16S--|
---------------------|---------------------------------|
---------------------|---------------------------------|
---------------------|---------------------------------|
---------------------|---------------------------------|


                                            |---3---|
   Q.       S  S  H            H.           E   E   E
----------------------------|--------------------------|
--14~------14----14~--------|--L------------L--14--16--|
--------------16------------|--------------------------|
----------------------------|--------------------------|
----------------------------|--------------------------|
----------------------------|--------------------------|


                  |---3---|                       |---3---|
   H.             E   E   E         H.            E   E   E
-----------------------------|-------------------------------|
--16b~------------L--16--14--|--14g16~------------L--14------|
-----------------------------|---------------------------16--|
-----------------------------|-------------------------------|
-----------------------------|-------------------------------|
-----------------------------|-------------------------------|


                                                 |----3---|
   Q.       E   E.    E.    E      H.            E   E    E
-------------------------------|-----------------------------|
--14~------16--16b---16~---14--|-----------------------------|
-------------------------------|--16~------------L--16p--13--|
-------------------------------|-----------------------------|
-------------------------------|-----------------------------|
-------------------------------|-----------------------------|


                                                      W         W
      W                    H        E  E   Q          H         H
------------------------|-------------------------|----------------------|
------------------------|-------------------------|----------------------|
--13g15~----------------|--L--------L--L--15br----|--15--------13--------|
------------------------|-------------------------|----------------------|
------------------------|-------------------------|----------------------|
------------------------|-------------------------|----------------------|


   W        W           W        W   W   W     W    W    W    W
   H        H           H        E.  E.  E     Q    Q    Q    Q
---------------------|----------------------|----------------------|
---------------------|----------------------|----------------------|
--11--------8--------|--6-------------------|-----------------6----|
---------------------|-----------9---8---6--|--6----8----9---------|
---------------------|----------------------|----------------------|
---------------------|----------------------|----------------------|


  TP    TP    TP    TP       TP    TP    TP    TP       TP    TP
  Q     Q     Q     Q        Q     Q     Q     Q        Q     H.
-------------------------|--------------------14----|--16----18b------------|
-------------------------|--------14----16----------|-----------------------|
--8----11----13----15----|--16----------------------|-----------------------|
-------------------------|--------------------------|-----------------------|
-------------------------|--------------------------|-----------------------|
-------------------------|--------------------------|-----------------------|


                                           W
   Q.        E    H             H          Q.      E
--19~------(19)\-----------|--/18~--------18------18--|
---------------------------|--------------------------|
---------------------------|--------------------------|
---------------------------|--------------------------|
---------------------------|--------------------------|
---------------------------|--------------------------|


       W                        W              W     W
   E   Q.      Q     E   E      Q.      S   S  Q     Q
--19--18------14--------14--|--16------14h-16-------------|
--------------------16------|-----------------16----14----|
----------------------------|-----------------------------|
----------------------------|-----------------------------|
----------------------------|-----------------------------|
----------------------------|-----------------------------|


   W     W         TP  TP  TP
   Q     Q     E   E   E   E
------------------------------|
--------------------------14--|
--16----15----13--15--16------|
------------------------------|
------------------------------|
------------------------------|


   T  T  T  T  T  T  T  T  T  T  T  T  T  T  T  T  T  T  T  T  T  T  T  T  T  T
--16-18-19-18-16-18-16----------------------------------------------------------|
-----------------------19-17-16-17-16-14----------14-16-17-16-14-16-14----------|
-----------------------------------------16-15-13----------------------16-15-13-|
--------------------------------------------------------------------------------|
--------------------------------------------------------------------------------|
--------------------------------------------------------------------------------|


   T  T  T  T  T  T  T  T  T  T  T  T T  T  T T T T  T T T T T  T T T T T T T T
--------------------------------------------------------------------------------|
--------------------------------------------------------------------------------|
--11-13-15-13-11-13-11----------------------------------------------------------|
-----------------------14-13-11-13-11-9---------8-9-11-9-8-9-8------------------|
----------------------------------------13-11-9----------------11-9-7-9-7-6-----|
----------------------------------------------------------------------------9-7-|


  W                     W                   W
---------------------|-------------------|-------------------|
---------------------|-------------------|-------------------|
---------------------|-------------------|-------------------|
---------------------|-------------------|-------------------|
---------------------|-------------------|-------------------|
--4\~----------------|--L----------------|--L----------------|


  W
-------------------||
-------------------||
-------------------||
-------------------||
-------------------||
--L----------------||

2nd guitar (starts from 42nd bar)

      W                    Q.     S  S     E.    E.   E      W
E||---------------------|---------------------------------|--------------------|
B||---------------------|---------------------------------|--------------------|
G||---------------------|---------------------------------|--------------------|
D||--/9~----------------|--L------9-11-11g13~---11~---9S--|--8~----------------|
A||---------------------|---------------------------------|--------------------|
E||---------------------|---------------------------------|--------------------|


  Q.     S S    E.   E.   E      W
------------------------------|--------------------|
------------------------------|--------------------|
------------------------------|--------------------|
--L------8-9-9g11~---9~---8S--|--6~----------------|
------------------------------|--------------------|
------------------------------|--------------------|


  Q.     S S   E.   E.   E      H         H             H          Q.       E
-----------------------------|----------------------|--------------------------||
-----------------------------|----------------------|--------------------------||
-----------------------------|----------------------|--------------------------||
--L------6-8-8g9~---8~---6S--|--8~--------9~--------|--11~--------13b------13--||
-----------------------------|----------------------|--------------------------||
-----------------------------|----------------------|--------------------------||

3rd guitar (starts from 49th bar)


      T  T  T  T  T  T  T  T  T  T  T  T  T  T  T  T  T  T  T  T  T  T  T  T  T
E||-----------------------------------------------------------------------------|
B||-----------------------------------------------------------------12-------12-|
G||-----------------------------------------------11-------11-13-15----15-13----|
D||-----------------------------11-------11-13-14----14-13----------------------|
A||-----------11-------11-13-14----14-13----------------------------------------|
E||--11-12-14----14-12----------------------------------------------------------|


   W                    Q.      S  S  E.     E.    E
---------------------|---------------------------------|
--12~----------------|--L------12-14-14b~---14~---12S--|
---------------------|---------------------------------|
---------------------|---------------------------------|
---------------------|---------------------------------|
---------------------|---------------------------------|


   Q.       S  S  H            W
----------------------------|-------------------||
--11~------11----11~--------|--L----------------||
--------------13------------|-------------------||
----------------------------|-------------------||
----------------------------|-------------------||
----------------------------|-------------------||


Duration Legend
---------------
W - whole
H - half
Q - quarter
E - 8th
S - 16th
T - 32nd
X - 64th
. - note dotted
|-n-|  - n-tuplets


Tablature Legend
----------------
L - tied note
x - dead note
g - grace note
(n) - ghost note
> - accentuded note
NH - natural harmonic
AH - artificial harmonic
TH - tapped harmonic
SH - semi harmonic
PH - pitch harmonic
h - hammer on
p - pull off
b - bend
br - bendRelease
pb - preBend
pbr - preBendRelease
brb - bendReleaseBend
\n/ - tremolo bar dip
\n - tremolo bar dive
-/n - tremolo bar Release up
/n\ - tremolo bar inverted dip
/n - tremolo bar return
-\n - tremolo bar Release down
S - shift slide
s - legato slide
/ -  slide into from below or out of upwards
\ -  slide into from above or out of downwards
~ - vibrato
W - wide vibrato
tr - trill
TP - tremolo picking
T - tapping
S - slap
P - pop
< - fade in
^ - brush up
v - brush down
comments
We did not receive enough feedback on this tab! Please rate:
print report bad tab
1 2 3 4 5
I want to post or [tab]
guest
You may want to rate the tab now too:
select rating
Please do not post tabs as comments. Select "correction" instead!