Oops, an error
Loading. Please wait.

Loud And Clear Tab

ver1
ver1

Intro

Whole song

Interactive

More versions @911Tabs.com
8,316 views 9 this week
3 commentsread comments
1 2 3 4 5
excellent!
x 5
Autoscroll
+/-
esc
set tempo
stop
Contributor
Difficulty
Tuning
intermediate
D# G# C# F# A# D#
Hey! There's an official Ultimate Guitar app which is ideal
for learning songs when you're away from computer. Get the app
WARNING: You are trying to view
                                    content from Ultimate-Guitar.com
                                    in an unauthorized application,
                                    which is prohibited.

                                    Please use an official Ultimate
                                    Guitar Tabs application for iPhone,
                                    iPad or Android to access legitimate
                                    chords, guitar, bass, and drum tabs
                                    from Ultimate-Guitar.com database.

                                    Type "ultimate guitar tabs" in Apple
                                    App Store's or Android Market's
                                    search to find the application.
-------------------------------------------------------------------------------
                                     LOUD AND CLEAR - Title Fight
-------------------------------------------------------------------------------
Tabbed by: RIPsteggy
Tuning: Half Step Down

Halfway through tabbing this, I realised this can be played in standard tuning as well. D'oh!
I've covered most of the lead and rhythm parts here. Enjoy. :)


INTRO (0:00)
 lead
e|-------------------------7--------7----------------------------------------|
B|-------10---------10-7-----10-7-----10-7-----------------------------------|
G|-----7----------7------------------------9---------------------------------|
D|-7-9--------7-9------------------------------------------------------------|
A|---------------------------------------------------------------------------|
E|---------------------------------------------------------------------------|

e|---------------------------------------------------------------------------|
B|-------10---------10-7---7p5-----------------------------------------------|
G|-----7----------7------------7777s9p77-------------------------------------|
D|-7-9--------7-9------------------------------------------------------------|
A|---------------------------------------------------------------------------|
E|---------------------------------------------------------------------------|

 rhythm
e|---------------------------------------------------------------------------|
B|---------------------------------------------------------------------------|
G|---------------------------------------------------------------------------|
D|-9-9-9-9----9------------5555-x5555----------------------------------------|
A|-9-9-9-9----9------------5555-x5555----------------------------------------|
E|-7-7-7-7----7(ring)------3333-x3333----------------------------------------|

e|---------------------------------------------------------------------------|
B|---------------------------------------------------------------------------|
G|---------------------------------------------------------------------------|
D|-99-9-9--9--44-4-4--4s55-5-5555--------------------------------------------|
A|-99-9-9--9--44-4-4--4s55-5-5555--------------------------------------------|
E|-77-7-7--7--22-2-2--2s33-3-3333--------------------------------------------|

-repeat INTRO-

PRE VERSE (0:19)
 rhythm
e|---------------------------------------------------------------------------|
B|---------------------------------------------------------------------------|
G|---------------------------------------------------------------------------|
D|-x9999--x9999--x9999--99---8-----------------------------------------------|
A|-x9999--x9999--x9999--99---8-----------------------------------------------|
E|-x7777--x7777--x7777--77---6(ring)-----------------------------------------|

VERSE (0:24)
 rhythm
e|---------------------------------------------------------------------------|
B|---------------------------------------------------------------------------|
G|---------------------------------------------------------------------------|
D|-99999999-55555555----9999-4444-55555555-----------------------------------|
A|-99999999-55555555----9999-4444-55555555-----------------------------------|
E|-77777777-33333333----7777-2222-33333333-----------------------------------|

e|---------------------------------------------------------------------------|
B|---------------------------------------------------------------------------|
G|-777777s99--777777s99--7777s11111111s77777777------------------------------|
D|-777777s99--777777s99--7777s11111111s77777777------------------------------|
A|-555555s77--555555s77--5555s9-9-9-9-s55555555------------------------------|
E|---------------------------------------------------------------------------|

SOLO 1 (0:43)
 lead                                rhythm
e|---------------------------------|--------------------------------|
B|-----10-----7-7h8p7--------------|--------------------------------|
G|-------------------9p7-----------|--------------------------------|
D|-7h9----7h9----------------------|-9------9999----55555555--------|
A|---------------------------------|-9------9999----55555555--------|
E|---------------------------------|-7------7777----33333333--------|

e|-------------------7-------------|--------------------------------|
B|-----10-----7-10p7---10----------|--------------------------------|
G|---------------------------------|--------------------------------|
D|-7h9----7h9----------------------|---9999----5555----7777---------|
A|---------------------------------|---9999----5555----7777---------|
E|---------------------------------|---7777----3333----5555---------|

e|---------------------------------|--------------------------------|
B|-----10-----7-7h8p7--------------|--------------------------------|
G|-------------------9p7-----------|--------------------------------|
D|-7h9----7h9----------------------|-99999999-------55555555--------|
A|---------------------------------|-99999999-------55555555--------|
E|---------------------------------|-77777777-------33333333--------|

e|---------------------------------|--------------------------------|
B|-----10-------7----6-------------|--------------------------------|
G|---------------------------------|--------------------------------|
D|-7h9----7h9----------------------|---9999----5555----7------------|
A|---------------------------------|---9999----5555----7------------|
E|---------------------------------|---7777----3333----5(ring)------|

(0:54)
e|---------------------------------|--------------------------------|
B|-7p6(x16)------------------------|--------------------------------|
G|---------------------------------|--------------------------------|
D|---------------------------------|-9------------------------------|
A|---------------------------------|-9------------------------------|
E|---------------------------------|-7(x16)-------------------------|

e|---------7-----------------------|--------------------------------|
B|-10-1010-------------------------|--------------------------------|
G|-----------7-777777--------------|-7-77--9--7-777777--------------|
D|---------------------------------|-7-77--9--7-777777--------------|
A|---------------------------------|-5-55--7--5-555555--------------|
E|---------------------------------|--------------------------------|

e|---------------------------------|--------------------------------|
B|-7p6(x8)-------------------------|--------------------------------|
G|---------------------------------|--------------------------------|
D|---------------------------------|-11-----------------------------|
A|---------------------------------|-11-----------------------------|
E|---------------------------------|-9-(x8)-------------------------|

e|---------7-----------------------|--------------------------------|
B|-10-1010-------------------------|--------------------------------|
G|-----------7-777777--------------|-7-77--9--7-777777--------------|
D|---------------------------------|-7-77--9--7-777777--------------|
A|---------------------------------|-5-55--7--5-555555--------------|
E|---------------------------------|--------------------------------|

e|---------------------------------|--------------------------------|
B|-7p6(x8)-------------------------|--------------------------------|
G|---------------------------------|--------------------------------|
D|---------------------------------|-11-----------------------------|
A|---------------------------------|-11-----------------------------|
E|---------------------------------|-9-(x8)-------------------------|


e|---------7-----------------------|--------------------------------|
B|-10-1010-------------------------|--------------------------------|
G|-----------7-777777--------------|-7-77--9--7-777777--------------|
D|---------------------------------|-7-77--9--7-777777--------------|
A|---------------------------------|-5-55--7--5-555555--------------|
E|---------------------------------|--------------------------------|

(1:13)
e|---------------------------------|--------------------------------|
B|-7------------7------------------|--------------------------------|
G|----------------7----------------|-11-11-11-11---11---------------|
D|------------------7--------------|-11-11-11-11---11---------------|
A|---------------------------------|-9--9--9--9----9-(x6)-----------|
E|---------------------------------|--------------------------------|

VERSE (1:16)
 rhythm
e|---------------------------------------------------------------------------|
B|---------------------------------------------------------------------------|
G|---------------------------------------------------------------------------|
D|-99999999-55555555----9999-4444-55555555-----------------------------------|
A|-99999999-55555555----9999-4444-55555555-----------------------------------|
E|-77777777-33333333----7777-2222-33333333-----------------------------------|

e|---------------------------------------------------------------------------|
B|---------------------------------------------------------------------------|
G|-777777s99--777777s99--7777s11111111s77777777------------------------------|
D|-777777s99--777777s99--7777s11111111s77777777------------------------------|
A|-555555s77--555555s77--5555s9-9-9-9-s55555555------------------------------|
E|---------------------------------------------------------------------------|

BRIDGE (1:34)
 lead

e|---------------------------------|
B|-------10--7---------------------|
G|-----7--------------9-7----------|
D|-7-9--------------------7h9------|
A|---------------------------------|
E|---------------------------------|

e|---------------------------------|
B|-7-------------------------------|
G|-7-------------------------------|
D|-7-------------------------------|
A|-5-------------------------------|
E|---------------------------------|

e|---------------------------------|
B|-7-------------------------------|
G|---7-----------------------------|
D|-----7b--------------------------|
A|-----------------------7-5-------|
E|---------------------------------|

e|---------------------------------|
B|-7-------------------------------|
G|-7-------------------------------|
D|-7-------------------------------|
A|---------------------------------|
E|---------------------------------|

e|---------------------------------|
B|-7-------------------------------|
G|---7-----------------------------|
D|-----7b--------------------------|
A|-----------------------7-5-------|
E|---------------------------------|

(2:17)
e|---------------------------------|
B|-7-------------------------------|
G|-7-------------------------------|
D|-7-------------------------------|
A|-5(x32)--------------------------|
E|---------------------------------|

 lead                                rhythm
e|---------------------------------|--------------------------------|
B|----10---7-----------------------|--------------------------------|
G|-77--------9-7-9-----------------|--------------------------------|
D|---------------^ let ring--------|-9999---5555--------------------|
A|-----------------on last time----|-9999---5555--------------------|
E|-(repeat x4)---------------------|-7777---3333--------------------|

e|---------------------------------|
B|-7-------------------------------|
G|-7-------------------------------|
D|-7-------------------------------|
A|-5(x32)--------------------------|
E|---------------------------------|

e|---------------------------------|--------------------------------|
B|----10---7-----------------------|--------------------------------|
G|-77--------9-7-9-----------------|--------------------------------|
D|---------------------------------|-9999---5555--------------------|
A|---------------------------------|-9999---5555--------------------|
E|-(repeat x3)---------------------|-7777---3333--------------------|

e|---------------------------------|--------------------------------|
B|----10---7-----------------------|--------------------------------|
G|-77--------9777------------------|--------------------------------|
D|---------------------------------|-9999---55----------------------|
A|---------------------------------|-9999---55----------------------|
E|---------------------------------|-7777---33----------------------|

SOLO 2 (2:43)
 lead                                rhythm
e|---------------------------------|--------------------------------|
B|-----10-----7-7h8p7--------------|--------------------------------|
G|-------------------9p7-----------|--------------------------------|
D|-7h9----7h9----------------------|-9--------------55555555--------|
A|---------------------------------|-9--------------55555555--------|
E|---------------------------------|-7--------------33333333--------|

e|-------------------7-------------|--------------------------------|
B|-----10-----7-10p7---10----------|--------------------------------|
G|---------------------------------|--------------------------------|
D|-7h9----7h9----------------------|---9999----5555----7777---------|
A|---------------------------------|---9999----5555----7777---------|
E|---------------------------------|---7777----3333----5555---------|

e|---------------------------------|--------------------------------|
B|-----10-----7-7h8p7--------------|--------------------------------|
G|-------------------9p7-----------|--------------------------------|
D|-7h9----7h9----------------------|-99999999-------55555555--------|
A|---------------------------------|-99999999-------55555555--------|
E|---------------------------------|-77777777-------33333333--------|

e|---------------------------------|--------------------------------|
B|-----10-------7-66---------------|--------------------------------|
G|---------------------------------|--------------------------------|
D|-7h9----7h9----------------------|---9999----5555----77-----------|
A|---------------------------------|---9999----5555----77-----------|
E|---------------------------------|---7777----3333----55-----------|

e|---------------------------------|--------------------------------|
B|-----10-----7-7h8p7--------------|--------------------------------|
G|-------------------9p7-----------|--------------------------------|
D|-7h9----7h9----------------------|-99999999-------55555555--------|
A|---------------------------------|-99999999-------55555555--------|
E|---------------------------------|-77777777-------33333333--------|

e|-------------------7-------------|--------------------------------|
B|-----10-----7-10p7---10----------|--------------------------------|
G|---------------------------------|--------------------------------|
D|-7h9----7h9----------------------|---9999----5555----7777---------|
A|---------------------------------|---9999----5555----7777---------|
E|---------------------------------|---7777----3333----5555---------|

e|---------------------------------|--------------------------------|
B|-----10-------7-66s0-------------|--------------------------------|
G|---------------------------------|--------------------------------|
D|-7h9----7h9----------------------|---9999----5555----77s0---------|
A|---------------------------------|---9999----5555----77s0---------|
E|---------------------------------|---7777----3333----55s0---------|


************************************

| s   slide
| h   hammer-on
| p   pull-off

************************************
comments
print report bad tab
3 comments total.
+1 reply
harm0n20 wrote on January 11 2012, 06:08 pm

Awesome tab man! One thing though, I believe it is played a half step down. Otherwise you're spot on!

+1 reply
harm0n20 wrote on January 11 2012, 06:09 pm

Oh nvm I just saw that you do have it tuned a half step down at the top. In that case EXCELLENT JOB!

0 reply
RecklessAntics wrote on January 6 2013, 12:28 pm

great tab! for solo 1 at 00:43, it is the same notes, but it is on the lower strings like this (in standard):
E|-------------------------|-----------------------|
B|-------------------------|-----------------------|
G|-----1-------------------|-----1-----------------|
D|-----------3-3-3h4p3-----|-----------3-3-6p3-8p6-|
A|-1h4---1h4-----------6-4-|-1h4---1h4-------------|
E|-------------------------|-----------------------|

E|-------------------------|-----------------------|
B|-------------------------|-----------------------|
G|-----1-------------------|-----1-----------------|
D|-----------3-3-3h4p3-----|-----------3-3-2-2-----|
A|-1h4---1h4-----------6-4-|-1h4---1h4-------------|
E|-------------------------|-----------------------|

I want to post or [tab]
guest
You may want to rate the tab now too:
select rating
Please do not post tabs as comments. Select "correction" instead!