Oops, an error
Loading. Please wait.

Shed Tab

ver2
ver2

Whole song

More versions @911Tabs.com
6,035 views 24 this week
no commentswrite comment
1 2 3 4 5
accurate
x 2
Autoscroll
+/-
esc
set tempo
stop
Contributor
Difficulty
Tuning
novice
D A D G B E
WARNING: You are trying to view
                                    content from Ultimate-Guitar.com
                                    in an unauthorized application,
                                    which is prohibited.

                                    Please use an official Ultimate
                                    Guitar Tabs application for iPhone,
                                    iPad or Android to access legitimate
                                    chords, guitar, bass, and drum tabs
                                    from Ultimate-Guitar.com database.

                                    Type "ultimate guitar tabs" in Apple
                                    App Store's or Android Market's
                                    search to find the application.
Here's my video cover of the song for help >>> http://youtu.be/oqsoK22ujZM

Tuning: Drop D

Intro

e|--------------------------------------------------------------------------|
B|--------------------------------------------------------------------------|
G|--9-9-/-11-/13------------------------------------------------------------|
D|--x-x-/-x-/-x-------------------------------------------------------------|
A|--7-7-/-9-/-11------------------------------------------------------------|
E|--------------------------------------------------------------------------|

e|--------------------------------------------------------------------------|
B|--------------------------------------------------------------------------|
G|--13--13--13--13-13b--13--13--13--13\11-11/13-----------------------------|
D|---x---x---x---x---x---x---x---x---x-\x-x/--x-----------------------------|
A|--11--11--11--11-11b--11--11--11--11-\9-9/-11-----------------------------|
E|--------------------------------------------------------------------------|

e|---------------------------------------------------------------------------|
B|---------------------------------------------------------------------------|
G|--6-6-666------------------------------------------------------------------|
D|--6-6-666--2-2-222---------------------------------------------------------|
A|--4-4-444--2-2-222---------------------------------------------------------|
E|-----------2-2-222---------------------------------------------------------|

e|--------------------------------------------------------------------------|
B|--------------------------------------------------------------------------|
G|--13--13--13--13-13b--13--13--13--13--13--13--13--13--13--13--------------|
D|---x---x---x---x---x---x---x---x---x---x---x---x---x---x---x--------------|
A|--11--11--11--11--11b-11--11--11--11--11--11--11--11--11--11--------------|
E|--------------------------------------------------------------------------|

e|---------------------------------------------------------------------------|
B|---------------------------------------------------------------------------|
G|--6-6-666------------------------------------------------------------------|
D|--6-6-666--2-2-222---------------------------------------------------------|
A|--4-4-444--2-2-222---------------------------------------------------------|
E|-----------2-2-222---------------------------------------------------------|

e|--------------------------------------------------------------------------|
B|--------------------------------------------------------------------------|
G|--13--13--13--13-13b--13--13--13--13--13--13--13--13--13--13--------------|
D|---x---x---x---x---x---x---x---x---x---x---x---x---x---x---x--------------|
A|--11--11--11--11--11b-11--11--11--11--11--11--11--11--11--11--------------|
E|--------------------------------------------------------------------------|

e|---------------------------------------------------------------------------|
B|---------------------------------------------------------------------------|
G|--6-6-666------------------------------------------------------------------|
D|--6-6-666--2-2-222---------------------------------------------------------|
A|--4-4-444--2-2-222---------------------------------------------------------|
E|-----------2-2-222---------------------------------------------------------|

e|--------------------------------------------------------------------------|
B|--------------------------------------------------------------------------|
G|--13--13--13--13-13b--13--13--13--13--13--13---2--------------------------|
D|---x---x---x---x---x---x---x---x---x---x---x---0--------------------------|
A|--11--11--11--11-11b--11--11--11--11--11--11---0--------------------------|
E|--------------------------------------------------------------------------|

e|---------------------------------------------------------------------------|
B|---------------------------------------------------------------------------|
G|--6-6-666------------2-----------------------------------------------------|
D|--6-6-666--2-2-222---0-----------------------------------------------------|
A|--4-4-444--2-2-222---0-----------------------------------------------------|
E|-----------2-2-222---------------------------------------------------------|

Verse
(Both Guitars)
e|---------------------------------------------------------------------------|
B|---------------------------------------------------------------------------|
G|--666----------------666-------000000000--77--4----------------------------|
D|--666--222222222222--666--222--222222222--77--4----------------------------|
A|--444--222222222222--444--222--222222222--55--2----------------------------|
E|-------222222222222-------222----------------------------------------------|Repeat x2
     xx   xxxxxxxxxxx   xx   xx   xxxxxxxx

e|---------------------------------------------------------------------------|
B|---------------------------------------------------------------------------|
G|----8------9------8------9------11-----------------------------------------|
D|------9------9------9------9-------9---------------------------------------|
A|--------7------7------7------7-------7-------------------------------------|
E|---------------------------------------------------------------------------|Repeat x4

e|---------------------------------------------------------------------------|
B|---------------------------------------------------------------------------|
G|--666----------------666-------000000000--77--4----------------------------|
D|--666--222222222222--666--222--222222222--77--4----------------------------|
A|--444--222222222222--444--222--222222222--55--2----------------------------|
E|-------222222222222-------222----------------------------------------------|Repeat x2
     xx   xxxxxxxxxxx   xx   xx   xxxxxxxx

Intro

e|--------------------------------------------------------------------------|
B|--------------------------------------------------------------------------|
G|--13--13--13--13-13b--13--13--13--13\11-11/13-----------------------------|
D|---x---x---x---x---x---x---x---x---x-\x-x/--x-----------------------------|
A|--11--11--11--11-11b--11--11--11--11-\9-9/-11-----------------------------|
E|--------------------------------------------------------------------------|

e|---------------------------------------------------------------------------|
B|---------------------------------------------------------------------------|
G|--6-6-666------------------------------------------------------------------|
D|--6-6-666--2-2-222---------------------------------------------------------|
A|--4-4-444--2-2-222---------------------------------------------------------|
E|-----------2-2-222---------------------------------------------------------|

e|--------------------------------------------------------------------------|
B|--------------------------------------------------------------------------|
G|--13--13--13--13-13b--13--13--13--13--13--13--13--13--13--13--------------|
D|---x---x---x---x---x---x---x---x---x---x---x---x---x---x---x--------------|
A|--11--11--11--11--11b-11--11--11--11--11--11--11--11--11--11--------------|
E|--------------------------------------------------------------------------|

e|---------------------------------------------------------------------------|
B|---------------------------------------------------------------------------|
G|--6-6-666------------------------------------------------------------------|
D|--6-6-666--2-2-222---------------------------------------------------------|
A|--4-4-444--2-2-222---------------------------------------------------------|
E|-----------2-2-222---------------------------------------------------------|

e|--------------------------------------------------------------------------|
B|--------------------------------------------------------------------------|
G|--13--13--13--13-13b--13--13--13--13--13--13--13--13--13--13--------------|
D|---x---x---x---x---x---x---x---x---x---x---x---x---x---x---x--------------|
A|--11--11--11--11--11b-11--11--11--11--11--11--11--11--11--11--------------|
E|--------------------------------------------------------------------------|

e|---------------------------------------------------------------------------|
B|---------------------------------------------------------------------------|
G|--6-6-666------------------------------------------------------------------|
D|--6-6-666--2-2-222---------------------------------------------------------|
A|--4-4-444--2-2-222---------------------------------------------------------|
E|-----------2-2-222---------------------------------------------------------|

e|--------------------------------------------------------------------------|
B|--------------------------------------------------------------------------|
G|--13--13--13--13--13b--13--13--13--13--13--13---2-------------------------|
D|---x---x---x---x---x----x---x---x---x---x---x---0-------------------------|
A|--11--11---11--11-11b--11--11--11--11--11--11---0-------------------------|
E|--------------------------------------------------------------------------|

e|---------------------------------------------------------------------------|
B|---------------------------------------------------------------------------|
G|--6-6-666------------2-----------------------------------------------------|
D|--6-6-666--2-2-222---0-----------------------------------------------------|
A|--4-4-444--2-2-222---0-----------------------------------------------------|
E|-----------2-2-222---------------------------------------------------------|


e|--------------------------------------------------------------------------|
B|--------------------------------------------------------------------------|
G|--13--13--13--13--13b--13--13--13--13--13--13---222-222-------------------|
D|---x---x---x---x---x----x---x---x---x---x---x---000-000-------------------|
A|--11--11--11--11--11b--11--11--11--11--11--11---000-000-------------------|
E|--------------------------------------------------------------------------|

e|---------------------------------------------------------------------------|
B|---------------------------------------------------------------------------|
G|--6-6-666------------222-222-----------------------------------------------|
D|--6-6-666--2-2-222---000-000-----------------------------------------------|
A|--4-4-444--2-2-222---000-000-----------------------------------------------|
E|-----------2-2-222---------------------------------------------------------|

Chorus

e|----------------------------------------------------------------------------|
B|----------------------------------------------------------------------------|
G|------8---8---8---8h9---9---9---9-------------------------------------------|
D|----------------------9---9---9---9-----------------------------------------|
A|----7---7---7---7-----------------------------------------------------------|
E|----------------------------------------------------------------------------| Repeat x4


e|---------------------------------------------------------------------------|
B|---------------------------------------------------------------------------|
G|---------------------------------------------------------------------------|
D|--2-22/4/6-66\4-------7-77/9/11-11-11\9------------------------------------|
A|--2-22/4/6-66\4-------7-77/9/11-11-11\9------------------------------------|
E|--2-22/4/6-66\4-x2----7-77/9/11-11-11\9-x2---------------------------------|Repeat x2



e|---------------------------------------------------------------------------|
B|---------------------------------------------------------------------------|
G|--666------666-----2~---666------666-----2~--------------------------------|
D|--666--2~--666-222-2~---666--2~--666-222-2~--------------------------------|
A|--444--2~--444-222-0~---444--2~--444-222-0~--------------------------------|
E|-------2~------222-----------2~------222-----------------------------------|

Verse

e|---------------------------------------------------------------------------|
B|---------------------------------------------------------------------------|
G|----8------9------8------9------11-----------------------------------------|
D|------9------9------9------9-------9---------------------------------------|
A|--------7------7------7------7-------7-------------------------------------|
E|---------------------------------------------------------------------------|Repeat x4

e|---------------------------------------------------------------------------|
B|---------------------------------------------------------------------------|
G|--666----------------666-------000000000--77--4----------------------------|
D|--666--222222222222--666--222--222222222--77--4----------------------------|
A|--444--222222222222--444--222--222222222--55--2----------------------------|
E|-------222222222222-------222----------------------------------------------|Repeat x2
     xx   xxxxxxxxxxx   xx   xx   xxxxxxxx

e|---------------------------------------------------------------------------|
B|---------------------------------------------------------------------------|
G|----8------9------8------9------11-----------------------------------------|
D|------9------9------9------9-------9---------------------------------------|
A|--------7------7------7------7-------7-------------------------------------|
E|---------------------------------------------------------------------------|Repeat x4

Bridge

e|---------------------------------------------------------------------------|
B|---------------------------------------------------------------------------|
G|---------------------------------------------------------------------------|
D|--2~-----------------------------------------------------------------------|
A|--2~-----------------------------------------------------------------------|
E|--2~-----------------------------------------------------------------------|

e|---------------------------------------------------------------------------|
B|--------------------------------9---9--------------------------------------|
G|----8---8---8---8---8h9-9---9-----9---9------------------------------------|
D|---------------------------------------------------------------------------|
A|------7---7---7---7-------7---7--------------------------------------------|
E|---------------------------------------------------------------------------|
                                                                              Repeat x2

Chorus

e|---------------------------------------------------------------------------|
B|--------------------------------9---9--------------------------------------|
G|----8---8---8---8---8h9-9---9-----9---9------------------------------------|
D|---------------------------------------------------------------------------|
A|------7---7---7---7-------7---7--------------------------------------------|
E|---------------------------------------------------------------------------|Repeat x8

e|---------------------------------------------------------------------------|
B|---------------------------------------------------------------------------|
G|---------------------------------------------------------------------------|
D|--2-22/4/6-66\4-------7-77/9/11-11-11\9------------------------------------|
A|--2-22/4/6-66\4-------7-77/9/11-11-11\9------------------------------------|
E|--2-22/4/6-66\4-x2----7-77/9/11-11-11\9-x2---------------------------------|Repeat x2

Outro


e|--------------------------------------------------------------------------|
B|--------------------------------------------------------------------------|
G|--13--13--13--13-13b--13--13--13--13\11-11/13-----------------------------|
D|---x---x---x---x---x---x---x---x---x-\x-x/--x-----------------------------|
A|--11--11--11--11-11b--11--11--11--11-\9-9/-11-----------------------------|
E|--------------------------------------------------------------------------|

e|---------------------------------------------------------------------------|
B|---------------------------------------------------------------------------|
G|--6-6-666------------------------------------------------------------------|
D|--6-6-666--2-2-222---------------------------------------------------------|
A|--4-4-444--2-2-222---------------------------------------------------------|
E|-----------2-2-222---------------------------------------------------------|


e|--------------------------------------------------------------------------|
B|--------------------------------------------------------------------------|
G|--13--13--13--13-13b--13--13--13--13---222~-------------------------------|
D|---x---x---x---x---x---x---x---x---x---222~-------------------------------|
A|--11--11--11--11-11b--11--11--11--11---000~-------------------------------|
E|--------------------------------------------------------------------------|

e|---------------------------------------------------------------------------|
B|---------------------------------------------------------------------------|
G|--6-6-666------------------------------------------------------------------|
D|--6-6-666--2-2-222---777\--------------------------------------------------|
A|--4-4-444--2-2-222---777\--------------------------------------------------|
E|-----------2-2-222---777\--------------------------------------------------|




************************************

| /   slide up
| \   slide down
| h   hammer-on
| p   pull-off
| ~   vibrato
| +   harmonic
| x   Mute note
| b   Bend
| pb  Pre-bend
| br  Bend release
| pbr Pre-bend release
| brb Bend release bend

************************************
comments
We did not receive enough feedback on this tab! Please rate:
print report bad tab
1 2 3 4 5
I want to post or [tab]
guest
You may want to rate the tab now too:
select rating
Please do not post tabs as comments. Select "correction" instead!