Oops, an error
Loading. Please wait.

Bang On The Drum All Day Bass Tab

ver1
ver1

Solo

Whole song

Interactive

More versions @911Tabs.com
5,678 views 9 this week
no commentswrite comment
1 2 3 4 5
excellent!
x 1
Autoscroll
+/-
esc
set tempo
stop
Hey! There's an official Ultimate Guitar app which is ideal
for learning songs when you're away from computer. Get the app
WARNING: You are trying to view
                                    content from Ultimate-Guitar.com
                                    in an unauthorized application,
                                    which is prohibited.

                                    Please use an official Ultimate
                                    Guitar Tabs application for iPhone,
                                    iPad or Android to access legitimate
                                    chords, guitar, bass, and drum tabs
                                    from Ultimate-Guitar.com database.

                                    Type "ultimate guitar tabs" in Apple
                                    App Store's or Android Market's
                                    search to find the application.
Picked Bass
     Q       W                   W                   W                 
G||-------|-------------------|-------------------|-------------------|
D||-------|-------------------|-------------------|-------------------|
A||-------|-------------------|-------------------|-------------------|
E||-------|-------------------|-------------------|-------------------|


  W                   W                   S S E  E  E  E  E  E  E   
-------------------|-------------------|---------------------------|
-------------------|-------------------|--0---0--------0-----------|
-------------------|-------------------|---------2--0-----2--0-----|
-------------------|-------------------|------------------------3--|


  S S E.  S E  S S S S S S S S    S S E  E  E  E  E  E  E   
-------------------------------|---------------------------|
------------0------------------|--0---0--------0-----------|
-----------------------0---0---|---------2--0-----2--0-----|
--L---3--------3---3-----------|------------------------3--|


  S S E  E  E  S S E  Q       S S E  E  E  E  E  E  E   
---------0-----------------|---------------------------|
------------0--------------|--0---0--------0-----------|
----------------------0----|---------2--0-----2--0-----|
--L---3--------3---3-------|------------------------3--|


  S S E.  S E  S S S S S S S S    S S E  E  E  E  E  E  E   
-------------------------------|---------------------------|
------------0------------------|--0---0--------0-----------|
-----------------------0---0---|---------2--0-----2--0-----|
--L---3--------3---3-----------|------------------------3--|


  S S E  E  E  S S E  S S E     S S E  E  E  E  E  E  E   
---------0-------------------|---------------------------|
------------0----------------|--0---0--------0-----------|
----------------------0---0--|---------2--0-----2--0-----|
--L---3--------3---3---------|------------------------3--|


  S S E  E  E  S S E  Q       S S E  E  E  E  E  E  E   
---------0-----------------|---------------------------|
------------0--------------|--0---0--------0-----------|
----------------------0----|---------2--0-----2--0-----|
--L---3--------3---3-------|------------------------3--|


  S S E  E  E  S S E  S S E     S S E  E  E  E  E  E  E   
---------0-------------------|---------------------------|
------------0----------------|--0---0--------0-----------|
----------------------0---0--|---------2--0-----2--0-----|
--L---3--------3---3---------|------------------------3--|


  S S E.  S E  S S S S S S S S    S S E  E  E  E  E  E  E   
-------------------------------|---------------------------|
------------0------------------|--0---0--------0-----------|
-----------------------0---0---|---------2--0-----2--0-----|
--L---3--------3---3-----------|------------------------3--|


  S S E  E  E  S S E  S S E     T E  T S E  S. T E  T E  S. S. T  
---------0-------------------|-----------------------------------|
------------0----------------|-----------------------------------|
----------------------0---0--|----0--L-----------0--L------------|
--L---3--------3---3---------|-----------0--3------------0--3----|


  T E  T S E  S S E.  S E  S S    E.  S S. T S S E  T S. S S S S  
-------------------------------|---------------------------------|
-------------------------------|---------------------------------|
----0--L----------0------------|--2----------0---2--L--------0---|
-----------0--3---------0--3---|--------2----------------2-------|


  E.  S S S S S E.  S E  T S.    E  T S. S. T S S E.  S S. T S S  
------------------------------|----------------------------------|
------------------------------|----------------------------------|
--2---------0---2-----1--L----|--0--L-------------0--------------|
--------2---------------------|----------0----3---------0----3---|


  E.  S S. T S S E.  S S. T S S    T E.  T S. T S S E.  T T S. S. S  
--------------------------------|-----------------------------------|
--------------------------------|----2----------0---2---L------0----|
--0--------------0--------------|----------2----------------2-------|
--------0----3---------0----3---|-----------------------------------|


  S S S S S S S S S S S S S S E     S S E  E  E  E  E  E  E   
--0---0--------------------------|---------------------------|
----------3---3---2---2---1---1--|--0---0--------0-----------|
---------------------------------|---------2--0-----2--0-----|
---------------------------------|------------------------3--|


  S S E  E  E  S S E  Q       S S E  E  E  E  E  E  E   
---------0-----------------|---------------------------|
------------0--------------|--0---0--------0-----------|
----------------------0----|---------2--0-----2--0-----|
--L---3--------3---3-------|------------------------3--|


  S S E  E  E  S S E  S S E     S S E  E  E  E  E  E  E   
---------0-------------------|---------------------------|
------------0----------------|--0---0--------0-----------|
----------------------0---0--|---------2--0-----2--0-----|
--L---3--------3---3---------|------------------------3--|


  S S E.  S E  S S S S S S S S    S S E  E  E  E  E  E  E   
-------------------------------|---------------------------|
------------0------------------|--0---0--------0-----------|
-----------------------0---0---|---------2--0-----2--0-----|
--L---3--------3---3-----------|------------------------3--|


  S S E  E  E  S S E  S S E     T E  T S E  S. S E  T S. S. S. T  
---------0-------------------|-----------------------------------|
------------0----------------|-----------------------------------|
----------------------0---0--|----0--L-----------0--L------------|
--L---3--------3---3---------|-----------0--3------------0--3----|


  T E  T S E  S S E.  S E  S S    E.  S S. T S S E  T S. S S S S  
-------------------------------|---------------------------------|
-------------------------------|---------------------------------|
----0--L----------0------------|--2----------0---2--L--------0---|
-----------0--3---------0--3---|--------2----------------2-------|


  E.  S S S S S E.  S E  T S.    E  T S. S. T S S E.  S S. T S S  
------------------------------|----------------------------------|
------------------------------|----------------------------------|
--2---------0---2-----1--L----|--0--L-------------0--------------|
--------2---------------------|----------0----3---------0----3---|


  E.  S S. T S S E.  S S. T S S    T E.  T S. T S S E.  T T S. S. S  
--------------------------------|-----------------------------------|
--------------------------------|----2----------0---2---L------0----|
--0--------------0--------------|----------2----------------2-------|
--------0----3---------0----3---|-----------------------------------|


  S S S S S S S S S S S S S S E     S S E  E  E  E  E  E  E   
--0---0--------------------------|---------------------------|
----------3---3---2---2---1---1--|--0---0--------0-----------|
---------------------------------|---------2--0-----2--0-----|
---------------------------------|------------------------3--|


  S S E  E  E  S S E  Q       S S E  E  E  E  E  E  E   
---------0-----------------|---------------------------|
------------0--------------|--0---0--------0-----------|
----------------------0----|---------2--0-----2--0-----|
--L---3--------3---3-------|------------------------3--|


  S S E  E  E  S S E  S S E     S S E  E  E  E  E  E  E   
---------0-------------------|---------------------------|
------------0----------------|--0---0--------0-----------|
----------------------0---0--|---------2--0-----2--0-----|
--L---3--------3---3---------|------------------------3--|


  S S E.  S E  S S S S S S S S    S S E  E  E  E  E  E  E   
-------------------------------|---------------------------|
------------0------------------|--0---0--------0-----------|
-----------------------0---0---|---------2--0-----2--0-----|
--L---3--------3---3-----------|------------------------3--|


  S S E  E  E  S S E  S S E     Q    E  E  E  E  E  E   
---------0-------------------|-------------------------|
------------0----------------|--0----------0-----------|
----------------------0---0--|-------2--0-----2--0-----|
--L---3--------3---3---------|----------------------3--|


  S S E  E  E  Q    S S E     S S E  E  E  E  E  E  E   
---------0-----------------|---------------------------|
------------0--------------|--0---0--------0-----------|
--------------------0---0--|---------2--0-----2--0-----|
--L---3--------3-----------|------------------------3--|


  S S E  E  E  Q    Q       S S S S E  E  E  E  E  E   
---------0-----0----2----|----------------------------|
------------0------------|--0---0---------0-----------|
-------------------------|----------2--0-----2--0-----|
--L---3------------------|-------------------------3--|


  S S E  E  E  S S E  Q       S S E  E  E  E  E  E  E   
---------0-----------------|---------------------------|
------------0--------------|--0---0--------0-----------|
----------------------0----|---------2--0-----2--0-----|
--L---3--------3---3-------|------------------------3--|


  S S E  E  E  E  E  E  E     S S E  E  E  E  E  E  E   
---------------------------|---------------------------|
------3--2--0--------------|--0---0--------0-----------|
---------------3--2--0-----|---------2--0-----2--0-----|
--L---------------------3--|------------------------3--|


  S S E  E  E  S S E  E  E     S S E  E  E  E  E  E  E   
---------0------------------|------------------2--1--0--|
------------0---------------|--0---0--------0-----------|
----------------------0--0--|---------2--0--------------|
--L---3--------3---3--------|---------------------------|


  E  E  E  E  Q    S S E     S S E  E  E  E  E  E  E   
--L-----------------------|---------------------------|
-----0--------------------|--0---0--------0-----------|
--------2--0-------0---0--|---------2--0-----2--0-----|
--------------3-----------|------------------------3--|


  S S E  E  E  Q    Q       S S E  E  E  E  E  E  E   
---------0---------------|---------------------------|
------------0------------|--0---0--------0-----------|
--------------------0----|---------2--0-----2--0-----|
--L---3--------3---------|------------------------3--|


  S S E  E  E  E  E  E  E     S S E  E  E  E  E  E  E   
------0--------------------|---------------------------|
---------4--3--------------|--0---0--------0-----------|
---------------3--------0--|---------2--0-----2--0-----|
--L---------------3--4-----|------------------------3--|


  S S E  E  E  Q    S S E     S S E  E  E  E   E   E   E   
---------0-----------------|------------------14--13--12--|
------------0--------------|--0---0--------0--------------|
--------------------0---0--|---------2--0-----------------|
--L---3--------3-----------|------------------------------|


  E   E  E  E  Q    Q       S S E  E  Q    E  E  E   
--L----------------------|--------------------------|
-------------------------|--0---0-------------------|
--------------------0----|---------2--0----2--0-----|
-----10--7--5--3---------|-----------------------3--|


  S S E  E  E  Q    S S E     S S E  E  E  E  E  E  E   
---------0-----------------|---------------------------|
------------0--------------|--0---0--------0-----------|
--------------------0---0--|---------2--0-----2--0-----|
--L---3--------3-----------|------------------------3--|


  S S E.  S E  S S  E  S S  E     S S E  E  E  E  E  E  E   
---------------0----0--2---14--|---------------------------|
------------0------17----------|--0---0--------0-----------|
-----------------------0---12--|---------2--0-----2--0-----|
--L---3--------3---------------|------------------------3--|


  S S E  E  E  S S E  Q       S S E  E  E  E  E  E  E   
---------0-----------------|---------------------------|
------------0--------------|--0---0--------0-----------|
----------------------0----|---------2--0-----2--0-----|
--L---3--------3---3-------|------------------------3--|


  S S E  E  E  S S E  S S E     S S E  E  E  E  E  E  E   
---------0-------------------|---------------------------|
------------0----------------|--0---0--------0-----------|
----------------------0---0--|---------2--0-----2--0-----|
--L---3--------3---3---------|------------------------3--|


  S S E.  S E  S S S S S S S S    S S E  E  E  E  E  E  E   
-------------------------------|---------------------------|
------------0------------------|--0---0--------0-----------|
-----------------------0---0---|---------2--0-----2--0-----|
--L---3--------3---3-----------|------------------------3--|


  S S E  E  E  S S E  S S E     T E  T S E  S. T E  T E  S. S. T  
---------0-------------------|-----------------------------------|
------------0----------------|-----------------------------------|
----------------------0---0--|----0--L-----------0--L------------|
--L---3--------3---3---------|-----------0--3------------0--3----|


  E  T S. E  S S E.  S E  S S    E.  S S. T S S E  T S. S S S S  
------------------------------|---------------------------------|
------------------------------|---------------------------------|
--0--L-----------0------------|--2----------0---2--L--------0---|
----------0--3---------0--3---|--------2----------------2-------|


  E.  S S S S S E.  S E  T S.    E  T S. S. T S S E.  S S. T S S  
------------------------------|----------------------------------|
------------------------------|----------------------------------|
--2---------0---2-----1--L----|--0--L-------------0--------------|
--------2---------------------|----------0----3---------0----3---|


  E.  S. S. S S E.  S S. T S S    E.  S S. T S S E.  T T S. S. S  
-------------------------------|---------------------------------|
-------------------------------|--2----------0---2---L------0----|
--0-------------0--------------|--------2----------------2-------|
---------0--3---------0----3---|---------------------------------|


  S S S S S S S S S S S S S S E     S S E  E  E  E  E  E  E   
--0---0--------------------------|---------------------------|
----------3---3---2---2---1---1--|--0---0--------0-----------|
---------------------------------|---------2--0-----2--0-----|
---------------------------------|------------------------3--|


  S S E  E  E  S S E  Q       S S E  E  E  E  E  E  E   
---------0-----------------|---------------------------|
------------0--------------|--0---0--------0-----------|
----------------------0----|---------2--0-----2--0-----|
--L---3--------3---3-------|------------------------3--|


  S S E  E  E  S S E  S S E     S S E  E  E  E  E  E  E   
---------0-------------------|---------------------------|
------------0----------------|--0---0--------0-----------|
----------------------0---0--|---------2--0-----2--0-----|
--L---3--------3---3---------|------------------------3--|


  S S E.  S E  S S S S S S S S    S S E  E  E  E  E  E  E   
-------------------------------|---------------------------|
------------0------------------|--0---0--------0-----------|
-----------------------0---0---|---------2--0-----2--0-----|
--L---3--------3---3-----------|------------------------3--|


  S S E  E  E  S S E  S S E     S S E  E  E  E  E  E  E   
---------0-------------------|---------------------------|
------------0----------------|--0---0--------0-----------|
----------------------0---0--|---------2--0-----2--0-----|
--L---3--------3---3---------|------------------------3--|


  S S E  E  E  S S E  Q       S S E  E  E  E  E  E  E   
---------0-----------------|---------------------------|
------------0--------------|--0---0--------0-----------|
----------------------0----|---------2--0-----2--0-----|
--L---3--------3---3-------|------------------------3--|


  S S E  E  E  S S E  Q       S S E  E  E  E  E  E  E   
---------0-----------------|---------------------------|
------------0--------------|--0---0--------0-----------|
----------------------0----|---------2--0-----2--0-----|
--L---3--------3---3-------|------------------------3--|


  S S E.  S E  S S S S S S S S    S S E  E  E  E  E  E  E   
-------------------------------|---------------------------|
------------0------------------|--0---0--------0-----------|
-----------------------0---0---|---------2--0-----2--0-----|
--L---3--------3---3-----------|------------------------3--|


  S S E  E  E  S S E  Q       S S E  E  E  E  E  E  E   
---------0-----------------|---------------------------|
------------0--------------|--0---0--------0-----------|
----------------------0----|---------2--0-----2--0-----|
--L---3--------3---3-------|------------------------3--|


  S S E  E  E  S S E  Q       S S E  E  E  E  E  E  E   
---------0-----------------|---------------------------|
------------0--------------|--0---0--------0-----------|
----------------------0----|---------2--0-----2--0-----|
--L---3--------3---3-------|------------------------3--|


  S S E  E  E  S S E  Q       S S E  E  E  E  E  E  E   
---------0-----------------|---------------------------|
------------0--------------|--0---0--------0-----------|
----------------------0----|---------2--0-----2--0-----|
--L---3--------3---3-------|------------------------3--|


  S S E.  S E  S S S S S S S S    S S E  E  E  E  E  E  E   
-------------------------------|---------------------------|
------------0------------------|--0---0--------0-----------|
-----------------------0---0---|---------2--0-----2--0-----|
--L---3--------3---3-----------|------------------------3--|


  S S. S. S S. E  S. S S E  S. T    H.           E  E     E.  H        Q    S   
---------------------------------|---------------------|----------------------||
---------------------------------|--0------------L-----|--0-------------------||
------------------0----0----0----|---------------------|----------------------||
--L----3----3--------------------|---------------------|----------------------||




Duration Legend
---------------
W - whole
H - half
Q - quarter
E - 8th
S - 16th
T - 32nd
X - 64th
. - note dotted
|-n-|  - n-tuplets


Tablature Legend
----------------
L - tied note
x - dead note
g - grace note
(n) - ghost note
> - accentuded note
NH - natural harmonic
AH - artificial harmonic
TH - tapped harmonic
SH - semi harmonic
PH - pitch harmonic
h - hammer on
p - pull off
b - bend
br - bendRelease
pb - preBend
pbr - preBendRelease
brb - bendReleaseBend
\n/ - tremolo bar dip
\n - tremolo bar dive
-/n - tremolo bar Release up
/n\ - tremolo bar inverted dip
/n - tremolo bar return
-\n - tremolo bar Release down
S - shift slide
s - legato slide
/ -  slide into from below or out of upwards
\ -  slide into from above or out of downwards
~ - vibrato
W - wide vibrato
tr - trill
TP - tremolo picking
T - tapping
S - slap
P - pop
< - fade in
^ - brush up
v - brush down
comments
We did not receive enough feedback on this tab! Please rate:
print report bad tab
1 2 3 4 5
I want to post or [tab]
guest
You may want to rate the tab now too:
select rating
Please do not post tabs as comments. Select "correction" instead!