Oops, an error
Loading. Please wait.

Favourite Colour Bass Tab

784 views 3 this week
1 commentread comment
1 2 3 4 5
accurate
x 2
Autoscroll
+/-
esc
set tempo
stop
Contributor
Difficulty
novice
WARNING: You are trying to view
                                    content from Ultimate-Guitar.com
                                    in an unauthorized application,
                                    which is prohibited.

                                    Please use an official Ultimate
                                    Guitar Tabs application for iPhone,
                                    iPad or Android to access legitimate
                                    chords, guitar, bass, and drum tabs
                                    from Ultimate-Guitar.com database.

                                    Type "ultimate guitar tabs" in Apple
                                    App Store's or Android Market's
                                    search to find the application.
-------------------------------------------------------------------------------
                             FAVOURITE COLOUR - Tokyo Police Club
-------------------------------------------------------------------------------
Tabbed by: Michael
Email: mmcguire1095@yahoo.com

This is a really cool song by a great band. No one had the tab up, so I figured
I'd just do it myself.This is my first real tab, so go easy on me. It may not be
perfect, so any suggestions/corrections are welcome. But, it should be
correct for the most part.


Tuning: Standard

INTRO
G|---------------------------------------------------------------------------|
D|---------------------------------------------------------------------------|
A|-11-8-6-4-1----------------------------------------------------------------|
E|-------------4-------------------------------------------------------------|

VERSE 1 (played 4 times)
G|---------------------------------------------------------------------------|
D|---------------------------------------------------------------------------|
A|-----------------------------------8-8-8-8-8-8-8-8-8--4-4-4-4-4-4-4-4------|
E|-4-4-4-4-4-4-4-4-4-4-4-4-4-4-4-4-------------------------------------------|

CHORUS (played 2 times)
G|---------------------------------------------------------------------------|
D|---------------------------------------------------------------------------|
A|----------------6---4-4-4---4-4-4--6--6------------------------------------|
E|-4-4-4---4-4-4-------------------------------------------------------------|

INTRO (played after 1st chorus)
G|---------------------------------------------------------------------------|
D|---------------------------------------------------------------------------|
A|-11-8-6-4-1----------------------------------------------------------------|
E|-------------4-------------------------------------------------------------|

VERSE 2 (played 2 times)
G|---------------------------------------------------------------------------|
D|---------------------------------------------------------------------------|
A|-----------------------------------8-8-8-8-8-8-8-8-8--4-4-4-4-4-4-4-4------|
E|-4-4-4-4-4-4-4-4-4-4-4-4-4-4-4-4-------------------------------------------|

FILL 
G|---------------------------------------------------------------------------|
D|-10-10-10-10-10-10-10-10-13-13-13-13-13-13-13-13---------------------------|
A|---------------------------------------------------------------------------|
E|---------------------------------------------------------------------------|

VERSE 3 (played 2 times)
G|---------------------------------------------------------------------------|
D|---------------------------------------------------------------------------|
A|-----------------------------------8-8-8-8-8-8-8-8-8--4-4-4-4-4-4-4-4------|
E|-4-4-4-4-4-4-4-4-4-4-4-4-4-4-4-4-------------------------------------------|

CHORUS 2 (played 3 times)
G|---------------------------------------------------------------------------|
D|---------------------------------------------------------------------------|
A|----------------6---4-4-4---4-4-4--6--6------------------------------------|
E|-4-4-4---4-4-4-------------------------------------------------------------|

FILL (leading into solo)
G|---------------------------------------------------------------------------|
D|-10-10-10-10-10-10-10-10-13-13-13-13-13-13-13-13---------------------------|
A|---------------------------------------------------------------------------|
E|---------------------------------------------------------------------------|

SOLO (same thing as verse)
G|---------------------------------------------------------------------------|
D|---------------------------------------------------------------------------|
A|-----------------------------------8-8-8-8-8-8-8-8-8--4-4-4-4-4-4-4-4------|
E|-4-4-4-4-4-4-4-4-4-4-4-4-4-4-4-4-------------------------------------------|

CHORUS 3 (played 4 times)
G|---------------------------------------------------------------------------|
D|---------------------------------------------------------------------------|
A|----------------6---4-4-4---4-4-4--6--6------------------------------------|
E|-4-4-4---4-4-4-------------------------------------------------------------|

FILL
G|---------------------------------------------------------------------------|
D|-10-10-10-10-10-10-10-10-13-13-13-13-13-13-13-13---------------------------|
A|---------------------------------------------------------------------------|
E|---------------------------------------------------------------------------|

OUTRO
G|---------------------------------------------------------------------------|
D|---------------------------------------------------------------------------|
A|-11-8-6-4-1----------------------------------------------------------------|
E|-------------4-------------------------------------------------------------|


| /  slide up
| \  slide down
| h  hammer-on
| p  pull-off
| ~  vibrato
| +  harmonic
| x  Mute note
===============================================================================
comments
We did not receive enough feedback on this tab! Please rate:
1 2 3 4 5
1 comment total.
0 reply
fleet13 wrote on May 17 2013, 10:35 am

G|---------------------------------------|
D|13-10----------------------------------|
A|------13-11----------------------------|
E|-------------13-11---------------------|

G|---------------------------------------------------|
D|--6666-6666------------------6666------------------|
A|------------8888-4444------------8888-4444-4444----|
E|---------------------------------------------------|

G|---------------------------------------------------|
D|--6-6-6---6-6-6------------------------------------|
A|----------------6-4-4-4---4-4-4-6-6----------------|
E|---------------------------------------------------|

and then the last verse is different but couldn't work it out, would be glad if someone does that

I want to post or [tab]
guest
You may want to rate the tab now too:
select rating
Please do not post tabs as comments. Select "correction" instead!