Oops, an error
Loading. Please wait.

Dont Do Me Like That Tab

ver1
ver1

Whole song

Interactive

More versions @911Tabs.com
10,530 views 6 this week
no commentswrite comment
1 2 3 4 5
excellent!
x 5
Autoscroll
+/-
esc
set tempo
stop
Contributor
Difficulty
novice
Hey! There's an official Ultimate Guitar app which is ideal
for learning songs when you're away from computer. Get the app
WARNING: You are trying to view
                                    content from Ultimate-Guitar.com
                                    in an unauthorized application,
                                    which is prohibited.

                                    Please use an official Ultimate
                                    Guitar Tabs application for iPhone,
                                    iPad or Android to access legitimate
                                    chords, guitar, bass, and drum tabs
                                    from Ultimate-Guitar.com database.

                                    Type "ultimate guitar tabs" in Apple
                                    App Store's or Android Market's
                                    search to find the application.
-------------------------------------------------------------------------------
         "Don't Do Me Like That" --- Tom Petty And The Heartbreakers
-------------------------------------------------------------------------------

				
			Tabbed by: [travis]


Tuning: Standard Tuning === E A D G B E (low to high)


Key: G Major === G A B C D E F#


Legend:

... = palm mute
h = hammer on
p = pull off
b = bend
/ = slide up
\ = slide down
__ = hold bend
~ = vibrato
x = muffled string (muted with fret hand)
.5 = half step
1 = whole step
() = note not picked / bent note back to normal
* = pinch harmonic
" = harmonic
h/ = pick first note only
p\ = pick first note only


==========================================
Intro:

Guitars 1 and 2:
e|-3----3-------3----3---------3----3--------------------|
B|-3----3-------1----1---------3----3--------7-----7~~~~-|
G|-4----4-------2----2---------5----5--------7-----7~~~~-|
D|-5----5-------x----x---------5----5--------7-----7~~~~-| x2
A|-5----5-------3----3---------3----3--------5-----5~~~~-|
E|-3----3-------1----1-----------------------------------|

End of Intro.
==========================================
Verse 1:

Guitars 1 and 2:
e|-3----3-------3----3---------3----3--------------------|
B|-3----3-------1----1---------3----3--------7-----7~~~~-|
G|-4----4-------2----2---------5----5--------7-----7~~~~-|
D|-5----5-------x----x---------5----5--------7-----7~~~~-| x2
A|-5----5-------3----3---------3----3--------5-----5~~~~-|
E|-3----3-------1----1-----------------------------------|

End of Verse 1.
==========================================
Chorus 1:

Guitars 1 and 2:
e|-3-----3---------x--x-x--3----3----------------------------------------------|
B|-3-----3---------x--x-x--1----1-------8~~--8~~--8----------------------------|
G|-4-----4---------x--x-x--2----2-------7~~--7~~--7----5----5-5--7----7----7---|
D|-5-----5-----------------x----x-------9~~--9~~--9----5----5-5--7----7----7---|
A|-5-----5-----------------3----3-------7~~--7~~--7----5h7--5-7--7h9----9--9---|
E|-3-----3-----------------1----1-------0~~--0~~--0----------------------------|

Guitar 3:
e|----------------------------------------|
B|------------8~~---------------------8~~-|
G|--------7h9---------------------7h9-----|
D|----------------------------------------|
A|----------------------------------------|
E|----------------------------------------|

==========================================
Guitars 1 and 2:
e|-3-----3---------x--x-x--3----3----------------------------------------------|
B|-3-----3---------x--x-x--1----1-------8~~--8~~--8----------------------------|
G|-4-----4---------x--x-x--2----2-------7~~--7~~--7----5----5-5--7----7----7---|
D|-5-----5-----------------x----x-------9~~--9~~--9----5----5-5--7----7----7---|
A|-5-----5-----------------3----3-------7~~--7~~--7----5h7--5-7--7h9----9--9---|
E|-3-----3-----------------1----1-------0~~--0~~--0----------------------------|

Guitar 3:
e|-----------------------------------------------|
B|--------------8~~------------------8-----8~~~~-|
G|----------7h9------------------7h9---7h9-------|
D|-----------------------------------------------|
A|-----------------------------------------------|
E|-----------------------------------------------|

End of Chorus 1.
===========================================
Verse 2:

Guitars 1 and 2:
e|-3----3-------3----3---------3----3--------------------|
B|-3----3-------1----1---------3----3--------7-----7~~~~-|
G|-4----4-------2----2---------5----5--------7-----7~~~~-|
D|-5----5-------x----x---------5----5--------7-----7~~~~-|
A|-5----5-------3----3---------3----3--------5-----5~~~~-|
E|-3----3-------1----1-----------------------------------|

Guitar 3:
e|-------------------------------------|
B|----------------------------------8--|
G|-7h9~~~~~~~~~~~~~~~~~~~----7--7h9----|
D|-----------------------7h9-----------|
A|-------------------------------------|
E|-------------------------------------|

===========================================
Guitars 1 and 2:
e|-3----3-------3----3---------3----3--------------------|
B|-3----3-------1----1---------3----3--------7-----7~~~~-|
G|-4----4-------2----2---------5----5--------7-----7~~~~-|
D|-5----5-------x----x---------5----5--------7-----7~~~~-|
A|-5----5-------3----3---------3----3--------5-----5~~~~-|
E|-3----3-------1----1-----------------------------------|

Guitar 3:
                   1_____               1___________
e|------------------------------------------12-------------------|
B|-8~~~~~~~~~~~~~10b~~~~~---10~~~~~~~-10b-------10--(10)--8~~~~~~|
G|---------------------------------------------------------------|
D|---------------------------------------------------------------|
A|---------------------------------------------------------------|
E|---------------------------------------------------------------|

End of Verse 2.
===========================================
Chorus 2:

Guitars 1 and 2:
e|-3-----3---------x--x-x--3----3----------------------------------------------|
B|-3-----3---------x--x-x--1----1-------8~~--8~~--8----------------------------|
G|-4-----4---------x--x-x--2----2-------7~~--7~~--7----5----5-5--7----7----7---|
D|-5-----5-----------------x----x-------9~~--9~~--9----5----5-5--7----7----7---|
A|-5-----5-----------------3----3-------7~~--7~~--7----5h7--5-7--7h9----9--9---|
E|-3-----3-----------------1----1-------0~~--0~~--0----------------------------|

Guitar 3:
e|----------------------------------------|
B|------------8~~---------------------8~~-|
G|--------7h9---------------------7h9-----|
D|----------------------------------------|
A|----------------------------------------|
E|----------------------------------------|

============================================
Guitars 1 and 2:
e|-3-----3---------x--x-x--3----3----------------------------------------------|
B|-3-----3---------x--x-x--1----1-------8~~--8~~--8----------------------------|
G|-4-----4---------x--x-x--2----2-------7~~--7~~--7----5----5-5--7----7----7---|
D|-5-----5-----------------x----x-------9~~--9~~--9----5----5-5--7----7----7---|
A|-5-----5-----------------3----3-------7~~--7~~--7----5h7--5-7--7h9----9--9---|
E|-3-----3-----------------1----1-------0~~--0~~--0----------------------------|

Guitar 3:
e|-----------------------------------------------|
B|--------------8~~------------------8-----8~~~~-|
G|----------7h9------------------7h9---7h9-------|
D|-----------------------------------------------|
A|-----------------------------------------------|
E|-----------------------------------------------|

End of Chorus 2.
=============================================
Bridge:

Guitars 1 and 2:
e|--------------------------|
B|-----------------5~~~~~~~~|
G|-----------------5~~~~~~~~|
D|-5-5-5-5-5-5-5-5-5~~~~~~~~|
A|-5-5-5-5-5-5-5-5-3~~~~~~~~|
E|-3-3-3-3-3-3-3-3----------|

Guitar 3:
e|--------8----6----5----3-|
B|-------------------------|
G|-x-x-/9---/7---/5---/3---|
D|-------------------------|
A|-------------------------|
E|-------------------------|

==============================================
Guitars 1 and 2:
e|------------------------------|
B|-----------------5~~~~~-5--5--|
G|-----------------5~~~~~-5--5--|
D|-5-5-5-5-5-5-5-5-5~~~~~-5--5--|
A|-5-5-5-5-5-5-5-5-3~~~~~-3--3--|
E|-3-3-3-3-3-3-3-3--------------|

Guitar 3:
e|--------8----6----5----3-|
B|-------------------------|
G|-x-x-/9---/7---/5---/3---|
D|-------------------------|
A|-------------------------|
E|-------------------------|

==============================================
Guitars 1 and 2:
e|-------------------------------|
B|-----------------5~~~~-5-5-5-5-|
G|-----------------5~~~~-5-5-5-5-|
D|-5-5-5-5-5-5-5-5-5~~~~-5-5-5-5-|
A|-5-5-5-5-5-5-5-5-3~~~~-3-3-3-3-|
E|-3-3-3-3-3-3-3-3---------------|

Guitar 3:
e|--------8----6----5----3-|
B|-------------------------|
G|-x-x-/9---/7---/5---/3---|
D|-------------------------|
A|-------------------------|
E|-------------------------|

==============================================
Guitars 1 and 2:
e|----------------------2~~~~~~~~~-|
B|-4~~~~~~~~~~~---------3~~~~~~~~~-|
G|-5~~~~~~~~~~~---------2~~~~~~~~~-|
D|-5~~~~~~~~~~~---------0~~~~~~~~~-|
A|-3~~~~~~~~~~~--------------------|
E|---------------------------------|

Guitar 3:
e|----------------------2~~~~~~~~~-|
B|-4~~~~---4~~~~----x---3~~~~~~~~~-|
G|-5~~~~---5~~~~----x---2~~~~~~~~~-|
D|-5~~~~---5~~~~----x---0~~~~~~~~~-|
A|-3~~~~---3~~~~--------0~~~~~~~~~-|
E|---------------------------------|

End of Bridge.
==============================================
Verse 3:

Guitars 1 and 2:
e|-3----3-------3----3---------3----3--------------------|
B|-3----3-------1----1---------3----3--------7-----7~~~~-|
G|-4----4-------2----2---------5----5--------7-----7~~~~-|
D|-5----5-------x----x---------5----5--------7-----7~~~~-|
A|-5----5-------3----3---------3----3--------5-----5~~~~-|
E|-3----3-------1----1-----------------------------------|

Guitar 3:
e|---------------------------------|
B|------------------------------10-|
G|-7h9~~~~~~~~~~~~~~~~~~~---7h9----|
D|---------------------------------|
A|---------------------------------|
E|---------------------------------|

===========================================
Guitars 1 and 2:
e|-3----3-------3----3---------3----3--------------------|
B|-3----3-------1----1---------3----3--------7-----7~~~~-|
G|-4----4-------2----2---------5----5--------7-----7~~~~-|
D|-5----5-------x----x---------5----5--------7-----7~~~~-|
A|-5----5-------3----3---------3----3--------5-----5~~~~-|
E|-3----3-------1----1-----------------------------------|

Guitar 3:
e|-------------------------|
B|-8~~~~~~~~~~~~~~~~~~~~~~~|
G|-------------------------|
D|-------------------------|
A|-------------------------|
E|-------------------------|

End of Verse 3.
===========================================
Chorus 3:

Guitars 1 and 2:
e|-3-----3---------x--x-x--3----3----------------------------------------------|
B|-3-----3---------x--x-x--1----1-------8~~--8~~--8----------------------------|
G|-4-----4---------x--x-x--2----2-------7~~--7~~--7----5----5-5--7----7----7---|
D|-5-----5-----------------x----x-------9~~--9~~--9----5----5-5--7----7----7---|
A|-5-----5-----------------3----3-------7~~--7~~--7----5h7--5-7--7h9----9--9---|
E|-3-----3-----------------1----1-------0~~--0~~--0----------------------------|

Guitar 3:
e|----------------------------------------|
B|------------8~~---------------------8~~-|
G|--------7h9---------------------7h9-----|
D|----------------------------------------|
A|----------------------------------------|
E|----------------------------------------|

============================================
Guitars 1 and 2:
e|-3-----3---------x--x-x--3----3----------------------------------------------|
B|-3-----3---------x--x-x--1----1-------8~~--8~~--8----------------------------|
G|-4-----4---------x--x-x--2----2-------7~~--7~~--7----5----5-5--7----7----7---|
D|-5-----5-----------------x----x-------9~~--9~~--9----5----5-5--7----7----7---|
A|-5-----5-----------------3----3-------7~~--7~~--7----5h7--5-7--7h9----9--9---|
E|-3-----3-----------------1----1-------0~~--0~~--0----------------------------|

Guitar 3:
e|-----------------------------------------------|
B|--------------8~~------------------8-----8~~~~-|
G|----------7h9------------------7h9---7h9-------|
D|-----------------------------------------------|
A|-----------------------------------------------|
E|-----------------------------------------------|

End of Chorus 3.
============================================
Outro:

Guitars 1 and 2:
e|-3-----3---------x--x-x--3----3----------------------------------------------|
B|-3-----3---------x--x-x--1----1-------8~~--8~~--8----------------------------|
G|-4-----4---------x--x-x--2----2-------7~~--7~~--7----5----5-5--7----7----7---|
D|-5-----5-----------------x----x-------9~~--9~~--9----5----5-5--7----7----7---|
A|-5-----5-----------------3----3-------7~~--7~~--7----5h7--5-7--7h9----9--9---|
E|-3-----3-----------------1----1-------0~~--0~~--0----------------------------|

Guitar 3:
e|----------------------------------------|
B|------------8~~---------------------8~~-|
G|--------7h9---------------------7h9-----|
D|----------------------------------------|
A|----------------------------------------|
E|----------------------------------------|

Guitar 4:
e|-------------------------------------------------|
B|-8-x-x-x-x-8-x-x-8-8-x-x-8-x-x-x-x-8-x-x-8-8-x-x-|
G|-x-x-x-x-x-x-x-x-x-x-x-x-x-x-x-x-x-x-x-x-x-x-x-x-|
D|-5-x-x-x-x-5-x-x-5-5-x-x-5-x-x-x-x-5-x-x-5-5-x-x-|
A|-------------------------------------------------|
E|-------------------------------------------------|

===========================================
Guitars 1 and 2:
e|-3-----3---------x--x-x--3----3----------------------------------------------|
B|-3-----3---------x--x-x--1----1-------8~~--8~~--8----------------------------|
G|-4-----4---------x--x-x--2----2-------7~~--7~~--7----5----5-5--7----7----7---|
D|-5-----5-----------------x----x-------9~~--9~~--9----5----5-5--7----7----7---|
A|-5-----5-----------------3----3-------7~~--7~~--7----5h7--5-7--7h9----9--9---|
E|-3-----3-----------------1----1-------0~~--0~~--0----------------------------|

Guitar 4:
e|-------------------------------------------------|
B|-8-x-x-x-x-8-x-x-8-8-x-x-8-x-x-x-x-8-x-x-8-8-x-x-|
G|-x-x-x-x-x-x-x-x-x-x-x-x-x-x-x-x-x-x-x-x-x-x-x-x-|
D|-5-x-x-x-x-5-x-x-5-5-x-x-5-x-x-x-x-5-x-x-5-5-x-x-|
A|-------------------------------------------------|
E|-------------------------------------------------|


**Guitars 1, 2, and 4 keep repeating until the song fades out.




Guitar 3: 
e|-------------------------------------------------------------|
B|-----8-----8~~~~~~-----8-----8~~~~~~----8-----8-8~~~~~~~~~~~~|
G|-7h9---7h9---------7h9---7h9--------7h9---7h9----------------|
D|-------------------------------------------------------------|
A|-------------------------------------------------------------|
E|-------------------------------------------------------------|

Guitar 3:
e|-----------------------------------------------------------------------------|
B|-----8-----8-----8-----8-----8--8-8-8--8-8--8-8~~8-8~~----8-8--8-8--8-8~~8-8-|
G|-7h9---7h9---7h9---7h9---7h9--------------------------7h9--------------------|
D|-----------------------------------------------------------------------------|
A|-----------------------------------------------------------------------------|
E|-----------------------------------------------------------------------------|


Please Rate And Comment.
[travis]
comments
print report bad tab
I want to post or [tab]
guest
You may want to rate the tab now too:
select rating
Please do not post tabs as comments. Select "correction" instead!