Oops, an error
Loading. Please wait.

Listen To Her Heart Tab

ver2
ver2

Solo

Whole song

More versions @911Tabs.com
4,247 views 12 this week
no commentswrite comment
1 2 3 4 5
excellent!
x 2
Autoscroll
+/-
esc
set tempo
stop
Contributor
Difficulty
intermediate
WARNING: You are trying to view
                                    content from Ultimate-Guitar.com
                                    in an unauthorized application,
                                    which is prohibited.

                                    Please use an official Ultimate
                                    Guitar Tabs application for iPhone,
                                    iPad or Android to access legitimate
                                    chords, guitar, bass, and drum tabs
                                    from Ultimate-Guitar.com database.

                                    Type "ultimate guitar tabs" in Apple
                                    App Store's or Android Market's
                                    search to find the application.
------------------------------------------------------------------------------- 
           "Listen To Her Heart" --- Tom Petty And The Heartbreakers
-------------------------------------------------------------------------------

Tabbed by: [travis]


Tuning: Standard === E A D G B E (low to high)


Key: A Major === A B C# D E F# G#


Legend:

... = palm mute
h = hammer on
p = pull off
/ = slide up
\ = slide down
b = bend
__ = hold bend
.5 = half step
1 = whole step
1.5 = step and half
2 = two steps
~ = vibrato / ring
() = note not picked / bent note back to normal
x = muffled string (muted with fret hand lightly)
* = harmonic



===================================================
Intro:

Guitar 1:
e|----0--0-0-----0--0----0-0----0--0-0-----0--0~~~~-|
B|----2--2-0-----0--0----0-2----2--2-0-----0--2~~~~-|
G|-2----------2-------2-------2---------2-----2~~~~-|
D|-2----------2---------------2---------2-----2~~~~-|
A|-0--------------------------0---------------0~~~~-|
E|--------------------------------------------------|

Guitar 2:
e|----0--0-0-----0--0----0-0----0--0-0-----0--------|
B|----2--2-0-----0--0----0-2----2--2-0-----0--------|
G|--------------------2-----------------------------|
D|-2----------2-------------------------2-----2~~~~-|
A|-0--------------------------0---------------------|
E|--------------------------------------------------|

====================================================
Guitar 1:
e|----0--0-0-----0--0----0-0----0--0-0--00-0-00-0-00-0-00-0-00-|
B|----2--2-0-----0--0----0-2----2--2-0--00-0-00-0-00-0-00-0-00-|
G|-2----------2-------2-------2---------22-2-22-2-22-2-22-2-22-|
D|-2----------2---------------2---------22-2-22-2-22-2-22-2-22-|
A|-0--------------------------0---------00-0-00-0-00-0-00-0-00-|
E|-------------------------------------------------------------|

Guitar 2:
e|----0--0-0-----0--0----0-0----0--0-0-----0-0-0---0-0-0---|
B|----2--2-0-----0--0----0-2----2--2-0-----2-0-0-2-2-0-0---|
G|--------------------2-----------------22-------2-------0-|
D|-2----------2-------------------------22---------------0-|
A|-0--------------------------0----------------------------|
E|---------------------------------------------------------|

====================================================
Guitar 1:
e|-5~~~~-----------5-5-55--5~~~~~~~-----5-55-5-55-|
B|-5~~~~-----------5-5-55--5~~~~~~~-----5-55-5-55-|
G|-2~~~~-----------2-2-22--2~~~~~~~-----2-22-2-22-|
D|-2~~~~-----------2-2-22--2~~~~~~~-----2-22-2-22-| x2
A|-0~~~~-----------0-0-00--0~~~~~~~-----0-00-0-00-|
E|------------------------------------------------|

Guitar 2:
e|------------------------------------------------------|
B|------------------------------------------------------|
G|-2--2--2--2--2--2-----------2--2--2--2--2--2----------|
D|-2--2--2--2--2--2-----------2--2--2--2--2--2----------| x2
A|-0--0--0--0--0--0--4-0-5-4--0--0--0--0--0--0--4-0-5-4-|
E|------------------------------------------------------|

End of Intro.
===================================================
Verse 1:

Guitar 1:
e|---------------------------------|
B|---------------------------------|
G|-2~~~~~~~~~~----2-2~~~~~~~~----2-|
D|-2~~~~~~~~~~----2-2~~~~~~~~----2-| x3
A|-0~~~~~~~~~~----0-0~~~~~~~~----0-|
E|---------------------------------|

Guitar 2:
e|------------------------------------------------------|
B|------------------------------------------------------|
G|-2--2--2--2--2--2-----------2--2--2--2--2--2----------|
D|-2--2--2--2--2--2-----------2--2--2--2--2--2----------| x3
A|-0--0--0--0--0--0--4-0-5-4--0--0--0--0--0--0--4-0-5-4-|
E|------------------------------------------------------|

====================================================
Guitar 1:
e|---------------------------------|
B|---------------------------------|
G|-2~~~~~~~~~~----2-2~~~~~~~~----2-|
D|-2~~~~~~~~~~----2-2~~~~~~~~----2-| 
A|-0~~~~~~~~~~----0-0~~~~~~~~----0-|
E|---------------------------------|

Guitar 2:
e|-----------------------------------------------------|
B|-----------------------------------------------------|
G|-2--2--2--2--2--2-----------2--2--2--2--2--2--2--2-2-|
D|-2--2--2--2--2--2-----------2--2--2--2--2--2--2--2-2-|
A|-0--0--0--0--0--0--4-0-5-4--0--0--0--0--0--0--0--0-0-|
E|-----------------------------------------------------|

End of Verse 1.
====================================================
Chorus 1:

Guitar 1:
e|-3--3-----------------------------------3--3----------------------------------|
B|-3--3-----------------------------------3--3----------------------------------|
G|-0--0--2-2-2-2-2-2-2-2-2-2-2-2-2-2-2-2--0--0--2-2-2-2-2-2-2-2-2-2-2-2-2-2-2-2-|
D|-0--0--2-2-2-2-2-2-2-2-2-2-2-2-2-2-2-2--0--0--2-2-2-2-2-2-2-2-2-2-2-2-2-2-2-2-|
A|-2--2--0-0-0-0-0-0-0-0-0-0-0-0-0-0-0-0--2--2--0-0-0-0-0-0-0-0-0-0-0-0-0-0-0-0-|
E|-3--3-----------------------------------3--3----------------------------------|
         ...............................        ...............................

Guitar 2:
e|-3--------0--0-0-----0-----0-----0--3--------0--0-0-----0-----0-----0-|
B|-3--------2--2-0-----0-----0-----0--3--------2--2-0-----0-----0-----0-|
G|-0--0--2----------2-----2-----2-----0--0--2----------2-----2-----2----|
D|-0--0--2----------2-----2-----2-----0--0--2----------2-----2-----2----|
A|-2--2--0----------------------------2--2--0---------------------------|
E|-3--3-------------------------------3--3------------------------------|

=====================================================
Guitar 1:
e|--------------------------5~~~~~~~~-5-55-5-55-|
B|--------------------------5~~~~~~~~-5-55-5-55-|
G|--------------------------2~~~~~~~~-2-22-2-22-|
D|-2-2-2-2-2-2-2-2-2-2-2-2--2~~~~~~~~-2-22-2-22-|
A|-2-2-2-2-2-2-2-2-2-2-2-2--0~~~~~~~~-0-00-0-00-|
E|-0-0-0-0-0-0-0-0-0-0-0-0----------------------|
   .......................

Guitar 2:
e|----------------------------0--0-0----0--0----0-0-|
B|----------------------------2--2-0----0--0----0-2-|
G|-1~~~~~~~~~~~~~~---------------------------2------|
D|-2~~~~~~~~~~~~~~-2-2-2-2------------2-------------|
A|-2~~~~~~~~~~~~~~-2-2-2-2--0-----------------------|
E|-0~~~~~~~~~~~~~~-0-0-0-0--------------------------|

End Of Chorus 1.
=====================================================
Verse 2:

Guitar 1:
e|---------------------------------|
B|---------------------------------|
G|-2~~~~~~~~~~----2-2~~~~~~~~----2-|
D|-2~~~~~~~~~~----2-2~~~~~~~~----2-| x3
A|-0~~~~~~~~~~----0-0~~~~~~~~----0-|
E|---------------------------------|

Guitar 2:
e|------------------------------------------------------|
B|------------------------------------------------------|
G|-2--2--2--2--2--2-----------2--2--2--2--2--2----------|
D|-2--2--2--2--2--2-----------2--2--2--2--2--2----------| x3
A|-0--0--0--0--0--0--4-0-5-4--0--0--0--0--0--0--4-0-5-4-|
E|------------------------------------------------------|

====================================================
Guitar 1:
e|---------------------------------|
B|---------------------------------|
G|-2~~~~~~~~~~----2-2~~~~~~~~----2-|
D|-2~~~~~~~~~~----2-2~~~~~~~~----2-| 
A|-0~~~~~~~~~~----0-0~~~~~~~~----0-|
E|---------------------------------|

Guitar 2:
e|-----------------------------------------------------|
B|-----------------------------------------------------|
G|-2--2--2--2--2--2-----------2--2--2--2--2--2--2--2-2-|
D|-2--2--2--2--2--2-----------2--2--2--2--2--2--2--2-2-|
A|-0--0--0--0--0--0--4-0-5-4--0--0--0--0--0--0--0--0-0-|
E|-----------------------------------------------------|

End of Verse 2.
=====================================================
Chorus 2:

Guitar 1:
e|-3--3-----------------------------------3--3----------------------------------|
B|-3--3-----------------------------------3--3----------------------------------|
G|-0--0--2-2-2-2-2-2-2-2-2-2-2-2-2-2-2-2--0--0--2-2-2-2-2-2-2-2-2-2-2-2-2-2-2-2-|
D|-0--0--2-2-2-2-2-2-2-2-2-2-2-2-2-2-2-2--0--0--2-2-2-2-2-2-2-2-2-2-2-2-2-2-2-2-|
A|-2--2--0-0-0-0-0-0-0-0-0-0-0-0-0-0-0-0--2--2--0-0-0-0-0-0-0-0-0-0-0-0-0-0-0-0-|
E|-3--3-----------------------------------3--3----------------------------------|
         ...............................        ...............................

Guitar 2:
e|-3--------0--0-0-----0-----0-----0--3--------0--0-0-----0-----0-----0-|
B|-3--------2--2-0-----0-----0-----0--3--------2--2-0-----0-----0-----0-|
G|-0--0--2----------2-----2-----2-----0--0--2----------2-----2-----2----|
D|-0--0--2----------2-----2-----2-----0--0--2----------2-----2-----2----|
A|-2--2--0----------------------------2--2--0---------------------------|
E|-3--3-------------------------------3--3------------------------------|

=====================================================
Guitar 1:
e|---------------------------------------------------------|
B|---------------------------------------------------------|
G|-------------------------2-2-2-2-2-2-2-2-2-2-2-2-2-2-2-2-|
D|-2-2-2-2-2-2-2-2-2-2-2-2-2-2-2-2-2-2-2-2-2-2-2-2-2-2-2-2-|
A|-2-2-2-2-2-2-2-2-2-2-2-2-0-0-0-0-0-0-0-0-0-0-0-0-0-0-0-0-|
E|-0-0-0-0-0-0-0-0-0-0-0-0---------------------------------|
   .......................

Guitar 2:
e|----------------------------0--0-0----0-----0----0-|
B|----------------------------2--2-0----0-----0----0-|
G|-1~~~~~~~~~~~~~~---------2----------2----2-----2---|
D|-2~~~~~~~~~~~~~~-2-2-2-2-2----------2----2-----2---|
A|-2~~~~~~~~~~~~~~-2-2-2-2-0-------------------------|
E|-0~~~~~~~~~~~~~~-0-0-0-0---------------------------|

End of Chorus 2.
======================================================
Bridge:

Guitars 1 and 2:
e|-3~~~~~~~~~~~~~~~------------------------3~~~~~~~~~~~~~~~~-|
B|-3~~~~~~~~~~~~~~~---2~~~~~~~~~~~~~~~~~~--3~~~~~~~~~~~~~~~~-|
G|-0~~~~~~~~~~~~~~~---2~~~~~~~~~~~~~~~~~~--0~~~~~~~~~~~~~~~~-|
D|-0~~~~~~~~~~~~~~~---2~~~~~~~~~~~~~~~~~~--0~~~~~~~~~~~~~~~~-|
A|-2~~~~~~~~~~~~~~~---0~~~~~~~~~~~~~~~~~~--2~~~~~~~~~~~~~~~~-|
E|-3~~~~~~~~~~~~~~~------------------------3~~~~~~~~~~~~~~~~-|

Guitar 3:
e|-----------0----------------------------10-9-----------------------------------|
B|-------3-2-2---------------------------------10-------------12*---------5*~~~~~|
G|---2h4-------4-2~~~~~~~~~~----------------------9~~~----12*-----12*------------|
D|--------------------------2h4--2--------------------12*-------------5*---------|
A|---------------------------------0~~~~~~---------------------------------------|
E|-------------------------------------------------------------------------------|

======================================================
Guitars 1 and 2:
e|---------------------------------------|
B|-2~~~~~--------------------------------|
G|-2~~~~~--------------------------------|
D|-2~~~~~--2~~~~-2-2-2-2-2-2-2-2-2-2-2-2-|
A|-0~~~~~--2~~~~-2-2-2-2-2-2-2-2-2-2-2-2-|
E|---------0~~~~-0-0-0-0-0-0-0-0-0-0-0-0-|

End of Bridge.
======================================================
Guitar Solo:

Guitar 3:
e|-----10--10--10\9--9--9--9\7--7\5--7/9--9~~~~~~|
B|-----------------------------------------------|
G|-----------------------------------------------|
D|-----------------------------------------------|
A|-----------------------------------------------|
E|-----------------------------------------------|

Guitar 1:
e|--------------------------------------------|
B|------2--22--2~~-2-2--22--2---2-22--2--2-22-|
G|------2--22--2~~-2-2--22--2---2-22--2--2-22-|
D|------2--22--2~~-2-2--22--2---2-22--2--2-22-|
A|------0--00--0~~-0-0--00--0---0-00--0--0-00-|
E|--------------------------------------------|

Guitar 2:
e|----------------------------|
B|----------------------------|
G|-2--2--2--2--2--2-----------|
D|-2--2--2--2--2--2-----------|
A|-0--0--0--0--0--0--4-0-5-4--|
E|----------------------------|

======================================================
Guitar 3:
e|---10--10--10\9--9\7--7\5--5--5-5--5~~~~~~9/10--10--10\9--9--9--|
B|----------------------------------------------------------------|
G|----------------------------------------------------------------|
D|----------------------------------------------------------------|
A|----------------------------------------------------------------|
E|----------------------------------------------------------------|

Guitar 1:
e|-------------------------------------------------------------|
B|-2--2-22--2--2-22--2--2-22--2-2--2-22--2--2--22--2~~-2-2--22-|
G|-2--2-22--2--2-22--2--2-22--2-2--2-22--2--2--22--2~~-2-2--22-|
D|-2--2-22--2--2-22--2--2-22--2-2--2-22--2--2--22--2~~-2-2--22-|
A|-0--0-00--0--0-00--0--0-00--0-0--0-00--0--0--00--0~~-0-0--00-|
E|-------------------------------------------------------------|

Guitar 2:
e|---------------------------------------|
B|---------------------------------------|
G|-2--2--2--2--2--2-----------2--2--2--2-|
D|-2--2--2--2--2--2-----------2--2--2--2-|
A|-0--0--0--0--0--0--4-0-5-4--0--0--0--0-|
E|---------------------------------------|

=======================================================
Guitar 3:
e|-9\7--7\5--7/9--7~~~~~~9--10--9--7--7\5--5/7--5~~~~~~~|
B|------------------------------------------------------|
G|------------------------------------------------------|
D|------------------------------------------------------|
A|------------------------------------------------------|
E|------------------------------------------------------|

Guitar 1:
e|----------------------------------------------------------|
B|-2-2--2-22--2--2-22--2~~-2-2--2-22-2~~-2-2-22-2~~~~~~~~~~-|
G|-2-2--2-22--2--2-22--2~~-2-2--2-22-2~~-2-2-22-2~~~~~~~~~~-|
D|-2-2--2-22--2--2-22--2~~-2-2--2-22-2~~-2-2-22-2~~~~~~~~~~-|
A|-0-0--0-00--0--0-00--0~~-0-0--0-00-0~~-0-0-00-0~~~~~~~~~~-|
E|----------------------------------------------------------|

Guitar 2:
e|-----------------------------------------|
B|-----------------------------------------|
G|-2--2-----------2--2--2--2--2--2--2--2-2-|
D|-2--2-----------2--2--2--2--2--2--2--2-2-|
A|-0--0--4-0-5-4--0--0--0--0--0--0--0--0-0-|
E|-----------------------------------------|

End of Guitar Solo.
=======================================================
Chorus 3:

Guitar 1:
e|-3--3-----------------------------------3--3----------------------------------|
B|-3--3-----------------------------------3--3----------------------------------|
G|-0--0--2-2-2-2-2-2-2-2-2-2-2-2-2-2-2-2--0--0--2-2-2-2-2-2-2-2-2-2-2-2-2-2-2-2-|
D|-0--0--2-2-2-2-2-2-2-2-2-2-2-2-2-2-2-2--0--0--2-2-2-2-2-2-2-2-2-2-2-2-2-2-2-2-|
A|-2--2--0-0-0-0-0-0-0-0-0-0-0-0-0-0-0-0--2--2--0-0-0-0-0-0-0-0-0-0-0-0-0-0-0-0-|
E|-3--3-----------------------------------3--3----------------------------------|
         ...............................        ...............................

Guitar 2:
e|-3--------0--0-0-----0-----0-----0--3--------0--0-0-----0-----0-----0-|
B|-3--------2--2-0-----0-----0-----0--3--------2--2-0-----0-----0-----0-|
G|-0--0--2----------2-----2-----2-----0--0--2----------2-----2-----2----|
D|-0--0--2----------2-----2-----2-----0--0--2----------2-----2-----2----|
A|-2--2--0----------------------------2--2--0---------------------------|
E|-3--3-------------------------------3--3------------------------------|

=====================================================
Guitar 1:
e|-------------------------|
B|-------------------------|
G|-------------------------|
D|-2-2-2-2-2-2-2-2-2-2-2-2-|
A|-2-2-2-2-2-2-2-2-2-2-2-2-|
E|-0-0-0-0-0-0-0-0-0-0-0-0-|
   .......................

Guitar 2:
e|--------------------------|
B|--------------------------|
G|-1~~~~~~~~~~~~~~----------|
D|-2~~~~~~~~~~~~~~-2-2-2-2--|
A|-2~~~~~~~~~~~~~~-2-2-2-2--|
E|-0~~~~~~~~~~~~~~-0-0-0-0--|

End of Chorus 3.
=====================================================
Outro:

Guitar 1:
e|---------------------------|
B|---------------------------|
G|-2--2--2--2--2--2----------|
D|-2--2--2--2--2--2----------| x8
A|-0--0--0--0--0--0--4-0-5-4-|
E|---------------------------|

Guitar 2:
e|----0--0-0-----0-----0-----0-|
B|----2--2-0-----0-----0-----0-|
G|-2----------2-----2-----2----|
D|-2----------2-----2-----2----| x8
A|-0---------------------------|
E|-----------------------------|


Guitar 3:
e|--------------0---------------------------------------------0------|
B|---2-----2~~~~--3~~~~~--2~~~-----3~~-2~~~------2------2-2~~~--3~~~~|
G|-----4~~~-------------------4--2---------4-2------4~~~-------------|
D|-------------------------------------------------------------------|
A|-0--------------------0----------------------0---------------------|
E|-------------------------------------------------------------------|

Guitar 3:
e|-------------------------------------------------------------------------|
B|----2----2------3~~~2~~~-----14-------15-------14------------------------|
G|------4----4~~~~--------4-2-----14-------14-------14----16~~16-16--16-16-|
D|-----------------------------------14-------14-------14------------------|
A|-0-----------------------------------------------------------------------|
E|-------------------------------------------------------------------------|

Guitar 3:
e|--------------------------------------------------------------------------------|
B|-14-------15-------14----------------14------15-------14------------------------|
G|----14-------14-------14----16~~~14-----14------14-------14----16~~16-16--16-16-|
D|-------14-------14-------14---------------14-------14-------14------------------|
A|--------------------------------------------------------------------------------|
E|--------------------------------------------------------------------------------|

Guitar 3:
e|------------------------------------------|
B|-14-------15-------14-------15~~~---------|
G|----14-------14-------14---------14-16-14-|
D|-------14-------14-------14---------------|
A|------------------------------------------|
E|------------------------------------------|

==================================
Guitar 1:
e|---------------------------------2--------2---------|
B|---------------------------------3--------3---------|
G|-2--2--2--2--2--2--2--2-2--2~~~~-2--2~~~~-2--2~~~~~-|
D|-2--2--2--2--2--2--2--2-2--2~~~~-0--2~~~~-0--2~~~~~-|
A|-0--0--0--0--0--0--0--0-0--0~~~~----0~~~~----0~~~~~-|
E|----------------------------------------------------|

Guitar 2:
e|----0--0-0-----0-----0-----0-|
B|----2--2-0-----0-----0-----0-|
G|-2----------2-----2-----2----|
D|-2----------2-----2-----2----|
A|-0---------------------------|
E|-----------------------------|

Guitar 3:
e|-14------14------14-----14-------14--------------------------------|
B|-----17------17-----17-----17~~~~----15--14~~--15--14~~------14~~~-|
G|-------------------------------------14--14~~--14--14~~--16--14~~~-|
D|-----------------------------------------14~~--16--14~~--14--14~~~-|
A|-------------------------------------------------------------------|
E|-------------------------------------------------------------------|


Please Rate And Comment.
[travis]
comments
We did not receive enough feedback on this tab! Please rate:
print report bad tab
1 2 3 4 5
I want to post or [tab]
guest
You may want to rate the tab now too:
select rating
Please do not post tabs as comments. Select "correction" instead!