Oops, an error
Loading. Please wait.

Angelina Tab

ver5
ver5

Whole song

Video

More versions @911Tabs.com
2,401 views 3 this week
no commentswrite comment
1 2 3 4 5
please rate
add to favorites launch autoscroll
font size
0
reset
Autoscroll
+/-
esc
set tempo
stop
Contributor
Difficulty
advanced
WARNING: You are trying to view
                                    content from Ultimate-Guitar.com
                                    in an unauthorized application,
                                    which is prohibited.

                                    Please use an official Ultimate
                                    Guitar Tabs application for iPhone,
                                    iPad or Android to access legitimate
                                    chords, guitar, bass, and drum tabs
                                    from Ultimate-Guitar.com database.

                                    Type "ultimate guitar tabs" in Apple
                                    App Store's or Android Market's
                                    search to find the application.
Gitarr 1 (Capo 2)


     H        E.  E  S S S    S S S S S S S S S S S S S S S S  
E||----------------------0-|--------------------------------0-|
B||--------------------3---|--------2-L-----0-L-----------3---|
G||------------------2-----|------2-------2-------2-L---2-----|
D||------------------------|----0-------0-------0-----2-------|
A||------------------------|------------------------0-------L-|
E||------------------------|----------2-------3---------------|


  S S S S S S S S S S S S S S S S    S S S S S S S S S S S S S S S S  
------------------------0-L-----0-|--------------------------------0-|
--------2-L-----0-L-----0-L---3---|--------2-L-----0-----0-------3---|
------2-------2-------2-2-L-2-----|------2-------2-----2-------2-----|
----0-------0-------0-------------|----0-------0-----0-------2-------|
----------------------------------|------------------------0-L-------|
----------2-------3-------3-------|----------2-----3-L---------------|


                ^                                                               
  S S S S S S S Q.     S S S      E.  S S S S  S  S  S  S S S  S  T  T X X X X  
---------------------------0-|--0g2---5-L---x-------------0----L---------------|
--------2-L-----0--------3---|----L---------x--3--------x-2----L-----------0-3-|
------2-------2-2------2-----|----L---6---2-x-(4)-------x----------------------|
----0-------0---0------L-----|--------------------0-(0)-x---2-(2)--------4-----|
-----------------------------|----------------------------1-L-----1s-2---------|
----------2-----3------L-----|----------2---x--3--L----------------------------|


  |--3--|                                                                       
  E  E  E  S S S  S S S S S S  S  S S      S S S S S S S S S S S S  S  S S   S  
--2--3--2---------------------(0)-----|--0g2-L---5-----L---------0--L----0-0g2-|
--------L--3---1\-3-L----------3------|------L---------L-3---L---------3-------|
--------L--5-0----------2-1-x--0----0-|----------6---2-L-----2-----------0-0g2-|
--------L-------------0---0-x-----2---|------0---L-----------4---------3-------|
-----------3-------------------0------|----L---------------2---2-1-(1)---------|
--------------------1-----0-----------|------------2---x-----------------------|


                 |--3-|                         
  S S S   S S S  T  T T S  S  S S T  T E  S  S  
--L-3-2-3g5-L-0--2h-3-2-0--L-------------------|
----0---4g2-----------------------1s-3-L--2\---|
--L---2-------0-(2)---L-1--L----1-2s-4-L--2\---|
------------------------------0---3s-5-L--2\---|
--0---------0-------------(2)----------0--0----|
---------------------------0-------------------|


    S S S  S  S S S S S S S S  S  S T   T  X X X X  
--0g2---L--5--L---x---------0-----L----------------|
--------------L---x-3---L-x-2-----L------------0-3-|
------2-L--6----2-x-4---4-x------------------------|
------0-L-(7)---------0-------(2)-2----------4-----|
----------------------------1--L----1s-(2)---------|
--------------2-----3-L---x------------------------|


                                                                    ^           
  |--3--|                                                                       
  E  E  E  S S S S S S S S S S S S      S S S  S  S S S S S S  S    S  S S S S  
--2--3--2--------------------------|--0g2------3--L-----5---L-(5)s--7--L-------|
--------L--3---1---3-----3---3-----|--------3-------3-------5------(5)-L-------|
--------L--5-0---------2-1---0---0-|----------(2)---0-------2------(7)-L-----0-|
--------L------------0---0-----2---|------0-----------0------------------------|
-----------3-----------------0-L---|---------------------------------------5---|
-----------------1-L-----0---------|--------------0-------2---(2)s--3--L-3-----|


             |-----3----|                       
  S S S S    E      E   E  S T  T S S T T S E   
----0-7-L--5g7----8g7---5--L-5--L-------1-0----|
--3-------7g(3)--------------5h-7---5-------3--|
-----------------7g(7)--6--L-6h-7---5-------4--|
-----------------------------5--L---3-------3--|
-----------------------------------------------|
--L-----3--5g3-------------3------x---1--------|


    E  S  S  S T  T T T S T  S. S S S S S S  
----------------------------------0-------0-|
---------(3)---3------L---3--L--3-3---------|
--0g2----(2)---2p-0-------2--L--2-2-----2---|
-------0------------4-2-0-2h-4--------4-----|
--------------------------------------------|
--------------------------------------------|


                                          |---3--|                             
    S S S S S S S S S S S S S S  S  S     E   E  E  S E   S S S S S  S  S S S  
----L---2-0-2-0---0-2-----0-L---------|-------2--0--2-5\----------0--L--------|
------0-3-------3-------3-----3-(3)---|-------3-----------3-L-----3--L--------|
----------------------3----------3----|-------2-----L-----------1-1--L--------|
--------------------------------------|--(0)--------L---------0---------------|
--7g2---------------1-------1----1--0-|---0-----------------------------------|
--------------------------------------|---------------------0-------(0)-0-2-3-|


                              |--3--|        
  S T T S S S S S S  S  S S S T  T  T S S S  
----------------0-----------5---------------|
--------0-2-3-----3-------------------3-2-0-|
----0-2-----------------2-L-----------2-2-0-|
--0-----------0-----(0)---------(4)---4-2-0-|
------------------------------2-------------|
--L---------3-----2--L----2-----------------|


  S T T S S S S S  S  S  T  T S S S  E   S   
--------------0----2--Lh-3p-2-0-2----0---L--|
--L-----0-2-3------0------------L----3------|
--L-0-2-----------(0)-----------L----3------|
--L---------------------------------(2)-----|
--------------------------------------------|
--3---------3---x--0--L-----------x--2---2s-|


  |--3--|  |--3--|                     |--3--|                           
  E  E  E  E  E  E  S S S S S S S S    E  E  E  S E   S S S S S S S S S  
-----2--0--2--0--L--------0-L-------|-----2--L--2-5\----------0-L-------|
-----3-----3-----7--L---------------|-----3--L--------3-L-----3-L-------|
-----4-----4-----7--L---7-----7-----|-----2--9--------------1-1-L-------|
-----------------8--L-8---------8---|---------------------0-------------|
--2-------------------------------0-|--0--------------------------------|
--------------------6-------6-------|-------------------0---------0-2-3-|


  S T T S S S  S  S S  S  S S S T  T  S S S  
------------------0-----------5-L---------5-|
--------0-2-3-(0)---3-------------------3-3-|
----0-2-------------------2-L-----------2-4-|
--0------------0------(0)---------(4)-4-----|
--------------------------------2-----------|
--L---------3-------2--L----2---------------|


                    |-3-|   |----3----|            
  S  S  S S S S S.  X X X   E   E  S  S S S S  S   
--L--4p-2-2-L-4-5-------2-/10--10--7h-9-7---9-----|
--L-(3)-L-3-----L-----3---------------------------|
--L--4--L-4-----L---2--------------7h-9-7---9-----|
-------------------/2-------------------------(0)-|
----------------------------L-------------7----0--|
--0---------0---L---------------------------------|


                    NH  NH  NH                            >                 
  |--3-|                                                     |3|  |-3|      
  T T  T  S S S S   S   S   S S S  S S S  S S S    S  S S S  S T  T  S S S  
--5-7h-8p-7-L-5-L---------------3p-2-0----------|---------0h-2-3p-2p-0---0-|
--6---------L-0-L----------------------3p-2-0---|--0h-2-3--------------3---|
--7---------L-6-L---------<>2-L---------------2-|--------------------------|
--L-------------------<>2-----------------------|--------------------------|
--L---------------<>0---------------------------|--------------------------|
------------------------------------------------|--------------------------|


                                             |--3--|                            
  S S S S S S S S S S S S S S S X X X  X     E  E  E  S S S  S S S S S S S S S  
--2-----5-L---x---------0-----------------|--2--3--2---------------------------|
--3---3-------x-3---0-x-2-------------(3)-|--------L--3---1\---3-----3---3-----|
--------6---2-x-4-----x-----0----------4--|--------L--5-0----------2-1---0---0-|
----0-------------0---x---2---2-----4--L--|--------L-------------0---0-----2---|
------------------------1-L-------2-------|--L--------3------------------0-----|
----------2---x-3-L---x-------------------|------------------1-L-----0---------|


    S E  S S S S S S S S S  S  S S   S  
--0g2----5-L---x---------0--L----0-0g2-|
---------------x-3-------------3-------|
------0--6-------2---2-----------0-0g2-|
-------------2-x---4-----------3-------|
-----------------2-L-----1-(1)---------|
-----------2---x-----------------------|


                          PM PM PM          
              |--3--|                       
  S S S   S S T  T  T S S S  S  S  S E  E   
--L-3-2-3g5-L-0--2h-3-2-0-L----------------|
----0---4g2---------------------0--3-L--2--|
--L---2-------0-(2)---L-1-L-----1--4-L--2--|
-----------------------------0-----5-L--2--|
--0---------0------------------------0-----|
--------------------------0----------------|


    S E  S S S S  S  S S S S S S T  T X X X X  
--0g2-L--5-L---x-----------0---L--------------|
---------------x--3----0-x-2---L----------0-3-|
---------6---2-x-(4)-----x-----0--------------|
------0--------------0---x---2----------4-----|
---------------------------1-----Ls-2---------|
-----------2---x--3--L------------------------|


                                                                ^          
  |--3--|                                                                  
  E  E  E  S S S S S S S S S S S S      S S S S S S S S S S   S S S S S S  
--2--3--2--------------------------|--0g2-----3-L-----5---L-5g7-5-L-------|
--------L--3---1---3-----3-x-3---L-|--------3-----3-------5-----5-L-------|
--------L--5-0---------2-1-x-0---L-|--------------0-------2-----7-L-----0-|
--------L------------0---0-x-----0-|------0---------0---------------------|
--L--------3-----------------0-0---|----------------------------------5---|
-----------------1-L-----0---------|------------0-------2---4g3-3-L-3-----|


             |-----3-----|                         
  S S S S    E      E    E   S T  T S S T  T S E   
----0-7-L--5g7----8g7----5---L-5--L--------0-L----|
--3----------------------------5h-7---5-6p-----3--|
----------7g(7)--7g(7)--(6)--L-6h-7---5------L-4--|
-------------------------------5--L---3------L-3--|
--------------------------------------------------|
--L-----3----L---------------3------x-------------|


                          ^                  
    E  S  S  S T  T T T S T  S. S S S S S S  
----------0-----------------------0-L-0-x---|
----L-----3----3----L-----3--L--3-3-L-3-x---|
--0g2----(2)---2p-0-------2---------L-------|
-------0------------4-2-0-2h-4--------------|
--------------------------------------------|
--------------------------------------------|


         >            PM                       ^                                
                                           |---3--|  |---3--|                   
  S S S  S  S S S S S S  S S S S  S  S     E   E  E  E  E   E  S S S S S S S S  
------2--0--2-0---0-2------0-L---------|-------2--0--2--5\-----------0-L-------|
----0-3-(7)-3-7-3--------3-------(3)---|-------3------------3--L-----3-L-------|
----------------------3--------3-------|-------2-----L-------------1-1-L-------|
---------------------------------------|--(0)--------L-----------0-------------|
--2-----------------1--------1-------0-|---L-----------------------------------|
---------------------------------------|-----------------------0-------0-0-2-3-|


  S T T S S S S S S  S  S S S S S   S S  
----------------0-----------5-----------|
--------0-2-3-----3-------------3-3g2-0-|
----0-2-----------------2-L-----2-2g2-0-|
--0-----------0-----(0)---------4-4g2-0-|
------------------------------2---------|
--L---------3-----2--L----2-------------|


                                                            ^                   
                                             |--3--|  |--3--|                   
  S T T S S S S S S S  T  T S S S  E   S     E  E  E  E  E  E  S S S S S S S S  
--------------0-----2h-3p-2-0-2----0---L--|-----2--0--2--0--0--L-------0-2-----|
--L-----0-2-3---x---0---------L----3------|-----3-----3-----7--L-----3-----3---|
--L-0-2---------x---0---------L----3------|-----4-----4-----7--L---3---------3-|
--L-------------------------------(2)-----|-----------------8--L---------------|
------------------------------------------|--2---------------------------------|
--3---------3---x-x-0-----------x-(2)--2s-|-----------L----------6-----L-------|


                                PM PM PM  
  |---3--|  |---3--|                      
  E  E   E  E  E   E  S S S S S S  S  S   
-----2---L--2--5\-------------0----------|
-----3---L---------3--L-----3------------|
-----2---L----------------1--------------|
--------14--------------0----------------|
--0--------------------------------------|
----------------------0---------0--2--3--|


  S T T S S S S S S S S  S  S S S S S  
----------------0-L---------5-L-----5-|
--------0-2-3---------------------3-3-|
----0-2-------------3-------------2-4-|
--0-----------0-------2--L------4-----|
------------------------------2-------|
--L---------3-----2-L---(2)-----------|


                      |-3-|  |----3---|          
   S   S  S S S S S.  X X X  E   E  S S S S S S  
---L---4p-2-2-L-4-5-------2-10--10--7-9-7---9---|
---L--(3)-L-3-L-3-3-----3-----------------------|
---L---4--L-4-L-4-----2-------------7-9-7---9---|
--(2)----------------/2-------------------------|
------------------------------------------7---0-|
--------------0---L-----------------------------|


                   NH  NH  NH                                              
  |--3-|                                                    |3|  |-3|      
  T T  T S S S S   S   S   S S S  S S S  S S S    S  S S S  S T  T  S S S  
--5-7h-8-7-L-5-L---------------3p-2-0----------|---------0h-2-3p-2p-0---0-|
--6--------L-0-L----------------------3p-2-0---|--0h-2-3--------------3-L-|
--7--------L-6-L---------<>2-L---------------2-|--------------------------|
---------------------<>2-----------------------|--------------------------|
--L--------------<>0---------------------------|--------------------------|
-----------------------------------------------|--------------------------|


   S  E  S S S S S S S S S S S T  T X X X X  
---2-----5-L---x---------0------------------|
--(3)----------x-3---0-x-2--------------0-3-|
---------6---2-x-4-----x-----0-L------------|
------0------------0---x---2----------4-----|
-------------------------1-L---1s-2---------|
-----------2---x-3-L---x--------------------|


  |--3--|                                                                      
  E  E  E  S S S S S S S S S S S S      S S S S S S S S S  S  S S  S  S S   S  
--2--3--2--------------------------|--0g2---L-5-----L-----------0--L----0-0g2-|
--------L--3---1---3-----3-x-3---L-|--------3-----2-L-3----L----------3---0g2-|
--------L--5-0---------2-1-x-0-L-0-|----------6---2-L-2----L------(0)---0-0g2-|
--------L------------0---0-x---2---|------0-L-----------4-(4)---------3-------|
--L--------3-----------------0-----|------------------2-L-----x-1--L----------|
-----------------1-L-----0---------|------------2---x-------------------------|


              |--3--|                        
  S S S   S S T  T  T S S S S S S  S S S  S  
--L-3-2-3g5-L-0--2h-3-2-0-L-----------------|
--L-0---4g2-------------------0-1s-3-L-2\---|
--L---2-------0-(2)---L-1-L-----2s-4-L-2\---|
----------------------------0---3s-5-L-2\---|
--0---------0------------------------0------|
--------------------------0-----------------|


    S S  S  S S S S S S S S S S S  T  T X X X X  
--0g2----L--5-L---x-----------0-L---------------|
------------------x-3---L-x---2-L-(2)-------0-3-|
--------(2)-6---2-x-4---4-x-------(0)-----------|
------0---------------0---------2---------4-----|
----------------------------1-L-------2---------|
--------------2-----3-L---x---------------------|


                                                                    ^          
  |--3--|                                                                      
  E  E  E  S S S S S S S S S S S S      S S  S  S S S  S  S S S   S S S S S S  
--2--3--2--------------------------|--0g2-------3-L-------5---L-5g7-7-L-------|
--------L--3---1---3-----3-x-3-----|--------(3)-----3---------5-----5-L-------|
--------L--5-0---------2-1-x-0---0-|----------------0---------2-----7-L-----0-|
--------L------------0---0-x---2---|------0-----------(0)---------------------|
--L--------3-----------------0-L---|--------------------------------------5---|
-----------------1-L-----0---------|--------------0---------2---4g3-3-L-3-----|


            |----3---|                          
  S S S S   E    E   E   S T  T S S T  T S S S  
----0-7-L-5g7--8g7---5---L-5--L--------0-L-----|
--3------------------------5h-7---5-6p-----3-x-|
----------7g7--7g7--(6)--L-6h-7---5--------L-x-|
---------------------------5--L---3--------L-x-|
-----------------------------------------------|
--L-----3----------------3------x--------------|


    E  S S   S S   S  S  S T  T S S S S S S  
-----------5g7---8g7--5--L-5--L-------------|
-----------5g5-------------5h-7---5-L-----L-|
--0g2--L---7g7-0-7g7-(6)-L-6h-7---5-L-----L-|
-------0-------------------5--L---3-L---L-3-|
----------------------------------------3---|
-----------5g3-----------3------x-----1-----|


                               NH  NH  NH  NH  NH 
  S S  S  S   E  S  S  S S S   S   S   S   S   S  
--------------------0----------------------------|
-------3--x---------3------0-------------<>3-----|
-------4--x-0g2----(2)-------<>2-----<>2---------|
--L---(3)-x------0---------------<>0---------<>2-|
--L----------------------0-----------------------|
--L-1--------------------------------------------|


    NH  NH  NH   NH   NH   NH   NH   NH    NH    NH   NH   NH   NH   NH 
    S   S   S    S    S    S    S    E     E     S    S    S    S    S  
--------------<>12----------------<>12---------------------------------|
----------<>3----------------------------------------------------------|
------<>2----------<>11------<>11--------------------------------------|
------------------------<>10------------<>12-----------------<>12------|
----------------------------------------------<>12------<>12-----------|
--<>2----------------------------------------------<>10-----------<>12-|


    NH  NH  NH   NH   NH   NH   NH   NH    NH    NH   NH   NH   NH   NH 
    S   S   S    S    S    S    S    E     E     S    S    S    S    S  
--------------<>12-----------------------------------------------------|
----------<>3----------------------------------------------------------|
------<>2----------<>11------<>11--------------------------------------|
------------------------<>10------<>12-----------------------<>12------|
----------------------------------------<>12--<>12------<>12-----------|
--<>2----------------------------------------------<>10-----------<>12-|


    NH  NH  NH   NH   NH   NH   NH   NH    NH    NH   NH   NH   NH   NH 
    S   S   S    S    S    S    S    E     E     S    S    S    S    S  
--------------<>12----------------<>12---------------------------------|
----------<>3----------------------------------------------------------|
------<>2----------<>11------<>11---------------------------------<>12-|
------------------------<>10------------<>12-----------------<>12------|
----------------------------------------------<>12------<>12-----------|
--<>2----------------------------------------------<>10----------------|


           NH   NH   NH                               ^                     
                        |---3---|     |-3-|                                 
  S  E     E    S    S  T   T   T S S T T T S Q       S  E.  H.             
---------------------------------------------------|----------------------||
----------------------------------------0----------|--3--L---L------------||
--L-11-----------------11h-12p-11-9-7-------0-0----|--2--L---L------------||
--------------------------------------7---7--------|--2h-4---L------------||
--------<>12--<>0----------------------------------|--0--L---L------------||
------------------<>12-----------------------------|-----L---L------------||




Duration Legend
---------------
W - whole
H - half
Q - quarter
E - 8th
S - 16th
T - 32nd
X - 64th
. - note dotted
|-n-|  - n-tuplets


Tablature Legend
----------------
L - tied note
x - dead note
g - grace note
(n) - ghost note
> - accentuded note
NH - natural harmonic
AH - artificial harmonic
TH - tapped harmonic
SH - semi harmonic
PH - pitch harmonic
h - hammer on
p - pull off
b - bend
br - bendRelease
pb - preBend
pbr - preBendRelease
brb - bendReleaseBend
\n/ - tremolo bar dip
\n - tremolo bar dive
-/n - tremolo bar Release up
/n\ - tremolo bar inverted dip
/n - tremolo bar return
-\n - tremolo bar Release down
S - shift slide
s - legato slide
/ -  slide into from below or out of upwards
\ -  slide into from above or out of downwards
~ - vibrato
W - wide vibrato
tr - trill
TP - tremolo picking
T - tapping
S - slap
P - pop
< - fade in
^ - brush up
v - brush down
comments
We did not receive enough feedback on this tab! Please rate:
print report bad tab
1 2 3 4 5
I want to post or [tab]
guest
You may want to rate the tab now too:
select rating
Please do not post tabs as comments. Select "correction" instead!