Oops, an error
Loading. Please wait.

Back On The Terra Firma Tab

2,828 views 9 this week
no commentswrite comment
1 2 3 4 5
accurate
x 2
add to favorites launch autoscroll
font size
0
reset
Autoscroll
+/-
esc
set tempo
stop
Contributor
WARNING: You are trying to view
                                    content from Ultimate-Guitar.com
                                    in an unauthorized application,
                                    which is prohibited.

                                    Please use an official Ultimate
                                    Guitar Tabs application for iPhone,
                                    iPad or Android to access legitimate
                                    chords, guitar, bass, and drum tabs
                                    from Ultimate-Guitar.com database.

                                    Type "ultimate guitar tabs" in Apple
                                    App Store's or Android Market's
                                    search to find the application.
Artist: Phil & Tommy Emmanuel
Song: (Back On The) Terra Firma

Tabbed By: me

Tuning: Standard

Guitar 1: Electric (Distortion)
Guitar 2: Acoustic (Classical)

For some of the faster runs in the song it is not exactly note-for-note.


Guitar 1: electric

    'A'                                   repeat 2x       and then play this once...
e|-------------------|----------------------------|  |------------------|---------------|
B|o--10b--10-7--7-9--|--9b-9b-9p7----------------o|  |--10b--10-7--7-9--|--9b-9b-9p7----|
G|-------------------|------------9--9-9p7--------|  |------------------|------------9--|
D|-------------------|---------------------9p7----|  |------------------|---------------|
A|o------------------|---------------------------o|  |------------------|---------------|
E|-------------------|----------------------------|  |------------------|---------------|

                                                          repeat from 'A'
e|--------------------|--------------------------|   |---------------|
B|--------------------|--------------------------|   |---------7h10--|
G|--------------------|--------------------------|   |-----7h9-------|
D|--9-11--11b-(11)-9--|--7-7h9p7-----------------|   |--/9-----------|
A|--------------------|----------9-10-9-7\(5)-7--|   |---------------|
E|--------------------|--------------------------|   |---------------|

Guitar 2: acoustic
   'B'
e|----------------|-------------|----------------|-----------------|
B|----------------|-------------|----------------|-----------------|
G|--7-6-7/(11)-7--|--7-6-7h9-7--|--6h7p6--4h6p4--|--3-3h4p3--------|
D|----------------|-------------|----------------|----------4------|
A|----------------|-------------|----------------|------------4----|
E|----------------|-------------|----------------|--------------2--|

e|----------------|-------------|----------------|-----------------|
B|----------------|-------------|----------------|----2----3----5--|
G|--7-6-7/(11)-7--|--7-6-7h9-7--|--6h7p6--4h6p4--|--2----2----2----|
D|----------------|-------------|----------------|-----------------|
A|----------------|-------------|----------------|-----------------|
E|----------------|-------------|----------------|-----------------|

e|---------------------------|------------------------|----------------------|
B|--7-7-7/(10)--8-7-5h7-5-5--|--t5-7-7h8-7-5-3h5-3-3--|---2-3h5-3-2-0h2-0-0--|
G|---------------------------|------------------------|--2--2-2-2-2-0---0-0--|
D|---------------------------|------------------------|----------------------|
A|---------------------------|------------------------|----------------------|
E|---------------------------|------------------------|----------------------|

e|-------------0-0--|
B|---2-3h5-3-2-0-0--|
G|--2--2-2-2-2-1-1--|
D|-------------2-2--|
A|-------------2-2--|
E|-------------0-0--|


Guitar 1: electric

   'A'
e|---------------|
B|---------7h10--|
G|-----7h9-------|
D|--/9-----------|
A|---------------|
E|---------------|
                                      repeat 2x      and then play this once...
e|-------------------|---------------------------|  |------------------|---------------|
B|o--10b--10-7--7-9--|--9b-9b-9p7---------------o|  |--10b--10-7--7-9--|--9b-9b-9p7----|
G|-------------------|------------9--9-9p7-------|  |------------------|------------9--|
D|-------------------|---------------------9p7---|  |------------------|---------------|
A|o------------------|--------------------------o|  |------------------|---------------|
E|-------------------|---------------------------|  |------------------|---------------|

e|--------------------|--------------------------|
B|--------------------|--------------------------|
G|--------------------|--------------------------|
D|--9-11--11b-(11)-9--|--7-7h9p7-----------------|
A|--------------------|----------9-10-9-7\(5)-7--|
E|--------------------|--------------------------|


Solo:

   'C'
e|--------------------|---------------------------|------------------------|
B|--12~~~~~~~~~~~~~~--|---------------------------|--7--------7------------|
G|--------------------|--7-7----------------------|--7--------7------------|
D|--------------------|------9p7-------7h9h7------|----9p7h9----9p7--------|
A|--------------------|----------9-7h9-------7h9--|-----------------9-7h9--|
E|--------------------|---------------------------|------------------------|

e|--12b--7-10b--|--10--7----7-9p7----7--------------|-----------------------------------|
B|--------------|--------10-------10---10p7---10-7--|----7---------------------7--------|
G|--------------|---------------------------9-------|--9---9p7---9---7-9p7---7-7--------|
D|--------------|-----------------------------------|----------9---9-------9-----9p7h9--|
A|--------------|-----------------------------------|-----------------------------------|
E|--------------|-----------------------------------|-----------------------------------|

e|--12b(12-12b)--|--12b(12-12b)--|--10b-10--10b(10)-7--|
B|---------------|---------------|---------------------|
G|---------------|---------------|---------------------|
D|---------------|---------------|---------------------|
A|---------------|---------------|---------------------|
E|---------------|---------------|---------------------|

e|--15b--12-14-15p14p12----14p12----------------------|--------------------------------------|
B|----------------------15-------15p14p12-14h15p14p12-|--------------------------------------|
G|----------------------------------------------------|-14p12p11-12p11----12p11--------------|
D|----------------------------------------------------|----------------14-------14p12p11-12--|
A|----------------------------------------------------|--------------------------------------|
E|----------------------------------------------------|--------------------------------------|

e|--------------17-----17--|------17-----17-----17--|--17b-17p14-----|
B|--17b(17-17b)----17b-----|--17b----17b----17b-----|----------------|
G|-------------------------|------------------------|------------16--|
D|-------------------------|------------------------|----------------|
A|-------------------------|------------------------|----------------|
E|-------------------------|------------------------|----------------|

e|-----------14-------14--17-17p14----14--|--17p14----14-----------------------|
B|-----15h17----15h17--------------17-----|--------17----17p15----17p15----15--|
G|--16------------------------------------|--------------------16-------16-----|
D|----------------------------------------|------------------------------------|
A|----------------------------------------|------------------------------------|
E|----------------------------------------|------------------------------------|

e|---------------------------------|-------------------------------|
B|---------------------------------|-------------------------------|
G|--16p14----16----14--------------|-------------------------------|
D|--------16----16----16\14-12-----|--14----12-----12----12--------|
A|-----------------------------14--|-----14----14-----14----14-14--|
E|---------------------------------|-------------------------------|

e|----------------------|------------------------|-----------|----------------------|
B|--7b-(7b)--10b-(12b)--|--12b-(12b)--15b-(15b)--|--15b--12--|--15-15-15--12----12--|
G|--9b-(9b)--12b-(12b)--|--14b-(14b)--17b-(17b)--|-----------|---------------14-----|
D|----------------------|------------------------|-----------|----------------------|
A|----------------------|------------------------|-----------|----------------------|
E|----------------------|------------------------|-----------|----------------------|

e|---------------------------------------------|---------------------------------------|
B|--7-10p7-10p7-10p7-10p7-10p7-10p7-10p7-10p7--|--10b----10----10----10----------------|
G|---------------------------------------------|------9b----9b----9b----9-7---7---7----|
D|---------------------------------------------|----------------------------9---9---9--|
A|---------------------------------------------|---------------------------------------|
E|---------------------------------------------|---------------------------------------|

e|----------------------------------------------------------|--12b--12b(12)-10-----|
B|------------------------------------------7h9p7---7h(9b)--|------------------12--|
G|------------------7h9p7-------7h9p7---7h9-------9---------|----------------------|
D|------7h9p7---7h9-------9-7h9-------9---------------------|----------------------|
A|--7h9-------9---------------------------------------------|----------------------|
E|----------------------------------------------------------|----------------------|

e|---------17-17b--|
B|------15---------|
G|--/16------------|
D|-----------------|
A|-----------------|
E|-----------------|


Guitar 2: acoustic

    'B'
e|-------------|----------------|-----------------|
B|-------------|----------------|-----------------|
G|----6-7h9-7--|--6h7p6--4h6p4--|--3-3h4p3--------|
D|-------------|----------------|----------4------|
A|-------------|----------------|------------4----|
E|-------------|----------------|--------------2--|

e|----------------|-------------|----------------|------5------7-----9----|
B|----------------|-------------|----------------|------------------------|
G|--7-6-7/(11)-7--|--7-6-7h9-7--|--6h7p6--4h6p4--|--4/6----6/7---7/9---9--|
D|----------------|-------------|----------------|------------------------|
A|----------------|-------------|----------------|------------------------|
E|----------------|-------------|----------------|------------------------|


e|--10-10-10-10-9-7--7/9\7--5--|--3h5p3\2-3-5--3h5p3\2-3--|--2--------------|
B|-----------------------------|--------------------------|----3------------|
G|--11-11-11-11-9-7--7/9\7--6--|--------------------------|------4----------|
D|-----------------------------|--------------------------|--------4--------|
A|-----------------------------|--------------------------|----------5-4-2--|
E|-----------------------------|--------------------------|-----------------|


e|--------------5-5-3-2h3p2--------|--------------7p9-7-5-7--|
B|------------5-------------3p2h3--|------------5------------|
G|----------6----------------------|----------6--------------|
D|--------7------------------------|--------7----------------|
A|----4h7--------------------------|----4h7------------------|
E|--5------------------------------|--5----------------------|

Guitar 1: electric


e|---------------|
B|---------7h10--|
G|-----7h9-------|
D|--/9-----------|
A|---------------|
E|---------------|

     'A'                              repeat 2x      and then play this once...
e|-------------------|---------------------------|  |------------------|---------------|
B|o--10b--10-7--7-9--|--9b-9b-9p7---------------o|  |--10b--10-7--7-9--|--9b-9b-9p7----|
G|-------------------|------------9--9-9p7-------|  |------------------|------------9--|
D|-------------------|---------------------9p7---|  |------------------|---------------|
A|o------------------|--------------------------o|  |------------------|---------------|
E|-------------------|---------------------------|  |------------------|---------------|


                                                     repeat from 'A'
e|--------------------|---------------------------|
B|--------------------|---------------------------|
G|--------------------|---------------------------|
D|--9-11--11b-(11)-9--|--9--7/9-9/11-11/12-12/14--|
A|--------------------|---------------------------|
E|--------------------|---------------------------|

and then play this...
                                        repeat 2x     and then play this once...
e|-------------------|---------------------------|  |------------------|---------------|
B|o--10b--10-7--7-9--|--9b-9b-9p7---------------o|  |--10b--10-7--7-9--|--9b-9b-9p7----|
G|-------------------|------------9--9-9p7-------|  |------------------|------------9--|
D|-------------------|---------------------9p7---|  |------------------|---------------|
A|o------------------|--------------------------o|  |------------------|---------------|
E|-------------------|---------------------------|  |------------------|---------------|

                          repeat this bar 3x
e|--------------------|--------------------------|
B|--------------------|--------------------------|
G|--------------------|--------------------------|
D|--9-11--11b-(11)-9--|--7-7h9p7-----------------|
A|--------------------|----------9-10-9-7\(5)-7--|
E|--------------------|--------------------------|


KEY:

/ = slide up
\ = slide down
h = hammer-on
p = pull-off
b = bend
t = tremolo pick
() = dont pick notes in brackets
comments
We did not receive enough feedback on this tab! Please rate:
1 2 3 4 5
I want to post or [tab]
guest
You may want to rate the tab now too:
select rating
Please do not post tabs as comments. Select "correction" instead!