Oops, an error
Loading. Please wait.

Blue Moon Tab

ver2
ver2

Whole song

Interactive

More versions @911Tabs.com
13,878 views 1 this week
no commentswrite comment
1 2 3 4 5
excellent!
x 2
Autoscroll
+/-
esc
set tempo
stop
Contributor
Hey! There's an official Ultimate Guitar app which is ideal
for learning songs when you're away from computer. Get the app
WARNING: You are trying to view
                                    content from Ultimate-Guitar.com
                                    in an unauthorized application,
                                    which is prohibited.

                                    Please use an official Ultimate
                                    Guitar Tabs application for iPhone,
                                    iPad or Android to access legitimate
                                    chords, guitar, bass, and drum tabs
                                    from Ultimate-Guitar.com database.

                                    Type "ultimate guitar tabs" in Apple
                                    App Store's or Android Market's
                                    search to find the application.
                             Blue  Moon                                     

                            Tommy Emmanuel



               v    S                                           ^           
     Q    Q    Q    Q       E  E  Q    E  E  E  E     Q    Q    E  E  Q     
E||------------0---------|-------------------------|-----------------------|
B||------------1---------|-----1----------1--------|---------------1-------|
G||------------2---------|-----2----------2--------|---------------2-------|
D||------------2---------|-------------------------|-----------------------|
A||--3----2----0---------|-------------------0--2--|--3----2----0----------|
E||-----------------3----|--1-----2----3-----------|------------------3----|


                                        v    S                                
  E  E  E  E  E  E  E  E     E  E  Q    Q    Q       E  E  E  E  E  E  E  E   
-----------------1--------|-----0-------0---------|-----------------1--------|
-----1-----0-----0--------|-----1-------1---------|-----1-----0--------------|
-----2-----0--------------|-------------2---------|-----2-----0--------------|
--------------------------|-------------2---------|--------------------------|
--------------------0--2--|--3-----2----0---------|--------------------0--2--|
--1-----2-----3-----------|------------------3----|--1-----2-----3-----------|


                  S                >                                   S     
  E  E  Q    Q    Q       E  E  E  E  Q      E  E     E  E  Q    E  E  Q     
-------------3---------|-------------------2g3--3--|--L---------------------|
-----1-------1---------|-----1---------------------|----------------x-------|
-----0-----------------|-----2---------------------|-----0----------x-------|
-----------------------|---------------------------|------------------------|
--3-----2----0---------|---------------------------|--3-----2----0----------|
------------------3----|--1-----2--3---------------|-------------------3----|


     v                                      v  S      
  E  E  E  E  E  E  S E.     E  E  E  E  E  E  E  E   
-----1--3--5--3--3----1---|--3--------3-----3--------|
-----1----------------0---|-----------1-----1--------|
--------------------------|-----0-----------2-----2--|
--------------------------|--------------------------|
--------------5-----4-----|--3-----2-----0-----------|
--1-----0-----------------|--------------------3-----|


                                   |--3--|                  
  E  E  E  E  E  E  E  E     E  E  S  S  S E  E  E   E  E   
--------0--1--0--0--------|--0----------------0------------|
-----3-----------------3--|--------0h-1p-0-------1p--0-----|
--L-----------------------|-----2----------2------------2--|
--------------------------|--------------------------------|
--------------------------|--0-----------------------------|
--1-----2-----3-----4-----|-------------------3------------|


                                    ^         S    S     
         |--3--|  |----3----|                            
  E  E   E  E  E  Q    Q    Q       Q    Q    Q    Q     
------------0--------------------|--0-------------------|
-----1h--3--------1----1----1----|--1-------------------|
--L--2------------2----2----2----|--0-------------------|
-----------------------1---------|--2---------2---------|
---------------------------------|--3----2----0---------|
--2------2-----2--1--------------|-----------------3----|


                                               S          v                     
  E  E  E  E  Q      E  E     E  E  Q    E  E  Q       E  E  E  E  E  E  S E.   
-------------------2g3--3--|--L---------------------|-----1--3--5--3--3----1---|
-----1-----0---------------|----------------x-------|-----1----------------0---|
-----2-----0---------------|-----0----------x-------|--------------------------|
-----------3---------------|------------------------|--------------------------|
---------------------------|--3-----2----0----------|--------------5-----4-----|
--1-----2-----3------------|-------------------3----|--1-----0-----------------|


                 v  S                                        >                 
  E  E  E  E  E  E  E  E     E  E  E  E  E  E  E  E     Q    Q    E  E  E  E   
--3--------3-----3--------|--------0--1--0--0--------|--0---------------------|
-----------1-----1--------|-----3-----------------3--|-------1-------1-----1--|
-----0-----------2-----2--|--L-----------------------|-------2-------2-----2--|
--------------------------|--------------------------|------------------------|
--3-----2-----0-----------|--------------------------|--0----0----------------|
--------------------3-----|--1-----2-----3-----4-----|------------3-----3-----|


                                              ^    S     
         |--3--|  |----3----|                            
  E  E   E  E  E  Q    Q    Q       Q    Q    Q    Q     
------------0--------------------|----------------------|
--L--1h--3--------1----1----1----|--1---------1---------|
--L--2------------2----2----2----|--0---------2---------|
-----------------------1----1----|------------2---------|
---------------------------------|--3----2----0---------|
--2------2-----2--1--------------|-----------------3----|


  E  E  Q    E  E  E  E     E  E  E  E  E  E  E  E   
-------------------------|--------------------------|
-----1----------1--1--2--|--3-----3-----5--5-----1--|
-----2-------------------|--1-----2-----3--4-----0--|
-------------------------|--------------------------|
--0-----2----3-----------|--------------------------|
-------------------------|--1--1--2--2--3-----3-----|


                                       |--3--|               
  E  E  E  E  S S S S S S S S    E  E  E  E  E  E  E  E  E   
------------------------------|-----------------------------|
------------------1-L-----2-L-|--3--------3-----5-----5--1--|
------------------0-L-----0-L-|--1--------2-----3-----4--0--|
------------------------------|-----------------------------|
--3--3--2--2--0-L-------------|-----------------------------|
----------------------3-L-----|--1--1--2-----2--3--3--3-----|


                    |--3--|                               
  E  E  E  E  E  E  E  E  E     E  E  E  E  E  E  E  E    
-----------------------------|---------------------------|
--L--------------1-----1--1--|--1-----1-----3-----3------|
--L--------------0-----0--0--|--1-----1-----1-----1--1S--|
-----------------------------|-----1-----------3---------|
--3--3--2--2--0--------------|-----------1--1------------|
--------------------3--------|--1------------------------|


                  |--3--|                               
  Q    Q    E  E  E  E  E     E  E  E  E  E  E  E  E    
---------------------------|-----------------------2s--|
---------------------------|--0-----0--3--L-----3------|
--3---------L--------------|--0-----0--2--L-----2------|
---------------8-----8-----|-----0-----------0---------|
--6----5-------------------|---------------------------|
------------8-----6-----6--|--3-----------2------------|


  |--3--|  |--3--|  |--3--|  |--3--|                          
  E  E  E  E  E  E  E  E  E  E  E  E     Q    Q    Q    Q     
--3-----0-----------------------------|-------3----L---------|
-----6-----3-----0--------------------|----------------------|
--------------5-----3-----0-----------|----------------------|
-----------------------4-----3-----0--|----------------------|
--------------------------------4-----|--3----2----0---------|
--------------------------------------|-----------------3----|


                         >                             >   
                      |---3--|                             
  E  E  E    E  E  E  E  E   E     Q    E  E  E  E  E  E   
-----1-----4g5-----3-----1s--2--|--3-------3--------------|
-----1-------------------0------|----------1-----1-----3--|
--------------------------------|----------------2-----2--|
--------------------------------|-------------------------|
----------------5-----4---------|--3----2-----0-----------|
--1-----0-----------------------|-------------------3-----|


  E  E  S S S S Q    E  E     E  E  Q    E  E  E  E     E  E  E  E  E  E  Q     
-----0------1-L-0-------0--|--L----------------------|-------------------------|
--L------------------3-----|--------1----1--1-----1--|-----3-----4--L-----3----|
--L------------------------|--------2----2--2-----2--|-----2-----2--L-----2----|
---------------------------|-------------------------|-------------------------|
---------------------------|--0-----0----------------|--------------------3----|
--1-----2-L-----3----4-----|-------------3-----3-----|--2-----2-----1--1-------|


            ^    S                                           ^    S     
  Q    Q    Q    Q       E  E  Q    E  E  E  E     Q    Q    Q    Q     
----------------------|-------------------------|----------------------|
--1---------1---------|-----1-------------------|------------1---------|
--0---------2---------|-----2----------2--------|------------2---------|
------------2---------|-------------------------|------------2---------|
--3----2----0---------|-------------------0--2--|--3----2----0---------|
-----------------3----|--1-----2----3-----------|-----------------3----|


  E  E  E  E  Q      E  E     Q    Q    Q    Q     
-------------------2g3--3--|----------------------|
-----1-----1---------------|----------------------|
-----2-----2---------------|----------------------|
-----------3---------------|----------------------|
---------------------------|--3----2----0---------|
--1-----2--3---------------|-----------------3----|


  |--3--|  |--3--|                                        
  E  E  E  E  E  E  E  E  E  E     E  E  Q    Q    E  E   
--1--L--3--L--5--L--3-----1--3--|-----3------------------|
--------1--L--------------0-----|---------------------3--|
--------------------------------|---------------------2--|
--------------------------------|------------------------|
--------------------5--L--4-----|--3-----2----0----------|
--1--------0--------------------|------------------3-----|


  E  E   Q    Q    E  E     Q    Q    E  E  E  E     E  E  E  E  Q    Q     
-----0h--1----0-------0--|------------------------|------------------------|
--L----------------3-----|-------1----1--1-----1--|-----------4--L----3----|
--L----------------------|-------2----2--2-----2--|-----------2--L----2----|
-------------------------|------------------------|-----2------------------|
-------------------------|--0----0----------------|------------------------|
--1------2----3----4-----|------------3-----3-----|--2-----2-----1----1----|


                                          v     v     S              S     
  Q    Q    Q     Q        E  E  E  E  E  E  E  E     Q    Q    Q    Q     
------------------------|--------1--------3-----3--|------------3---------|
--1---------L-----------|--1--------0-----3-----3--|------------3---------|
--0---------L-----------|--3--------2-----2-----2--|----------------------|
------------------------|--4--------3-----2-----2--|----------------------|
--3----2----3-----------|--------------------3-----|--3----2----0---------|
-----------------10S----|--4--4--------3-----3-----|-----------------3----|


                                                     S     
  S S S S S S S S S S S S S S S S    E  E  Q    Q    Q     
------1---3---5---L---3---1---2---|--3--3-----------------|
------1---------------0---0-------|-----------------------|
----------------------------------|-----------------------|
----------------------------------|-----------------------|
------------------5-------4-------|--3-----2----0---------|
--1-------0-----------------------|------------------3----|


                                         >                 
  |--3--|  |--3--|                                         
  E  E  E  E  E  E  E  E  E  E     E  E  Q    E  E  E  E   
--------0--L--1--L--0--------0--|--L----------------------|
--3--L--------------------3-----|--------1----1--1-----1--|
--2--L--------------------------|--------2----2--2-----2--|
--------------------------------|-------------------------|
--------------------------------|--0-----0----------------|
--1--------2--------3-----4-----|-------------3-----3-----|


  E  E  E  E  Q    Q       E  E   Q    Q    Q       Q    Q    Q    E  E   
------------------------|------------------------|-----------------------|
-----------4--L----3----|--1--3p--1----L---------|-----------------1--2--|
-----------2--L----2----|--0---------------------|-----------------------|
-----0------------------|------------------------|-----------------------|
-----x------------------|--3------2----0---------|--0----2----3----------|
--2-----2-----1----1----|-------------------3----|-----------------------|


  E  E  E  E  E  E  E  E     E  E  E  E  E  E  E  E   
--------------------------|--------------------------|
--3-----3-----5--5-----1--|-----------------1--1--2--|
--1-----2-----3--4-----0--|-----------------0--0--0--|
--------------------------|--------------------------|
--------------------------|--3--3--2--2--0-----------|
--1--1--2--2--3-----3-----|--------------------3-----|


                                               |--3--|   
  E  E  E  E  E  E  E  E     E  E  E  E  E  E  E  E  E   
-----------0--------------|-----------------------------|
--3--3--3--3--5--5-----1--|--L--------------1-----1-----|
--1--1--2-----3--4-----0--|--L--------------0-----0-----|
--------------------------|-----------------------------|
--------------------------|--3--3--2--2--0--------------|
--1-----2-----3-----3-----|--------------------3--L--3--|


                                              |--3--|   
  E  E  E  E  E  E  E  E      Q    Q    E  E  E  E  E   
---------------------------|---------------------------|
-----1--1-----3-----3------|---------------------------|
-----1--1-----1-----1--1S--|--3---------L--------------|
--------1--------3---------|---------------8-----8-----|
-----------1--1------------|--6----5-------------------|
--1------------------------|------------8-----6-----6--|


                             ^  ^        v        v  ^  v   
                                   |--3--|        |--3--|   
  E  E  E  E  E  E  E  E     E  E  E  E  E  E  E  E  E  E   
-----------------------3--|--L-----------3--L-----3--------|
--0-----0--3--------3-----|--------------1--L-----1--------|
--0--0-----2-----2--------|--0--0--L-----0--L-----0--0-----|
--------------------------|--3--3--L-----3--L-----3--3--3--|
--------------------------|--3--3--L-----------------3--3--|
--3-----------2-----------|--1--1--L--1--------1-----1--1--|


  ^  v  ^  v  ^  v        v       ^    ^    ^    ^    ^    ^     
  |--3--|  |--3--|                |----3----|    |----3----|     
  E  E  E  E  E  E  E  E  Q       Q    Q    Q    Q    Q    Q     
-----------------3--L-----3----|-------8----6----8----6----8----|
-----------------3--L-----3----|--x----8----6----8----6----8----|
--0--0--0--0--0--0--L-----0----|--x----6----6----6----6----6----|
--0--0--0--0--0--0--L-----0----|--x----5----5----5----5----5----|
--2--2--2--2--2--2--L-----2----|--x----6----6----6----6----6----|
--0--0--0--0--0--------0-------|--x----6----6----6----6----6----|


  ^    ^    ^    ^    ^    ^       ^                       
  |----3----|    |----3----|                               
  Q    Q    Q    Q    Q    Q       Q    E  E  E  E  E  E   
-------6----4----6----4----6----|--3-------3--------------|
--x----6----4----6----4----6----|--3-------3--------------|
--x----4----4----4----4----4----|--2-------------0-----0--|
--x----3----3----3----3----3----|--2----------------------|
--x----4----4----4----4----4----|--3----2-----0-----------|
--x----4----4----4----4----4----|--3----------------3-----|


                                            >              
                      |---3--|                             
  E  E  E    E  E  E  E  E   E     E  E  E  E  Q    E  E   
-----1-----3g5--3--3-----1s--2--|--3--------3-------------|
--------------------------------|-----------1----------3--|
--------------------------------|-----0----------------2--|
--------------------------------|-------------------------|
----------------5-----4---------|--3-----2-----0----------|
--1-----0-----------------------|-------------------3-----|


  |--3--|  |--3--|                                        
  E  E  E  E  E  E  E  E  E  E     Q    Q    E  E  E  E   
--------0--L--1--L--0--------0--|------------------------|
--L--L--------------------3-----|-------1----1--1--------|
--L--L--------------------------|-------2----2--2-----2--|
--------------------------------|---------------------2--|
--------------------------------|--0----0----------------|
--1--L-----2--------3--L--4-----|------------3-----3-----|


                        ^                         ^     
  E  E   E  E  E  E  E  E     E  E  E    E  E  E  Q     
------------0--------------|----------------------0----|
-----1h--3-----1--------1--|-----1--3br--1--3--1--1----|
------------------2-----2--|----------------------2----|
------------------------3--|----------------------0----|
------------------------3--|----------------------x----|
--2------------------0--0--|----------------------2----|


           |--3--|                                        
  E  E  E  S  S  S E  E  E  E     E  E  E  E   Q    Q     
-----8-------------------------|--------------------0----|
-------------------------------|-----1--L--1s--3---------|
-----------7s-8s-7-5-----5-----|-----3--L--L-------------|
----------------------7--------|-----4--L--L-------------|
-------------------------------|-------------------------|
----------------------------x--|-----4--L------L---------|


                                                                   ^   
  H        E  E  E  E     H        Q    Q       Q    Q    Q     E  E   
-----------------------|-----------8---------|--8---------8s-------3--|
--1--------1-----0--1--|-----------6---------|--7---------8s-------3--|
--2--------2-----1--2--|-----------7---------|--8---------9--------2--|
--3-----------3--L--2--|---------------------|---------------------2--|
--------------------3--|-----------5---------|--6---------7--------3--|
--3--------------------|---------------------|---------------------3--|


  W                  
--L----------------||
--L----------------||
--L----------------||
--L----------------||
--L----------------||
--L----------------||




Duration Legend
---------------
W - whole
H - half
Q - quarter
E - 8th
S - 16th
T - 32nd
X - 64th
. - note dotted
|-n-|  - n-tuplets


Tablature Legend
----------------
L - tied note
x - dead note
g - grace note
(n) - ghost note
> - accentuded note
NH - natural harmonic
AH - artificial harmonic
TH - tapped harmonic
SH - semi harmonic
PH - pitch harmonic
h - hammer on
p - pull off
b - bend
br - bendRelease
pb - preBend
pbr - preBendRelease
brb - bendReleaseBend
\n/ - tremolo bar dip
\n - tremolo bar dive
-/n - tremolo bar Release up
/n\ - tremolo bar inverted dip
/n - tremolo bar return
-\n - tremolo bar Release down
S - shift slide
s - legato slide
/ -  slide into from below or out of upwards
\ -  slide into from above or out of downwards
~ - vibrato
W - wide vibrato
tr - trill
TP - tremolo picking
T - tapping
S - slap
P - pop
< - fade in
^ - brush up
v - brush down
comments
We did not receive enough feedback on this tab! Please rate:
print report bad tab
1 2 3 4 5
I want to post or [tab]
guest
You may want to rate the tab now too:
select rating
Please do not post tabs as comments. Select "correction" instead!