Oops, an error
Loading. Please wait.

Endless Road Tab

ver1
ver1

Whole song

Interactive

More versions @911Tabs.com
27,324 views 33 this week
no commentswrite comment
1 2 3 4 5
excellent!
x 8
Autoscroll
+/-
esc
set tempo
stop
Contributor
Hey! There's an official Ultimate Guitar app which is ideal
for learning songs when you're away from computer. Get the app
WARNING: You are trying to view
                                    content from Ultimate-Guitar.com
                                    in an unauthorized application,
                                    which is prohibited.

                                    Please use an official Ultimate
                                    Guitar Tabs application for iPhone,
                                    iPad or Android to access legitimate
                                    chords, guitar, bass, and drum tabs
                                    from Ultimate-Guitar.com database.

                                    Type "ultimate guitar tabs" in Apple
                                    App Store's or Android Market's
                                    search to find the application.
                                  ENDLESS ROAD
                          As recorded by Tommy Emmanuel
                       (From the 2004 Album ENDLESS ROAD)

Music by Tommy Emmanuel

(Thanks Girogio for the help of this tab)

Gtr I (E A D G B E)

 Intro (Break A)                      Verse A
  Q=104
                                    $  $$
                                       G6
 4/4
  Gtr I
  S S S S S S S S a S S S S S S S S     E.     E.   E.   E   E   E   S
|-3---------------------------------||--------------0-------------------|
|-3h5p3-0-1-0-----1p0---------------||---------3----3--------1p==0------|
|-------------2-0-----2-0---0-------||--0------0----0----0-----------0--|
|-------------------------4---0---0-||-(0)------------------------------|
|-------------------------------2---||----------------------------------|
|-----------------------------------||--3--(3)----3-3--3---3---3---3----|
                                        E   E     E E  E   E   E   E


  Em7                                     F6add9
  +E   S   S  +E   E  +S  E   E   E   S   +E.   E     E   E.   E.    S  S   S
|-----------------(0)-(0)---------------|-------------0--------0---------------|
|-----(3)--3--(3)--3--(3)-----1p==0-----|-------3---------3----3----(0)(0)-(0)-|
|-(0)--0--(0)-(0)--0--(0)-0-----------0-|-(0)-------------0----0-----0h=2---0--|
|------2--(2)-(2)--2--(2)---------------|-----3----------------3---------------|
|--------------2------------------------|---------(3)---3----------------------|
|--0-------------------0----0---0---0---|--1-------1---------1----1------------|
   Q           Q       E    E   E   E      E  E    E    E    E E  E     E


                                               Verse A
  C                     D7/F#                   G6
  S  E       E    E   E   +E    a S S  S  S S   E.   E.   E.   S S E     E   S
|---------------------------------------------|-----------0--------------------|
|-0--1-------0------------------1p0---(0)-----|------3----3--------1p====0-----|
|-0-(0)-----(0)---0---2---(2)-------2--0----2-|-0----0----0----0-0-----------0-|
|-2------2----------0---------0-----------4---|----0------0------0---------0---|
|-3-----(3)-----3----------0------------------|----2----2----------------------|
|-----------------------2---------------------|-3------------3-------(3)-------|
  E      E      E   E   S  S  E     Q           E  E    E E  E   E    E    E


  Em7
  +E  S  S  +E   E  +S  S S E   S S S
|-------------------------------------|
|--------3--(3)-(3)-(3)-----1p==0---1-|
|-(0)-0-(0)-(0)--0--(0)-0-0-------0---|
|-----2-(2)-(2)--2--(2)---2-------2---|
|------------2------------------------|
|--0-----------------0--------0-------|
   Q         Q       Q        Q


  F6add9               D7/F#
  +E     S  S S E   E.       S  T T S  S  S S
|---------------0------------------------------|
|-(1)-------1-3-----3-----------1p0---(0)------|
|--------0-------------------2------2--0----2--|
|-----3--3--------0--------0-0------------4----|
|-------(3)---3----------0---0-----------------|
|--1-----1-------------2-----------------------|
   S  S  E    E   E    T T S Q.


 Verse B
  G                     Em7              Cadd9
   E.    E       E.     E   E   S  S +S  S
|--------0-------2------3----------3-(3)---|
|-(0)-----------------------3------3-(3)---|
|--0----(0)-----(0)---------0---0--------0-|
|--0--0-----(0)-----(0)----(2)-(2)---------|
|-------------------------------------2--3-|
|--3---------x-------2--0------------------|
   E  E      E       E  Q.            s  S


                             G/B
   S   S   S   S  +S  E   E.   E.   S S S
|--0h==2---0------------------------------|
|--3--(3)------3--(3)-1---3----3--------0-|
|-(0)-(0)-(0)-(0)-(0)-0---0----0----0-2---|
|-----------------------0------0----------|
|-(3)--------------3---------2----2-------|
|-----------------------------------------|
  +Q               E    E    Q    E   E


  B7b9               Em7            Cadd9
  S  S  S E   E   E.    E S  S  +S  S
|-----------------3-----3---(3)-(3)---|
|-1-(1)-0---------3-----3-3-(3)-(3)---|
|-2-(2)---2---0---------0-----------0-|
|----1------------------2-------------|
|-2------------------------------2--3-|
|-----------2---1----0----------------|
  Q         E   E    Q.          s  S


                                    To Dbl. Coda
                        Asus4         A7
   S   S   S  S +S  S S S +S   S   S  S +S  S E
|--0h==2---0------------0-(0)-(0)--0--0-(0)-0-----|
|--3--(3)-----3-(3)-1---3-(3)-(3)--3--2-(2)-------|
|-(0)-(0)-(0)-0-(0)---0-2-(2)--2---2--0-(0)-------|
|----------------0------2-(2)--2--(2)-2-(2)-----0-|
|-(3)-------------------0-(0)---------0-(0)---0---|
|-------------------------------------------------|
  +Q             E.     S +E.         S +E    s S


 Break B
                             To Coda
  C/D
   PM
   S  S S S +E     E.   S S S S S E
|-(0)-x-x-2-(2)----3----3-3-3---3-----|
|--1--x-x-3-(3)----5----5-5-5-5-5-----|
|--0--x-x-4-(4)----5----5-5---5-5-----|
|--0---------0--0-(0)-0---0-------0-0-|
|-------------------------------------|
|-------------------------------------|
   Q         s  S +E  E   Q       s S


                             D.S. al Coda
  C/D
   PM
   S  S S S +E     E.   S  S  S +E    S  S
|-(0)-x-x-2-(2)----3----3-(3)-3-(3)--------||
|--1----x-3-(3)----5----5--5--5-(5)--------||
|--0----x-4-(4)----5----5--5--5-(5)------0-||
|-(0)---x-0--0--0-(0)-0----0----------0----||
|------------------------------------------||
|--------------------------------0h2-(2)---||
  +E    S S  s  S +E  E    E     S S +E


  &
  C/D                                    C/D
   PM
   S  S S S +E    E.   S +S  S S S E     S S S S S S E  S  S S S S S s S
|-(0)-x-x-2-(2)---3----3-(3)-----3-----|-3-x-x-5---0-8-----8-8-8-8-8-8---|
|--1--x-x-3-(3)---5----5-(5)-5-5-5-----|-5-x-x-7-----8--8--8-8---8---8---|
|--0--x-x-4-(4)---5----5-(5)-5-5-5-----|-5-x-x-------9--9----9---9---9---|
|--0---------0--0-0--0----0--------0-0-|-0-------0---0-(0)---------------|
|--------------------------------------|---------------------------------|
|--------------------------------------|---------------------------------|
   Q         s  S E  E    Q        s S   Q       E   E +Q.           E


 Break A                              Break C
                      H.=H          Q=84
                                       Em
  S S S S S S S S a S S S S S S S S    S S S S S S S S S S S S S S S S
|-3---------------------------------||-----------0-------------0--------|
|-3h5p3-0-1-0-----1p0---------------||---------0---0-------------0------|
|-------------2-0-----2-0---0-------||-------9-------9-------9-----9----|
|-------------------------4---0---0-||-----9-----------9---9---------9--|
|-------------------------------2---||---7---------------7--------------|
|-----------------------------------||-0--------------------------------|
                                       W


                                     Verse C
  Em                                  Em                B/D#
  +S  S S S S S S S S S S S S S S S   +S  S S S S S S S +S  S S S +S  S S S
|-------------0-------------0-------|-----------7-----7-(7)-----5-(5)-------|
|-----------0---0-------------0-----|-------8-----8-----------------------4-|
|---------9-------9-------9-----9---|-------9-----------------4---------4---|
|-(9)---9-----------9---9---------9-|-(9)-----9-------------4---------4-----|
|-----7---------------7-------------|-----7--------------6---------6--------|
|--0--------------------------------|--0------------------------------------|
   W                                   Q.           E    Q         Q


  G/D             A/C#                Cadd9               G/B
      PM
        |--3---|
  S S E E E a  E  S S S S +S  S S S   +S  S S S +S  S S S +S  S S S +S  S S S
|-------3-5-5h=7--5---3-----------0-|-(0)-----0-(0)-----0-(0)------------------|
|-----3-3-5-5-(5)-------5-(5)-3h5---|-------3---------3---------3--------------|
|---4---4-6-6-(6)---2---------2-----|-------0---------------------0-(0)-0---0--|
|-0-----------------2---------------|-----2---------2---------0-----------0----|
|-----------------4--------4--------|--3---------3---------2---------2---------|
|-----------------------------------|------------------------------------------|
  Q     Q         Q        Q           Q         Q         Q         Q


  Cadd9         F#7         B7b9
                          PM
  S S S S +E.     E    E    S  S  S S S
|-0-----0-(0)-----0----2----2---------2-|
|-----3-----------------------------1---|
|-----0-----------3---(3)---------2-----|
|---2--------------------------1--------|
|-3-----------------------0-2-(2)-------|
|----------0--1-2---2-------------------|
  Q        S  S E   E     S S +Q


 Verse D
  Em                   B/D#
               |--3--|
  S   S  S +S  E E   E S S  S  T T  E     S S
|--------------7-7---8-7-------7s8--5----------|
|--------8-(8)-------------(4)--------------4--|
|--------9-(9)--------------4------------------|
|------------------------4----------------4----|
|----(x)---------------6-----------(6)-6-------|
|-0--------------------------------------------|
  Q.               E   Q           +S  E.


  G/D            A/C#
  S E    E a E S +S  S S S +S  S S   S
|---3----5-5h7-5-(5)---3------------(0)-|
|---3----5-5h7-----------5-(5)-3h5\-----|
|---4----6-6h7-------2---------2--------|
|-0------------------2------------------|
|-----------------4---------4-----------|
|---------------------------------------|
  S S Q.          Q         Q


  Cadd9               G/B
  +S  S S S +S  S S S +S  S S S +S  S S S
|-(0)-----0-(0)-----0-(0)------------------|
|-------3---------3---------3-----------3--|
|-------0---------------------0-(0)-0------|
|-----2---------2---------0-----------0----|
|--3---------3---------2---------2---------|
|------------------------------------------|
   Q         Q         Q         Q


                                       Break D
  Bb               F/A         G   D/F#
                                                     |------5-------|
  S S S S  E     S  S  S S  S  S S E.   +H.      +E. X  X   X   X   X
|-1p0------------------0--------------|--------------0-(0)-(0)-(0)-(0)-|
|-----3---------^3-(1)-1-1--3--3---3--|-(3)------(3)----0--(0)-(0)-(0)-|
|-------3-------^3--2--2-2--2--0---2--|-(2)------(2)--------9--(9)-(9)-|
|----------3----^3--3--3-3--0--0---0--|-(0)------(0)------------9--(9)-|
|-1-------(1)-1-----0--0---(0)-----0--|-(0)------(0)----------------7--|
|------------------------------3---2--|-(2)------(2)-------------------|
  Q       +S  E     S  E    S  S S E.   +H.      +E. S


                                       Verse C
                                        Em               B/D#
  +E  S S S S  S   S  S S S S S S S S   S  S S S S S S S +E    S S E    S S
|-(0)-----0-----------0-------------0-|----------7-----7-(7)-----7-5---------|
|-(0)-------0-----------0-------------|------8-----8----------------------4--|
|-(9)---------------------9-------9---|------9-----------------4-------------|
|-(9)-9-------(9)-----------9---9-----|--------9------------------------4----|
|-(7)---7---------(7)---------7-------|----7--------------6--6-------6-------|
|--0----------------------------------|-0------------------------------------|
   W                                    Q.           E    S  Q       E.


  G/D                 A/C#
       PM
          |--6:5---|
  S S  S  E   E a  E  S S S S +S  S S   S
|-----(3)-3---5-5h=7--5---3------------(0)-|
|------3--3---5-5-(5)-------5-(5)-3h5\-----|
|---4-----4---6-6-(6)---2---------2--------|
|-0---------------------2------------------|
|---------------------4--------4-----------|
|------------------------------------------|
  Q         Q         Q        Q


  Cadd9               G/B
  +S  S S S +S  S S S +S  S S S +S  S S S
|-(0)-----0-(0)-----0-(0)-----------------|
|-------3---------3---------3-------------|
|-------0---------------------0-(0)-0---0-|
|-----2---------2---------0-----------0---|
|--3---------3---------2---------2--------|
|-----------------------------------------|
   Q         Q         Q         Q


                                         Verse D
  Cadd9         F#7         B7b9          Em                 B/D#
                          PM                  PM---|
                                                     |--3--|
  S S S S +E.     E    E    S  S  S S S   S   S  S S E E   E S S S S +S  S S S
|-0-----0-(0)-----0----2----2---------2-|------------7-7---8-7-----5-(5)-------|
|-----3-----------------------------1---|--------8---8-8---7-----4---------4---|
|-----0-----------3---(3)---------2-----|--------9---------------4-------------|
|---2--------------------------1--------|----------9-----------4---------4---0-|
|-3-----------------------0-2-(2)-------|----(7)-------------6--------6--------|
|----------0--1-2---2-------------------|-0------------------------------------|
  Q        S  S E   E     S S +Q          Q.             E   Q        E.     S


  G/B                A/C#
   S  S S  E a  E  S +S  S S S +S  S S   S
|-----3----5-5h=7--5-(5)---3------------(0)-|
|-----3----5-5-(5)-2-(2)-----5-(5)-3h5\-----|
|-(4)-4----6-6-(6)-------2---------2--------|
|-(0)--------------------2------------------|
|---------------------4---------4-----------|
|-------------------------------------------|
  +S  S Q.            Q         Q


  Cadd9               G/B
  +S  S S S +S  S S S +S  S S S +S  S S S
|-(0)-----0-(0)-----0-(0)------------------|
|-------3---------3---------3-----------3--|
|-------0---------------------0-(0)-0------|
|-----2---------2---------0-----------0----|
|--3---------3---------2---------2---------|
|------------------------------------------|
   Q         Q         Q         Q


  Bb                     Fmaj7   G     D/F#
                                                         |------5-------|
  S S S S  E      S   S  S S  S   S  S E.   +H.      +E. X  X   X   X   X
|-1p0--------------------0----------------|--------------0-(0)-(0)-(0)-(0)-|
|-----3---------^(3)-(1)-1-1--3--(3)---3--|-(3)------(3)----3--(3)-(3)-(3)-|
|-------3-------^-3---2--2-2--2---0----2--|-(2)------(2)--------0--(0)-(0)-|
|----------3----^-3---0--3-3--0---0----0--|-(0)------(0)------------4--(4)-|
|-1-------(1)-1----------0---(0)-------0--|-(0)------(0)----------------2--|
|------------------------1--------3----2--|-(2)------(2)-------------------|
  Q       +S  E       S  E    S   S  S E.   +H.      +E. S


 Break E
  Em9             Cadd9
                                  |------5-------|
  +E  S S S S S S +S  S S S  S  E X  X   X   X   X
|-(0)-----------------------------0-(0)-(0)-(0)-(0)-|
|-(3)-----3-----3-(3)--------3-------3--(3)-(3)-(3)-|
|-(0)---0---0-----------0-------0--------0--(0)-(0)-|
|-(4)-4-------4-------4---4------------------4--(4)-|
|-(2)--------------3--------(3)------------------2--|
|--0------------------------------------------------|
   H               Q        +E.   S


  Em9             Cadd9
                                    |------5-------|
  +E  S S S S S S +S  S S S  S  S S X  X   X   X   X
|-(0)-------------------------------0-(0)-(0)-(0)-(0)--|
|-(3)-----3-----3-(3)--------3---------3--(3)-(3)-(3)--|
|-(0)-0-----0-----------0-------0----------0--(0)-(0)--|
|-(4)---4-----4-------4---4-------4------------4--(4)--|
|-(2)--------------3--------(3)--------------------2---|
|--0---------------------------------------------------|
   H               Q        +E.     S


  Em9             Emadd9/B
  +E  S S S S S S +S  S S S +S  S S S
|-(0)---------------------------------|
|-(3)-----3-----3-(3)-----0-(0)-----0-|
|-(0)---0---0-----------0---------0---|
|-(4)-4-------4-------4---------4-----|
|-(2)--------------2---------2--------|
|--0----------------------------------|
   H               Q         Q


 Verse E
  Em9                 Cadd9                 G
  +S  S S S  S  S  S  S  S  S  S   E    E   S
|---------------------------0-(0)--------------|
|-(0)-----3-----3-----3---------------------0--|
|---------0-----0-----0------------0----2------|
|-------4---(4)---(4)---(4)---(4)--------------|
|-----2---------------3-(3)--------------------|
|--0--------(0)-------------------(0)-0-2-2-3--|
   Q        +E.       S +E.        S  S S S S


                  AmG     F         Fadd9
                                              2/4
               |-3--|
   S  S +S  S +E  E E  S  E S +S  S +S    S    +E   S  S S S  S  S
|---------------------------------------^-1--|-(1)-----1------1--1-|
|-(0)-------------1-0--0----------0-(0)-^-1--|-(1)--1----1----1--1-|
|-----0-(0)-0-(0)---------2-2-(2)-0-(0)-^-0--|-(0)--0----0----0--0-|
|--0------------------------------------^(3)-|-(3)-(3)-----3-(3)---|
|-----------------0---------------------^-3--|-(3)-----------------|
|-(3)----3-----3----3-(3)-1-1-(1)----1-------|-(1)-----------------|
  +E     E     E  E E  S  E S +E     E         +H
               |-3--|


 Break F
  Em9                   Cadd9
 4/4
  PM|      PM      PM
  S  s  S  s  S S  s  S +S  S S S S S S S
|-----------------------------------------|
|-------3-----3-3-----3-(3)---3---3-3---3-|
|-------0-----0-0-----0-(0)---0---0-0---0-|
|---(4)---(4)-----(4)-------4---4-----4---|
|------------------------3----------------|
|-0---------------------------------------|
  s  E.       Q          H


  Em9               Cadd9
  +S  S S S S S S S +S  S S S S S S S
|--------------------------------------|
|-(3)---3---3-3---3-(3)---3---3-3---3--|
|-(0)---0---0-0---0-(0)---0---0-0---0--|
|-----4---4-----4-------4---4-----4----|
|--------------------3-----------------|
|--0-----------------------------------|
   H                 H


 Verse F
  Em9                     Cadd9                 G
  +S  S S  S   S   S   S  S  S  S  S   E    E   S
|-------------------------------0-(0)-------------|
|-(3)------3--(3)--3--(3)-3---------------------0-|
|-(0)-----(0)-(0)--0--(0)-0------------0----2-----|
|-------4--4--(4)-(4)-(4)---(4)---(4)-------------|
|-----2-------(2)------2--3-(3)-------------------|
|--0----------(0)---------------------(0)-0-2-2-3-|
   Q          +E.         S +E.        S  S S S S


          Am7       G/B       C     Eadd9
                                    |-----5------|
  +S  E   S  S  S S S  S  S S S +E  T T  T   T   T
|-----------------------------0-(0)-----------------|
|-(0)-----1---------3-----3---1-(1)--------------0--|
|-----0---------0------0------0-(0)----------1--(1)-|
|------------0----0---------0-2-(2)------4--(4)-(4)-|
|---------0-(0)-----2-(2)-----3-(3)---2-(2)-(2)-(2)-|
|-(3)---3---------------------------0---------------|
   E    S S +E.     S +E    S S +E  E


 Verse G
  E                                             Am/E
   E   S   S  +S  a  S  +S  S T T S S S +S  E   S
|--0-------0--(0)-2h=4--(4)-4-4s5s4-2-2-(2)-0---5-|
|-(0)--0--(0)-(0)---------------------------------|
|-(1)-(1)---------4-(4)-(4)-4-4s5s4-------------5-|
|-(4)---------------------------------------------|
|-(2)---------------------------------------------|
|-(0)----------0-------------------------0----0---|
  +Q           H                         E    E


  +S   S   S  a S  S  S S S S S S S S  S E
|-(5)--4--(0)-2s3--2--0---0--------------0---|
|---------------------------0----------------|
|-(5)-(5)--5------(5)---------5--------5-----|
|-----------------------7-------7---7--------|
|---------------------------------7----------|
|--0---------------------------------------0-|
   Q               H                E.     S


  E                                       Am/E
               |--3---| |---3---|
  +S  S  S  S  E  a E E E E a a E +S  E   S
|-(0)----0--0--0--3s7-7-7-5-4s5s4-(4)-0---5-|
|--------------0--1s5-5-5-------------------|
|-----1-(1)-1-(1)---------5-4s5s4-(4)-------|
|-------------------------------------------|
|-------------------------------------------|
|-(0)-----------------------------(0)---0---|
  +H.                             +E    E


   S  S S a a S S S S S S S S S S E.
|-----4---2s3s2---0---0-----------0--------|
|-----------------------0---------0--------|
|--5----5-------5---------5-------5--------|
|-------------------7-------7---7----------|
|-----------------------------7------------|
|-(0)--------------------------------0-(0)-|
  +Q            H               E    S  S


    F                     Fmaj7
  E    S  S  S  S S S +S   S   S  S +S  S S S
|-----------------0-0-(0)--0--(0)-0-(0)-0-0---|
|---------------0---0-(0)--1---1--1-(1)-1-1---|
|------------0------0-(0)--2---2--2-(2)---2-2-|
|---------3---------3-(3)--3--(3)---------3-3-|
|------3------------------(3)-----------------|
|-0-1-(1)---(1)-------------------------------|
  S S +E    +H.


  T T T T T T T T T T T T T T T T S s S s S S a S S
|-----------------------------5-6-7-8---7---5-7p5-0---|
|-----------------------5-6-8-------------------------|
|---------------3-5-6-7-------------------------------|
|---------2-3-5---------------------------------------|
|-0-2-3-5---------------------------------------------|
|-----------------------------------------------------|


  E
        |-3-|       |-3-|
  +E  S T T T S S E E E E E E
|-(0)-------0---0-0-0-0-0-0-0--|
|-----0-0-0-0-0-0-0-0-0-0-0-0--|
|-----1-1-1-1-1-2s4-4s5s7-7-7\-|
|-------2-----2-4s6-6s7s9-9-9\-|
|------------------------------|
|--0---------------------------|
   W


  T T T T T T T T T T T T T T T T S s S s S S a S S
|-----------------------------5-6-7-8---7---5-7p5-0-|
|-----------------------5-6-8-----------------------|
|---------------3-5-6-7-----------------------------|
|---------2-3-5-------------------------------------|
|-0-2-3-5-------------------------------------------|
|---------------------------------------------------|


  E
  +E   S    T  T  S  S  +S   S S S  S  S +S  S +E
|-(0)-(0)---0--0--0--0--(0)--0-0-0-----0-(0)-0-(0)-|
|-----(0)---0--0--0--0--(0)--0-0-0-----0-(0)-0-(0)-|
|---------/10-10-10-10-(10)--9-7---(7)-5-(5)-4-(4)-|
|---------/12-12-12-12-(12)-10-9---(9)-7-(7)-6-(6)-|
|--------------------------------------------------|
|--0-----------------------------------------------|
   W


                          |---5---| |------6------|
  T T T T T T T T T T T T T T T T T t T  T  T  T  T  E.  S  E
|-----------------------------5-6-7-8-9-10-11-12-13-13--12-10---|
|-----------------------5-6-8-----------------------------------|
|---------------3-5-6-7-----------------------------------------|
|---------2-3-5-------------------------------------------------|
|-0-2-3-5-------------------------------------------------------|
|---------------------------------------------------------------|


                            Variation on Verse B
  Q=68
                                          Em               Cadd9
             ~~~~
   a  E  E  +Q.    +E   Q    S  S S S +E.   S S S +Q    E
|-10h12-12-(12)---(12)\----|----0h2-3-(3)--------------------|
|--------------------------|-0-------------------------------|
|--------------------------|--------------------0-(0)--------|
|--------------------------|------------------2--------------|
|--------------------------|----------------2--------------3-|
|--------------------------|--------------0------------(0)---|
                             Q.           H            +S  S


                                                  H.=H
                          G/B             F#m7b5  F7           Em7           Cadd9
   S   S  X X S. S. T S S +E  E S S S S   S S S S +T  S. S S S +S  S S  E  E
|-^0h==2--3p2p0-------------------------|--------------------3-(3)-------------|
|-^3--(3)--------3--1h3-3-(3)-----3-3p1-|-1-----0-(0)----------------------3---|
|-------------------------------0-------|-----2-------2----0------------0------|
|-----------------------------0---------|---2------------1-----------2---------|
|-(3)----------------------2------------|--------------------------2---------3-|
|---------------------------------------|-2--------1------------0------(0)-----|
  +H                       H              Q        Q         S  E.     +E.   S


  Q=68
                          A7sus4      A7
   S   S  X X S. S. T S S +S  S S S S T T S S
|-^0h==2--3p2p0-------------------------------|
|-^3--(3)--------3--1h3-3-(3)-----3-2-------2-|
|-------------------------------0-------0-0---|
|-----------------------------2-------2-------|
|-(3)----------------------0------------------|
|---------------------------------------------|
  +H                       H


                                    H.=H
  C/D
  |-3-| |-3-|  |-3--|  |-3--| |-3-| |-3-| |-3-|  |-3--|
  S S S S S S  S  S S  S  S S S S S S S S S S S  S  S S
|-------0---------0---------3-------3-------8-------------|
|-----1---1----1----------5---5---5-------8---8-----8-----|
|---0-------0----------5--------5-------9--------9----9s==|
|-0-----------(0)---0-(0)-----------------------(0)-0-----|
|---------------------------------------------------------|
|---------------------------------------------------------|
  Q           +E    S +H                        +S  E
               |-3--|                            |3-|


                        Variation II on Verse B
                 Q=104
  D                      Em        Cadd9
   |-3-|
   E   S  +H     E E E   E E  E  E S S S S +S  S +S  S
|-----10-(10)------0h2-|-3---------0h2p0---------------|
|----------------0-----|---0-------3-----3-(3)-1-(1)-3-|
|-11-------------------|---0-----0-------------0-(0)-0-|
|-(0)------------------|---2-----2-------------------0-|
|----------------------|-----(2)---3--------3-----3----|
|----------------------|-0-----------------------------|
  +W                     H         Q        E     E


  G/B                F#m7b5  F7
                                      PM
  +E  E  S  S  S  S   E  S S +S  a S +S  S
|----------------------------------------3-|
|-(3)-3-----------0---1--0-----------------|
|-(0)-0-----0--2-(2)-(2)---2-(2)-2p0-(0)---|
|-(0)-0-(0)--------------------------------|
|--2-----2---------------------------------|
|---------------------2-------1------(0)---|
   Q     S  E.        Q       E       E


  Em7             Cadd9
  +S   S  E  E  E a  E  S S +S  S +S  S
|-(3)-(3)-3-------0h=2--0----------------|
|---------3--3----3-(3)---3-(3)-1-(1)-3--|
|---------0--0--0-0-(0)---------0-(0)-0--|
|------2--2-(2)-2------------0-----------|
|---------2-------3-(3)------------------|
|--0-------------------------------------|
   H              a +Q       Q


  G/B                   B7b9/F#
  +S  S S S +S   S  S S +S   S  S S +S   S  S S
|---------------------------------------------3-|
|-(3)-----3-(3)--1----1-(1)p(0)-0---------------|
|-(0)---0-------(2)---2-(2)-------2-(2)--0--0---|
|-----0-0--------------------1----1-(1)-(1)-1---|
|--2---------2------------------------------2---|
|------------------------2-----------2----------|
   Q         S   E.      Q           S   S  S S


  Em7             Cadd9                     Asus4     A7
 6/4
  +E   E   S  S S  S   a   E  S S +S  S +S  S +S  S S  S  +S  S  E
|-(3)-(3)-----3--------0h==2--0-------------0-(0)-----(0)-(0)----------|
|------3------3--------3--(3)---3-(3)-1-(1)-3-(3)---3--2--(2)-2--------|
|------0----------(0)-(0)-(0)---------0-(0)-2-(2)---2--0--(0)----------|
|------2---------------------------0-----0--2-(2)-2----2--(2)---(0)-0--|
|----------2----2--3------(3)---------------0-(0)------0--(0)----0-----|
|--0------(0)----------------------------------------------------------|
   Q      +E.      S      +Q       E     S  S +E.      S  +E     S  S


 Break B
  C/D
 4/4
  s S S S E   E  S  S  S  S S S E     S S s s E   E  S  S S S S S S  S
|-0-x-x-2-----3-(3)-3-----3-x-x-----|-x-x-x-2-----3--3----3-3-x-x-x-(x)--|
|-1-x-x-3-----5--5----(5)-5-x-x-----|-x-x-x-3-----5--5--5-5-5-x-x-x-(x)--|
|-------4-----5--5-----5----x-x-----|-x-x-x-4-----5--5--5-5-5-x-x-x-(x)--|
|-0-------0-0-0--0-----0----x-x-x-0-|-0---x-0-0-0-0-(0)-------x---0-(0)--|
|-------------------------------0---|-----------------------------0------|
|-----------------------------------|------------------------------------|
  E   S S S S E  E     E    S S S S   E   s s s S E +Q        S S S +S


                       D.S.S. al Dbl. Coda
  C/D
  S  S  S  S   S   S E S S  S  S E    S S
|-3-(x)-x--5--(3)-/8-8---8-(8)-8----------||
|-5-(x)-x--7--(5)-/8-8---8--8--8----------||
|-5-(x)-x--7--(5)-/9-9-9----9-----------0-||
|-0--0--x-(0)-(0)----0-0--------------0---||
|-----------------------------------------||
|--------------------------------0h2------||
  S  S  S  S  +E     E Q         S E.


 Break B
  &&
  C/D
   PM
   S  S S S +E     E  S S S S S S S S
|-(0)-x-x-2-(2)----3--3-3-3-3-x-x-----|
|--1--x-x-3-(3)----5--5-5-5-5-x-x-----|
|--0--x-x-4-(4)----5--5-5-5---x-x---5-|
|--0------------0-(0)-0---0-------0---|
|------------0------------------------|
|-------------------------------------|
   Q         s  S +E  E   Q       e


  C/D                                     C/D
   PM
   S  S S S +E    E S  S   S  S S S E     S S  S  S S S E  S  S S S S S s S
|-(0)-x-x-2-(2)---3----3--(3)-3-x-x-----|-3----x--5---8-8-----8-8-8-8-8-8---|
|--1--x-x-3-(3)---5-5--5---5--5-x-x-----|-5----x--7-----8--8--8-8---8---8---|
|--0--x-x-4-(4)---5-5-(5)--5--5-x-x-----|-5----x--7-----9--9----9---9---9---|
|--0------------0-0-0------0----x---x-x-|-0----0----0---0-(0)---------------|
|------------0----------------------x-x-|-----(0)---------------------------|
|---------------------------------------|-----------------------------------|
   Q         s  S E E      E    E   s S   E    E    E   E +Q.           E


 Outro (Break A)
                            H.=H
                                        G
  S S S S S S S S a S S S S S S a S S    W
|-3-----------------------------------|-^3----*|
|-3h5p3-0---------1p0-----------------|-^3----*|
|---------5-4-2-0-----2-0---0---------|-^0----*|
|-------------------------4---0-----0-|-^0----*|
|-------------------------------0h2---|-^2----*|
|-------------------------------------|-^3----*|


Duration Legend
---------------
W - whole; H - half; Q - quarter; E - 8th; S - 16th; T - 32nd; X - 64th; a - acciaccatura
+ - note tied to previous; . - note dotted; .. - note double dotted
Uncapitalized letters represent notes that are staccato (1/2 duration)
Irregular groupings are notated above the duration line
Duration letters will always appear directly above the note/fret number it represents the
duration for.  Duration letters with no fret number below them represent rests.  Multi-
bar rests are notated in the form Wxn, where n is the number of bars to rest for.  Low
melody durations appear below the staff

Tablature Legend
----------------
 h   - hammer-on
 p   - pull-off
 b   - bend
 pb  - pre-bend
 r   - bend release (if no number after the r, then release immediately)
 /\  - slide into or out of (from/to "nowhere")
 s   - legato slide
 S   - shift slide
<n>  - natural harmonic
[n]  - artificial harmonic
n(n) - tapped harmonic
 ~   - vibrato
 tr  - trill
 T   - tap
 TP  - trem. picking
 PM  - palm muting
\n/  - tremolo bar dip; n = amount to dip
 \n  - tremolo bar down
 n/  - tremolo bar up
/n\  - tremolo bar inverted dip
 =   - hold bend; also acts as connecting device for hammers/pulls
 <>  - volume swell (louder/softer)
 x   - on rhythm slash represents muted slash
 o   - on rhythm slash represents single note slash

Misc Legend
-----------
 |  - bar
||  - double bar
||o - repeat start
o|| - repeat end
*|  - double bar (ending)
 :  - bar (freetime)
 $  - Segno
 &  - Coda
Tempo markers - <E/E./Q/Q./H/H.> = BPM(8/16=s8/s16), where s8 = swing 8ths, s16 = swing 16ths
comments
print report bad tab
I want to post or [tab]
guest
You may want to rate the tab now too:
select rating
Please do not post tabs as comments. Select "correction" instead!