Oops, an error
Loading. Please wait.

Lonely Girl Tab

ver2
ver2

Whole song

More versions @911Tabs.com
2,252 views 156 this week
no commentswrite comment
1 2 3 4 5
accurate
x 5
Autoscroll
+/-
esc
set tempo
stop
Contributor
Difficulty
Tuning
intermediate
C G C F A D
WARNING: You are trying to view
                                    content from Ultimate-Guitar.com
                                    in an unauthorized application,
                                    which is prohibited.

                                    Please use an official Ultimate
                                    Guitar Tabs application for iPhone,
                                    iPad or Android to access legitimate
                                    chords, guitar, bass, and drum tabs
                                    from Ultimate-Guitar.com database.

                                    Type "ultimate guitar tabs" in Apple
                                    App Store's or Android Market's
                                    search to find the application.
-------------------------------------------------------------------------------
                             LONELY GIRL - Tonight Alive
-------------------------------------------------------------------------------
Tabbed by: Michael Vansingel
Last edit: 4th October 2013
Tuning: Drop C

Notes:
I heard this song for the first time a week ago or and I tried to tab it out, enjoy!
I also recorded and uploaded a cover to Youtube: https://www.youtube.com/watch?v=DxDne_7St_A

pm = palm mute
h = hammer on
p = pull off
T = tapping

0:01 - 0:13

Guitar 1:

D|---------------------------------------------------------------------------|
A|----------------10---10---------------------------13--13-12--13-12---------| x2
F|----9----9-7------------9---9-10-7-----9----9-7--------------------12------|
C|-77---77-----77----7------7---------77---77-----7--------------------------|
G|---------------------------------------------------------------------------|
C|---------------------------------------------------------------------------|
pm **   **     **    *      *         **   **     *

Guitar 2:

D|---------------------------------------------------------------------------|
A|---------------------------------------------------------------------------|
F|---------------------------------------------------------------------------|
C|-33333333-00000000-77777777-55555555---------------------------------------|
G|-33333333-00000000-77777777-55555555---------------------------------------|
C|-33333333-00000000-77777777-55555555---------------------------------------|

D|---------------------------------------------------------------------------|
A|---------------------------------------------------------------------------|
F|---------------------------------------------------------------------------|
C|-33333333-00000000-77777777-9--9--9--9--9--9--9----------------------------|
G|-33333333-00000000-77777777-10-10-10-10-10-10-10---------------------------|
C|-33333333-00000000-77777777-9--9--9--9--9--9--9----------------------------|


0:13 - 0:24

Guitar 1 & 2:

D|---------------------------------------------------------------------------|
A|---------------------------------------------------------------------------| x2
F|---------------------------------------------------------------------------|
C|---------------------------------------------------------------------------|
G|------------------2-3333333-5----------------------------------------------|
C|-7777777777777777-------------555555555555---------------------------------|


0:24 - 0:33

Guitar 1:

D|-------12--12--12--12--12--12--12--12--------------------------------------|
A|-13--13--13--13--13--13--13--13--13----------------------------------------|
F|---12----------------------------------------------------------------------|
C|---------------------------------------------------------------------------|
G|---------------------------------------------------------------------------|
C|---------------------------------------------------------------------------|

D|----------10---------------------------------------------------------------|
A|--12-8-12----12-8-12-8-10-8-10-8-12-8-10-8---------------------------------|
F|---------------------------------------------------------------------------|
C|---------------------------------------------------------------------------|
G|---------------------------------------------------------------------------|
C|---------------------------------------------------------------------------|

D|-------12--12--12--12--12--------------------------------------------------|
A|-13--13--13--13--13--13--13-12-12-12---------------------------------------|
F|---12----------------------------------------------------------------------|
C|---------------------------------------------------------------------------|
G|---------------------------------------------------------------------------|
C|---------------------------------------------------------------------------|

Guitar 2:

D|---------------------------------------------------------------------------|
A|---------------------------------------------------------------------------|
F|-----12-12-12-12-12------9-9-9-9-9-9---------------------------------------|
C|-----x--x--x--x--x-------x-x-x-x-x-x---------------------------------------|
G|-333-10-10-10-10-10--333-7-7-7-7-7-7--5555555555555555---------------------|
C|-333-----------------333--------------5555555555555555---------------------|
pm ***                 ***              ****************

D|---------------------------------------------------------------------------|
A|---------------------------------------------------------------------------|
F|-----12-12-12-12-12------9-9-9-9-9-9---------------------------------------|
C|-----x--x--x--x--x-------x-x-x-x-x-x-----------9--9--9--9--9--9--9---------|
G|-333-10-10-10-10-10--333-7-7-7-7-7-7--77777777-10-10-10-10-10-10-10--------|
C|-333-----------------333--------------77777777-9--9--9--9--9--9--9---------|
pm ***                 ***              ******** *  *  *  *


0:35 - 0:46

Guitar 1:

D|---------------------------------------------------------------------------|
A|---------------------------------------------------------------------------|
F|-1414141414141414-1616161616161616-1717171717171717-1616161616161616-------|
C|-x-x-x-x-x-x-x-x--x-x-x-x-x-x-x-x--x-x-x-x-x-x-x-x--x-x-x-x-x-x-x-x--------|
G|-1212121212121212-1414141414141414-1515151515151515-1414141414141414-------|
C|---------------------------------------------------------------------------|

D|-----------------------------------1515151515151515------------------------|
A|-----------------------------------1313131313131313------------------------|
F|-1414141414141414-1616161616161616------------------1919191919191919-------|
C|-x-x-x-x-x-x-x-x--x-x-x-x-x-x-x-x-------------------x-x-x-x-x-x-x-x--------|
G|-1212121212121212-1414141414141414------------------1717171717171717-------|
C|---------------------------------------------------------------------------|

Guitar 2:

D|---------------------------------------------------------------------------|
A|---------------------------------------------------------------------------|
F|---------------------------------------------------------------------------|
C|-33333333-00000000-77777777-55555555---------------------------------------|
G|-33333333-00000000-77777777-55555555---------------------------------------|
C|-33333333-00000000-77777777-55555555---------------------------------------|

D|---------------------------------------------------------------------------|
A|---------------------------------------------------------------------------|
F|---------------------------------------------------------------------------|
C|-33333333-00000000-77777777-9--9--9--9--9--9--9----------------------------|
G|-33333333-00000000-77777777-10-10-10-10-10-10-10---------------------------|
C|-33333333-00000000-77777777-9--9--9--9--9--9--9----------------------------|


0:46 - 0:55

Guitar 1 & 2:

D|---------------------------------------------------------------------------|
A|---------------------------------------------------------------------------|
F|---------------------------------------------------------------------------|
C|-3-3-33-3--2-2-22-2--77777777777777777--3-3-33-3--5-5-5--------------------|
G|-3-3-33-3--3-3-33-3--77777777777777777--3-3-33-3--5-5-5--------------------|
C|-3-3-33-3--2-2-22-2--77777777777777777--3-3-33-3--5-5-5--------------------|


0:55 - 1:01

Guitar 1:

D|---------------------------------------------------------------------------|
A|-----------------10---10---------------------------13--13-12--13-12--------|
F|-----9----9-7------------9---9-10-7-----9----9-7--------------------12-----|
C|--77---77-----77----7------7---------77---77-----7-------------------------|
G|---------------------------------------------------------------------------|
C|---------------------------------------------------------------------------|
pm  **   **     **    *      *         **   **     *

Guitar 2:

D|---------------------------------------------------------------------------|
A|---------------------------------------------------------------------------|
F|---------------------------------------------------------------------------|
C|-33333333-00000000-77777777-9--9--9--9--9--9--9----------------------------|
G|-33333333-00000000-77777777-10-10-10-10-10-10-10---------------------------|
C|-33333333-00000000-77777777-9--9--9--9--9--9--9----------------------------|


1:01 - 1:12

Guitar 1 & 2:

D|---------------------------------------------------------------------------|
A|---------------------------------------------------------------------------|
F|---------------------------------------------------------------------------|
C|-7777777777777777-22222222-00000000-7777777777777777-----------------------|
G|---------------------------------------------------------------------------|
C|---------------------------------------------------------------------------|
pm **************** ******** ******** **************** 

D|---------------------------------------------------------------------------|
A|---------------------------------------------------------------------------|
F|---------------------------------------------------------------------------|
C|-1010101010101010-99999999-------------------------------------------------|
G|---------------------------------------------------------------------------|
C|---------------------------------------------------------------------------|
pm * * * * * * * *  *********


1:12 - 1:21

Guitar 1:

D|-------12--12--12--12--12--12--12--12--------------------------------------|
A|-13--13--13--13--13--13--13--13--13----------------------------------------|
F|---12----------------------------------------------------------------------|
C|---------------------------------------------------------------------------|
G|---------------------------------------------------------------------------|
C|---------------------------------------------------------------------------|

D|----------10---------------------------------------------------------------|
A|--12-8-12----12-8-12-8-10-8-10-8-12-8-10-8---------------------------------|
F|---------------------------------------------------------------------------|
C|---------------------------------------------------------------------------|
G|---------------------------------------------------------------------------|
C|---------------------------------------------------------------------------|

D|-------12--12--12--12--12--------------------------------------------------|
A|-13--13--13--13--13--13--13-12-12-12---------------------------------------|
F|---12----------------------------------------------------------------------|
C|---------------------------------------------------------------------------|
G|---------------------------------------------------------------------------|
C|---------------------------------------------------------------------------|

Guitar 2:

D|---------------------------------------------------------------------------|
A|---------------------------------------------------------------------------|
F|------12---------9---------------------------------------------------------|
C|------x----------x---------------------------------------------------------|
G|-333--10--33333--7--333-555555555555555555---------------------------------|
C|-333------33333-----333-555555555555555555---------------------------------|
pm ***      *****     *** ******************

D|---------------------------------------------------------------------------|
A|---------------------------------------------------------------------------|
F|------12---------9---------------------------------------------------------|
C|------x----------x---------------9--9--9--9--9--9--9-----------------------|
G|-333--10--33333--7--333-77777777-10-10-10-10-10-10-10----------------------|
C|-333------33333-----333-77777777-9--9--9--9--9--9--9-----------------------|
pm ***      *****     *** ******** *  *  *  *


1:24 - 1:34

Guitar 1:

D|---------------------------------------------------------------------------|
A|---------------------------------------------------------------------------|
F|-1414141414141414-1616161616161616-1717171717171717-1616161616161616-------|
C|-x-x-x-x-x-x-x-x--x-x-x-x-x-x-x-x--x-x-x-x-x-x-x-x--x-x-x-x-x-x-x-x--------|
G|-1212121212121212-1414141414141414-1515151515151515-1414141414141414-------|
C|---------------------------------------------------------------------------|

D|-----------------------------------1515151515151515------------------------|
A|-----------------------------------1313131313131313------------------------|
F|-1414141414141414-1616161616161616------------------1919191919191919-------|
C|-x-x-x-x-x-x-x-x--x-x-x-x-x-x-x-x-------------------x-x-x-x-x-x-x-x--------|
G|-1212121212121212-1414141414141414------------------1717171717171717-------|
C|---------------------------------------------------------------------------|

Guitar 2:

D|---------------------------------------------------------------------------|
A|---------------------------------------------------------------------------|
F|---------------------------------------------------------------------------|
C|-33333333-00000000-77777777-55555555---------------------------------------|
G|-33333333-00000000-77777777-55555555---------------------------------------|
C|-33333333-00000000-77777777-55555555---------------------------------------|

D|---------------------------------------------------------------------------|
A|---------------------------------------------------------------------------|
F|---------------------------------------------------------------------------|
C|-33333333-00000000-77777777-9--9--9--9--9--9--9----------------------------|
G|-33333333-00000000-77777777-10-10-10-10-10-10-10---------------------------|
C|-33333333-00000000-77777777-9--9--9--9--9--9--9----------------------------|


1:34 - 1:43

Guitar 1 & 2:

D|---------------------------------------------------------------------------|
A|---------------------------------------------------------------------------|
F|---------------------------------------------------------------------------|
C|-3-3-33-3--2-2-22-2--77777777777777777--3-3-33-3--5-5-5--------------------|
G|-3-3-33-3--3-3-33-3--77777777777777777--3-3-33-3--5-5-5--------------------|
C|-3-3-33-3--2-2-22-2--77777777777777777--3-3-33-3--5-5-5--------------------|


1:43 - 1:54

Guitar 1:

D|---------------------------------------------------------------------------|
A|---------------------------------------------------------------------------|
F|---------------0-0-------------------------0-0-----------------------------|
C|---5p0-2p0------5-5-5p0-2p0----5p0-2p0------5-5-5p0-2p0--------------------|
G|-----------3p0-------------------------3p0---------------------------------|
C|-33-------------------------55---------------------------------------------|

D|---------------------------------------------------------------------------|
A|-----------------------------------1-1p0-0---------------------------------|
F|---------------------------------------------------------------------------|
C|----5p0-2p0------------2p0-------------------------------------------------|
G|------------3p0----3--5----3-5---------------------------------------------|
C|-22--------------2--2-----------3~-----------------------------------------|


1:54 - 2:06

Guitar 1 & 2:

D|---------------------------------------------------------------------------|
A|---------------------------------------------------------------------------|
F|---------------------------------------------------------------------------|
C|---------------------------------------------------------------------------|
G|-3333333333333333-5555555555555555-2222222222222222-3333333333333333-------|
C|-3333333333333333-5555555555555555-2222222222222222-3333333333333333-------|
pm **************** **************** **************** ****************


2:06 - 2:28

Guitar 1:

   T       T       T       T       T       T       T       T
D|-17p8h12-17p8h12-17p8h12-17p8h12-17p8h12-17p8h12-17p8h12-17p8h12--------|--| x2
A|------------------------------------------------------------------------|  |
F|------------------------------------------------------------------------|  |
C|------------------------------------------------------------------------|  |
G|------------------------------------------------------------------------|  |
C|------------------------------------------------------------------------|  |
                                                                             |
   T       T       T       T       T       T       T       T                 |
D|-15p8h12-15p8h12-15p8h12-15p8h12-15p8h12-15p8h12-15p8h12-15p8h12--------|  |
A|------------------------------------------------------------------------|  |
F|------------------------------------------------------------------------|  |
C|------------------------------------------------------------------------|  |
G|------------------------------------------------------------------------|  |
C|------------------------------------------------------------------------|  |
                                                                             |
   T       T       T       T       T       T       T       T                 |
D|-15p8h10-15p8h10-15p8h10-15p8h10-15p8h10-15p8h10-15p8h10-15p8h10--------|  |
A|------------------------------------------------------------------------|  |
F|------------------------------------------------------------------------|  |
C|------------------------------------------------------------------------|  |
G|------------------------------------------------------------------------|  |
C|------------------------------------------------------------------------|  |
                                                                             |
   T       T       T       T       T       T       T       T                 |
D|-15p8h10-15p8h10-15p8h10-15p8h10-15p8h10-15p8h10-15p8h10-15p8h10--------|  |
A|------------------------------------------------------------------------|  |
F|------------------------------------------------------------------------|  |
C|------------------------------------------------------------------------|  |
G|------------------------------------------------------------------------|  |
C|------------------------------------------------------------------------|--|

Guitar 2:

D|------------------------------------------------------------------------|--|
A|------------------------------------------------------------------------|  | x2
F|------------------------------------------------------------------------|  |
C|-3-3-33-3-3-3-33-3--7-7-77-7-7-7-77-7-----------------------------------|  |
G|-3-3-33-3-3-3-33-3--7-7-77-7-7-7-77-7-----------------------------------|  |
C|-3-3-33-3-3-3-33-3--7-7-77-7-7-7-77-7-----------------------------------|  |
                                                                             |
D|------------------------------------------------------------------------|  |
A|------------------------------------------------------------------------|  |
F|------------------------------------------------------------------------|  |
C|-5-5-55-5-5-5-55-5--5-5-55-5-5-5-55-5-----------------------------------|  |
G|-5-5-55-5-5-5-55-5--5-5-55-5-5-5-55-5-----------------------------------|  |
C|-5-5-55-5-5-5-55-5--5-5-55-5-5-5-55-5-----------------------------------|--|


2:28 - 2:39

Guitar 1:

D|---------------------------------------------------------------------------|
A|---------------------------------------------------------------------------|
F|-14-14--10-12--17--16------------------------------------------------------|
C|-x--x---x--x---x---x-------------------------------------------------------|
G|-12-12--8--10--15--14------------------------------------------------------|
C|---------------------------------------------------------------------------|

D|---------------------------------------------------------------------------|
A|---------------888888888---------------------------------------------------|
F|-14-14--16-16------------77777777------------------------------------------|
C|-x--x---x--x---------------------------------------------------------------|
G|-12-12--14-14--------------------------------------------------------------|
C|---------------------------------------------------------------------------|
pm               *********

Guitar 2:

D|---------------------------------------------------------------------------|
A|---------------------------------------------------------------------------|
F|---------------------------------------------------------------------------|
C|-3-3--0--5--7~--5~---------------------------------------------------------|
G|-3-3--0--5--7~--5~---------------------------------------------------------|
C|-3-3--0--5--7~--5~---------------------------------------------------------|

D|---------------------------------------------------------------------------|
A|---------------------------------------------------------------------------|
F|---------------------------------------------------------------------------|
C|-3-3--0-0----------9--9--9--9--9--9--9-------------------------------------|
G|-3-3--0-0-77777777-10-10-10-10-10-10-10------------------------------------|
C|-3-3--0-0-77777777-9--9--9--9--9--9--9-------------------------------------|
pm          ******** *  *  *  *


2:39 - 2:48

Guitar 1 & 2:

D|---------------------------------------------------------------------------|
A|---------------------------------------------------------------------------|
F|---------------------------------------------------------------------------|
C|-3-3-33-3--2-2-22-2--77777777777777777--3-3-33-3--5-5-5--------------------|
G|-3-3-33-3--3-3-33-3--77777777777777777--3-3-33-3--5-5-5--------------------|
C|-3-3-33-3--2-2-22-2--77777777777777777--3-3-33-3--5-5-5--------------------|


2:48 - 2:59

Guitar 1:

D|---------------------------------------------------------------------------|
A|----------------10---10---------------------------13--13-12--13-12---------| x2
F|----9----9-7------------9---9-10-7-----9----9-7--------------------12------|
C|-77---77-----77----7------7---------77---77-----7--------------------------|
G|---------------------------------------------------------------------------|
C|---------------------------------------------------------------------------|
pm **   **     **    *      *         **   **     *

Guitar 2:

D|---------------------------------------------------------------------------|
A|---------------------------------------------------------------------------|
F|---------------------------------------------------------------------------|
C|-33333333-00000000-77777777-55555555---------------------------------------|
G|-33333333-00000000-77777777-55555555---------------------------------------|
C|-33333333-00000000-77777777-55555555---------------------------------------|

D|---------------------------------------------------------------------------|
A|---------------------------------------------------------------------------|
F|---------------------------------------------------------------------------|
C|-33333333-00000000-77777777-9--9--9--9--9--9--9----------------------------|
G|-33333333-00000000-77777777-10-10-10-10-10-10-10---------------------------|
C|-33333333-00000000-77777777-9--9--9--9--9--9--9----------------------------|


3:00 - end

Guitar 1 & 2:

D|---------------------------------------------------------------------------|
A|---------------------------------------------------------------------------|
F|---------------------------------------------------------------------------|
C|-3~------------------------------------------------------------------------|
G|-3~------------------------------------------------------------------------|
C|-3~------------------------------------------------------------------------|

I want to post or [tab]
guest
You may want to rate the tab now too:
select rating
Please do not post tabs as comments. Select "correction" instead!