Oops, an error
Loading. Please wait.

Aenima Tab

by Tool
ver4
ver4

Album

Whole song

Interactive

More versions @911Tabs.com
2,578 views 9 this week
no commentswrite comment
1 2 3 4 5
worth learning
x 1
Autoscroll
+/-
esc
set tempo
stop
Contributor
Difficulty
Tuning
novice
D A D G B E
Hey! There's an official Ultimate Guitar app which is ideal
for learning songs when you're away from computer. Get the app
WARNING: You are trying to view
                                    content from Ultimate-Guitar.com
                                    in an unauthorized application,
                                    which is prohibited.

                                    Please use an official Ultimate
                                    Guitar Tabs application for iPhone,
                                    iPad or Android to access legitimate
                                    chords, guitar, bass, and drum tabs
                                    from Ultimate-Guitar.com database.

                                    Type "ultimate guitar tabs" in Apple
                                    App Store's or Android Market's
                                    search to find the application.
                                    Aenima                                      


                                                                            Tool
Lead Guitar



      S  S  S S S  S  S  S S E.  S  S  S S S  S  S  S S E.     
E||----------------------------------------------------------||
B||----------------------------------------------------------||
G||*----------0--------------------------0------------------*||
D||*----------0--------------------------0------------------*||
A||---2p-0h-2---2p-0h-2p-0-2-----2p-0h-2---2p-0h-2p-0-2------||
D||---2p-0h-2---2p-0h-2p-0-2-----2p-0h-2---2p-0h-2p-0-2------||


  S  S  S S S  S  S  S S E.  S  S  S S S  S  S  S S E.   
--------------------------------------------------------|
--------------------------------------------------------|
----------0--------------------------0------------------|
----------0--------------------------0------------------|
--2p-0h-2---2p-0h-2p-0-2-----2p-0h-2---2p-0h-2p-0-2-----|
--2p-0h-2---2p-0h-2p-0-2-----2p-0h-2---2p-0h-2p-0-2-----|


  S  S  S S S  S  S  S S E.  S  S  S S S  S  S  S S E.                        
--------------------------------------------------------|------|------|------|
--------------------------------------------------------|------|------|------|
----------0--------------------------0------------------|------|------|------|
----------0--------------------------0------------------|------|------|------|
--2p-0h-2---2p-0h-2p-0-2-----2p-0h-2---2p-0h-2p-0-2-----|------|------|------|
--2p-0h-2---2p-0h-2p-0-2-----2p-0h-2---2p-0h-2p-0-2-----|------|------|------|


         S S S S S S S S S S S S S S S S S S S S S S S S  
------|--------------------------------------------------|
------|--------------------------------------------------|
------|--------------------------------------------------|
------|--x---x-x-x---x---x-x-x---x---x-x-x---x---x-x-x---|
------|--x---x-x-x---x---x-x-x---x---x-x-x---x---x-x-x---|
------|--x---x-x-x---x---x-x-x---x---x-x-x---x---x-x-x---|


  S S S S S S S S S S S S S S S S S S S S S S S S  
--------------------------------------------------|
--------------------------------------------------|
--------------------------------------------------|
--x---x-x-x---x---x-x-x---x---x-x-x---x---x-x-x---|
--x---x-x-x---x---x-x-x---x---x-x-x---x---x-x-x---|
--x---x-x-x---x---x-x-x---x---x-x-x---x---x-x-x---|


  S S S S S S S S S S S S S S S S S S S S S S S S  
--------------------------------------------------|
--------5-----------5-----------5-----------5-----|
--------------------------------------------------|
--x---x---x---x---x---x---x---x---x---x---x-------|
--x---x---x---x---x---x---x---x---x---x---x-------|
--x---x---x---x---x---x---x---x---x---x---x---0---|


  S S S S S S S S S S S S S S S S S S E  S S S S  
-------------------------------------------------|
-------------------------------------------8-8-8-|
-------------------------------------------7-7-7-|
--x---x-2-x---x---x-2-x---x---x-2-x-x----5-5-5-5-|
--x---x---x---x---x---x---x---x-x-x-x-5--5-5-5-5-|
--x---x---x---x---x---5---x---x-x-5-x-5--5-5-5-5-|


  E  S S S S E  S S S S E  S S S S E  S S S S  
----------------------------------------------|
----------------------------------------------|
----------------------------------------------|
--2--2-x-x-x-2--2-x-x-x-2--2-x-x-x-5--0-0-0-0-|
--2--2-x-x-x-2--2-x-x-x-2--2-x-x-x-5--0-0-0-0-|
--2--2-x-x-x-2--2-x-x-x-2--2-x-x-x-5--0-0-0-0-|


  E  S S S S E  S S S S E  S S S S E  S S S S  
----------------------------------------------|
----------------------------------------------|
----------------------------------------------|
--2--2-x-x-x-2--2-x-x-x-2--2-x-x-x-3--0-0-0-0-|
--2--2-x-x-x-2--2-x-x-x-2--2-x-x-x-3--0-0-0-0-|
--2--2-x-x-x-2--2-x-x-x-2--2-x-x-x-3--0-0-0-0-|


  E  S S S S E  S S S S E  S S S S E  S S S S  
----------------------------------------------|
----------------------------------------------|
----------------------------------------------|
--2--2-x-x-x-2--2-x-x-x-2--2-x-x-x-5--0-0-0-0-|
--2--2-x-x-x-2--2-x-x-x-2--2-x-x-x-5--0-0-0-0-|
--2--2-x-x-x-2--2-x-x-x-2--2-x-x-x-5--0-0-0-0-|


                                                    <                           
  E  S S S S E  S S S S E  S S S S E  S S S S    E  H.           E.  S E.  E.   
----------------------------------------------|--------------------------------|
----------------------------------------------|--------------------------------|
-----------------------------------5--5-7-7-7-|--------------------------------|
--2--2-x-x-x-2--2-x-x-x-2--2-x-x-x-5--5-7-7-7-|--------------------------------|
--2--2-x-x-x-2--2-x-x-x-2--2-x-x-x-3--3-5-5-5-|----------------------2-5---0---|
--2--2-x-x-x-2--2-x-x-x-2--2-x-x-x------------|-----2------------L---------L---|


                <                                     
  H        Q    H.                                    
--------------------------------|------|------|------|
--------------------------------|------|------|------|
----------------4brb------------|------|------|------|
--------------------------------|------|------|------|
--------------------------------|------|------|------|
--------------------------------|------|------|------|


  W                Q    S E.   
------------------------------|
------------------------------|
------------------------------|
------------------------------|
--------------------------5---|
------------------------------|


  S S S S S S S S S S S S S S S S S S S S S S S S  
--------------------------------------------------|
--------------------------------------------------|
--------------------------------------------------|
--x---x-x-x---x---x-x-x---x---x-x-x---x---x-x-x---|
--x---x-x-x---x---x-x-x---x---x-x-x---x---x-x-x---|
--x---x-x-x---x---x-x-x---x---x-x-x---x---x-x-x---|


  S S S S S S S S S S S S S S S S S S S S S S S S  
--------------------------------------------------|
--------------------------------------------------|
--------------------------------------------------|
--x---x-x-x---x---x-x-x---x---x-x-x---x---x-x-x---|
--x---x-x-x---x---x-x-x---x---x-x-x---x---x-x-x---|
--x---x-x-x---x---x-x-x---x---x-x-x---x---x-x-x---|


  S S S S S S S S S S S S S S S S S S S S S S S S  
--------------------------------------------------|
--------5-----------5-----------5-----------5-----|
--------------------------------------------------|
--x---x---x---x---x---x---x---x---x---x---x-------|
--x---x---x---x---x---x---x---x---x---x---x-------|
--x---x---x---x---x---x---x---x---x---x---x---0---|


  S S S S S S S S S S S S S S S S S S E  S S S S  
--------7-----------8-----------7----------------|
--------8-----------8-----------8----------8-8-8-|
-------------------------------------------7-7-7-|
--x---x---x---x---x---x---x---x---x-x----5-5-5-5-|
--x---x---x---x---x---x---x---x---x-x-5--5-5-5-5-|
--x---x---x---x---x---x---x---x---x-x-5--5-5-5-5-|


  E  S S S S E  S S S S E  S S S S E  S S S S  
----------------------------------------------|
----------------------------------------------|
----------------------------------------------|
--2--2-x-x-x-2--2-x-x-x-2--2-x-x-x-5--0-0-0-0-|
--2--2-x-x-x-2--2-x-x-x-2--2-x-x-x-5--0-0-0-0-|
--2--2-x-x-x-2--2-x-x-x-2--2-x-x-x-5--0-0-0-0-|


  E  S S S S E  S S S S E  S S S S E  S S S S  
----------------------------------------------|
----------------------------------------------|
----------------------------------------------|
--2--2-x-x-x-2--2-x-x-x-2--2-x-x-x-3--0-0-0-0-|
--2--2-x-x-x-2--2-x-x-x-2--2-x-x-x-3--0-0-0-0-|
--2--2-x-x-x-2--2-x-x-x-2--2-x-x-x-3--0-0-0-0-|


  E  S S S S E  S S S S E  S S S S E  S S S S  
----------------------------------------------|
----------------------------------------------|
----------------------------------------------|
--2--2-x-x-x-2--2-x-x-x-2--2-x-x-x-5--0-0-0-0-|
--2--2-x-x-x-2--2-x-x-x-2--2-x-x-x-5--0-0-0-0-|
--2--2-x-x-x-2--2-x-x-x-2--2-x-x-x-5--0-0-0-0-|


  E  S S S S E  S S S S E  S S S S E  S S S S  
----------------------------------------------|
----------------------------------------------|
-----------------------------------5--5-7-7-7-|
--2--2-x-x-x-2--2-x-x-x-2--2-x-x-x-5--5-7-7-7-|
--2--2-x-x-x-2--2-x-x-x-2--2-x-x-x-3--3-5-5-5-|
--2--2-x-x-x-2--2-x-x-x-2--2-x-x-x------------|


  E  S S S S  S  S  S  E  S E  S S S S  S  S  S  E  S  
------------------------------------------------------|
------------------------------------------------------|
------------------------------------------------------|
--0--0-0-0-0-10-10-10-12--0-2--2-2-2-2-10-10-10-12--2-|
--0--0-0-0-0-10-10-10-12--0-2--2-2-2-2-10-10-10-12--2-|
--0--0-0-0-0-10-10-10-12--0-2--2-2-2-2-10-10-10-12--2-|


  E  S S S S  S  S  S  E  S E  S S S S  S  S  S  E  S  
------------------------------------------------------|
------------------------------------------------------|
------------------------------------------------------|
--0--0-0-0-0-10-10-10-12--0-2--2-2-2-2-10-10-10-12--2-|
--0--0-0-0-0-10-10-10-12--0-2--2-2-2-2-10-10-10-12--2-|
--0--0-0-0-0-10-10-10-12--0-2--2-2-2-2-10-10-10-12--2-|


  E  S S S S  S  S  S  E  S E  S S S S  S  S  S  E.   
-----------------------------------------------------|
---------------------------------------13-13-13-15---|
---------------------------------------12-12-12-14---|
--0--0-0-0-0-10-10-10-12--0-2--2-2-2-2-10-10-10-12---|
--0--0-0-0-0-10-10-10-12--0-2--2-2-2-2---------------|
--0--0-0-0-0-10-10-10-12--0-2--2-2-2-2---------------|


   E   S  S  S  S  S  S  S  S  S  S    W.                
------------------------------------|-------------------|
--15--15-15-15-15-13-13-13-15-15-15-|-------------------|
--14--14-14-14-14-12-12-12-14-14-14-|-------------------|
--12--12-12-12-12-10-10-10-12-12-12-|--2----------------|
------------------------------------|--2----------------|
------------------------------------|--2----------------|


  H.           H.              W.                  W.                
----------------------------|-------------------|-------------------|
----------------------------|-------------------|-------------------|
----------------------------|-------------------|-------------------|
--L------------L------------|--L----------------|--L----------------|
--L------------L------------|--L----------------|--L----------------|
--L------------L------------|--L----------------|--L----------------|


  W.                  W.                  H.           H.            
-------------------|-------------------|----------------------------|
-------------------|-------------------|--5------------3------------|
-------------------|-------------------|----------------------------|
--2----------------|--L----------------|----------------------------|
-------------------|-------------------|----------------------------|
-------------------|-------------------|----------------------------|


                                <                                               
  H.           Q.     Q.        W.                  W                E  Q.      
---------------2-------------|-------------------|-----------------------------|
--3-------------------3------|-------------------|-----------------------------|
-----------------------------|-------------------|-----------------------------|
-----------------------------|-------------------|-----------------------------|
-----------------------------|--2----------------|--L----------------L--2------|
-----------------------------|--2----------------|--L----------------L--2------|


  W.                  W                E  Q.        W.                
-------------------|-----------------------------|-------------------|
-------------------|-----------------------------|-------------------|
-------------------|-----------------------------|-------------------|
-------------------|-----------------------------|-------------------|
--5----------------|--L----------------L--5------|--2----------------|
--5----------------|--L----------------L--5------|--2----------------|


  W                E  Q.        W.                  W                E  Q.      
-----------------------------|-------------------|-----------------------------|
-----------------------------|-------------------|-----------------------------|
-----------------------------|-------------------|-----------------------------|
-----------------------------|-------------------|-----------------------------|
--L----------------L--2------|--5----------------|--L----------------L--5------|
--L----------------L--2------|--5----------------|--L----------------L--5------|


  W.                  H.           Q.     Q.        W.                
-------------------|-----------------------------|-------------------|
-------------------|-----------------------------|-------------------|
-------------------|-----------------------------|-------------------|
-------------------|-----------------------------|-------------------|
--2----------------|--L------------2------2------|--5----------------|
--2----------------|--L------------2------2------|--5----------------|


  W                E  E  Q       E  Q     Q.      E   Q     Q.      
------------------------------|------------------------------------|
------------------------------|------------------------------------|
------------------------------|-----------9------(x)--------9------|
------------------------------|--5--9~------------5---9~-----------|
--L----------------L--3--5----|------------------------------------|
--L----------------L----------|------------------------------------|


   E   Q     Q.      E   Q     Q.        Q.     Q.     Q.     Q.      
--------------------------------------|-----------------------7------|
--------------------------------------|---------8------8------8------|
--(x)--------9------(x)--------9------|--7---------------------------|
---5---9~------------5---9~-----------|--5---------------------------|
--------------------------------------|------------------------------|
--------------------------------------|------------------------------|


    Q.      Q.     Q.     Q.         E   Q     Q.      E   Q     Q.      
---(x)--------------------7------|--(x)---------------------------------|
---(x)------8--------------------|--------------------------------------|
-------------------7-------------|-------------9------(x)--------9------|
--5g7----------------------------|---5---9~------------5---9~-----------|
---------------------------------|--------------------------------------|
---------------------------------|--------------------------------------|


  E  S E  S E  S E  S  Q    S  S   Q.         Q.      H        Q    Q     E    
------------------------------------------|-------------------------7----(x)--|
------------------------------------------|-----------8--------L----8----(x)--|
--9--9-9--9-----------12----L-(x)-14------|---7-------------------------------|
------------9--9-9--9-12----L-(x)-14------|--(x)------------------------------|
------------------------------------------|-----------------------------------|
------------------------------------------|-----------------------------------|


  Q     E   Q     E   Q     E    E   S  E   S  
--7----(x)--7----(x)--7----(x)--12--12-12--12-|
--8----(x)--8----(x)--8----(x)--12--12-12--12-|
----------------------------------------------|
----------------------------------------------|
----------------------------------------------|
----------------------------------------------|


  S S S S S S S S S S S S S T T S S S T T S S S S S S  
------------------------------------------------------|
------------------------------------------------------|
------------------------------------------------------|
------------------------------------------------------|
--2-2-2-2-2-2-2-2-2-2-2-2-2-2-2-2-2-2-2-2-2-2-2-2-2-2-|
--2-2-2-2-2-2-2-2-2-2-2-2-2-2-2-2-2-2-2-2-2-2-2-2-2-2-|


  S S S S S S S S S S S S S S S S S S S S S S S S  
--------------------------------------------------|
--------------------------------5-5-5-5-5-5-5-5-5-|
----------------------------4-4-4-4-4-4-4-4-4-4-4-|
----------------------2-2-2-2-2-2-2-2-2-2-2-2-2-2-|
--2-2-2-2-2-2-2-2-2-2-2-2-2-2-2-2-2-2-2-2-2-2-2-2-|
--2-2-2-2-2-2-2-2-2-2-2-2-2-2-2-2-2-2-2-2-2-2-2-2-|


  E  W                Q.                
-----------------------------|---------|
--8--------------------------|---------|
--7--------------------------|---------|
--5--------------------------|---------|
--5--------------------------|---------|
--5--------------------------|---------|


  S S S S S S S S S S S S S T T S S S T T S S S S S S  
------------------------------------------------------|
------------------------------------------------------|
------------------------------------------------------|
------------------------------------------------------|
--2-2-2-2-2-2-2-2-2-2-2-2-2-2-2-2-2-2-2-2-2-2-2-2-2-2-|
--2-2-2-2-2-2-2-2-2-2-2-2-2-2-2-2-2-2-2-2-2-2-2-2-2-2-|


  S S S S S S S S S S S S S S S S S S S S S S S S  
--------------------------------------------------|
--------------------------------5-5-5-5-5-5-5-5-5-|
----------------------------4-4-4-4-4-4-4-4-4-4-4-|
----------------------2-2-2-2-2-2-2-2-2-2-2-2-2-2-|
--2-2-2-2-2-2-2-2-2-2-2-2-2-2-2-2-2-2-2-2-2-2-2-2-|
--2-2-2-2-2-2-2-2-2-2-2-2-2-2-2-2-2-2-2-2-2-2-2-2-|


  E  W                Q.                
-----------------------------|---------|
--8--------------------------|---------|
--7--------------------------|---------|
--5--------------------------|---------|
--5--------------------------|---------|
--5--------------------------|---------|


  S S S S S S S S S S S S S T T S S S T T S S S S S S  
------------------------------------------------------|
------------------------------------------------------|
------------------------------------------------------|
------------------------------------------------------|
--2-2-2-2-2-2-2-2-2-2-2-2-2-2-2-2-2-2-2-2-2-2-2-2-2-2-|
--2-2-2-2-2-2-2-2-2-2-2-2-2-2-2-2-2-2-2-2-2-2-2-2-2-2-|


  S S S S S S S S S S S S S S S S S S S S S S S S  
--------------------------------------------------|
--------------------------------5-5-5-5-5-5-5-5-5-|
----------------------------4-4-4-4-4-4-4-4-4-4-4-|
----------------------2-2-2-2-2-2-2-2-2-2-2-2-2-2-|
--2-2-2-2-2-2-2-2-2-2-2-2-2-2-2-2-2-2-2-2-2-2-2-2-|
--2-2-2-2-2-2-2-2-2-2-2-2-2-2-2-2-2-2-2-2-2-2-2-2-|


  S S S S S S S S S S S S S S S S S S S S S S S S  
--------------------------------------------------|
--8-8-8-8-8-8-8-8-8-8-8-8-8-8-8-8-8-8-8-8-8-8-8-8-|
--7-7-7-7-7-7-7-7-7-7-7-7-7-7-7-7-7-7-7-7-7-7-7-7-|
--------------------------------------------------|
--------------------------------------------------|
--------------------------------------------------|


   S  S  S  S  S  S  S  S  S  S  S  S S S S S S S  S  S  S  S  S  S  
--------------------------------------------------------------------|
--15-15-15-15-15-15-15-15-15-15-15-15-8-8-8-8-8-8-15-15-15-15-15-15-|
--14-14-14-14-14-14-14-14-14-14-14-14-7-7-7-7-7-7-14-14-14-14-14-14-|
--------------------------------------------------------------------|
--------------------------------------------------------------------|
--------------------------------------------------------------------|


  S S S S S S  S  S  S  S  S  S S S S S S S  S  S  S  S  S  S  
--------------------------------------------------------------|
--5-5-5-5-5-5-17-17-17-17-17-17-5-5-5-5-5-5-17-17-17-17-17-17-|
--4-4-4-4-4-4-16-16-16-16-16-16-4-4-4-4-4-4-16-16-16-16-16-16-|
--------------------------------------------------------------|
--------------------------------------------------------------|
--------------------------------------------------------------|


  S S S S S S  S  S  S  S  S  S S S S S S S  S  S  S  S  S  S  
--------------------------------------------------------------|
--5-5-5-5-5-5-17-17-17-17-17-17-5-5-5-5-5-5-17-17-17-17-17-17-|
--4-4-4-4-4-4-16-16-16-16-16-16-4-4-4-4-4-4-16-16-16-16-16-16-|
--------------------------------------------------------------|
--------------------------------------------------------------|
--------------------------------------------------------------|


  ^                                                
  W.                  H.           H        E  E   
-------------------|------------------------------|
--8----------------|--L------------L--------8-----|
--7----------------|--L------------L-----------7--|
--5----------------|--L------------L--------------|
--5----------------|--L------------L--------------|
--5----------------|--L------------L--------------|


               ^                              ^              
  H.           H        E  E     H.           H        Q     
------------------------------|-----------------------------|
---------------8--------8-----|---------------8--------L----|
---------------7-----------7--|---------------7--------L----|
--5------------5--------------|--5------------5--------L----|
---------------5--------------|---------------5--------L----|
---------------5--------------|---------------5--------L----|


  E.   E  S E  E  S S E.   E  S E  E  S S  
------------------------------------------|
------------------------------------------|
------------------------------------------|
--9~---9--9-9--9--9-9-7~---7--7-7--7--7-7-|
------------------------------------------|
------------------------------------------|


   E.    E   S  E   E   S  S E.   E  S E    E  E   
--------------------------------------------------|
--------------------------------------------------|
--------------------------------------------------|
--10~---10--10-10--10--10-10-9~---9--9-9br--L--9--|
--------------------------------------------------|
--------------------------------------------------|


  E.   E  S E  E  S S E.   E  S E  E  S S  
------------------------------------------|
------------------------------------------|
------------------------------------------|
--9~---9--9-9--9--9-9-7~---7--7-7--7--7-7-|
------------------------------------------|
------------------------------------------|


                              ^                                                 
   E.    E   S  E   E   S  S  H        H           Q.     Q.     Q.     Q.      
------------------------------------------------|------------------------------|
------------------------------------------------|------------------------------|
-----------------------------11--------L--------|------------------------------|
-----------------------------11--------L--------|--2------0------5------0------|
--10~---10--10-10--10--10-10--9--------L--------|--2------0------5------0------|
------------------------------------------------|--2------0------5------0------|


  E.  E  S E  E   E   E.  E  S E  S S E     Q.     Q.     Q.     Q.      
-----------7--7--(x)-----------7---------|------------------------------|
-----------7--7--(x)-----------7---------|------------------------------|
-----------------------------------------|------------------------------|
--9---9--9--------0---9---9--9----5-4-0--|--2------0------5------0------|
--9---9--9--------0---9---9--9----5-4-0--|--2------0------5------0------|
--9---9--9--------0---9---9--9----5-4-0--|--2------0------5------0------|


  E.  E  S E  E   E   E.  E  S E  S S E     Q.     Q.     Q.     Q.      
-----------7--7--(x)-----------7---------|------------------------------|
-----------7--7--(x)-----------7---------|------------------------------|
-----------------------------------------|------------------------------|
--9---9--9--------0---9---9--9----5-4-0--|--2------0------5------0------|
--9---9--9--------0---9---9--9----5-4-0--|--2------0------5------0------|
--9---9--9--------0---9---9--9----5-4-0--|--2------0------5------0------|


  E.  E  S E  E   E   E.  E  S E  S S E     Q.     Q.      Q.     Q.      
-----------7--7--(x)-----------7---------|-------------------------------|
-----------7--7--(x)-----------7---------|-------------------------------|
-----------------------------------------|--9------7------12------7------|
--9---9--9--------0---9---9--9----5-4-0--|--9------7------12------7------|
--9---9--9--------0---9---9--9----5-4-0--|--7------5------10------5------|
--9---9--9--------0---9---9--9----5-4-0--|-------------------------------|


  E.  E  S E  E   E   E.  E  S E  E   E    
-----------7--7--(x)-----------7--7--(x)--|
-----------7--7--(x)-----------7--7--(x)--|
------------------------------------------|
--9---9--9--------0---9---9--9--------0---|
--9---9--9--------0---9---9--9--------0---|
--9---9--9--------0---9---9--9--------0---|


  E.  E  S E  E   E   E.  E  S Q.       
-----------7--7--(x)-----------7b------|
-----------7--7--(x)-----------7b------|
---------------------------------------|
--9---9--9--------0---9---9--9---------|
--9---9--9--------0---9---9--9---------|
--9---9--9--------0---9---9--9---------|


  E  E  E  E  E.   S E  E  E  E  E.   S  
----------------------------------------|
----------------------------------------|
----------------------------------------|
--9-----9-----9b-----9-----9-----9b-----|
--9-----9-----9b-----9-----9-----9b-----|
--9-----9-----9b-----9-----9-----9b-----|


  E  E  E  E  E.   S E  E  E  E  E.   S  
----------------------------------------|
----------------------------------------|
----------------------------------------|
--9-----9-----9b-----9-----9-----9b-----|
--9-----9-----9b-----9-----9-----9b-----|
--9-----9-----9b-----9-----9-----9b-----|


  E  E  E  E  E.   S E  E  E  E  E.   S  
----------------------------------------|
----------------------------------------|
----------------------------------------|
--9-----9-----9b-----9-----9-----9b-----|
--9-----9-----9b-----9-----9-----9b-----|
--9-----9-----9b-----9-----9-----9b-----|


  E  E  E  E  E.   S E  E  E  E  E.   S  
----------------------------------------|
----------------------------------------|
----------------------------------------|
--9-----9-----9b-----9-----9-----9b-----|
--9-----9-----9b-----9-----9-----9b-----|
--9-----9-----9b-----9-----9-----9b-----|


  E  S S E  E  E.   S E  S S E  E  E.   S    E  S S E  E  E.   S H.             
------------------------------------------|-----------------------------------||
------------------------------------------|-----------------------------------||
------------------------------------------|-----------------------------------||
--9----x-9-----9b-----9----x-9-----9b-----|--9----x-9-----9b-----9------------||
--9----x-9-----9b-----9----x-9-----9b-----|--9----x-9-----9b-----9------------||
--9----x-9-----9b-----9----x-9-----9b-----|--9----x-9-----9b-----9------------||




Duration Legend
---------------
W - whole
H - half
Q - quarter
E - 8th
S - 16th
T - 32nd
X - 64th
. - note dotted
|-n-|  - n-tuplets


Tablature Legend
----------------
L - tied note
x - dead note
g - grace note
(n) - ghost note
> - accentuded note
NH - natural harmonic
AH - artificial harmonic
TH - tapped harmonic
SH - semi harmonic
PH - pitch harmonic
h - hammer on
p - pull off
b - bend
br - bendRelease
pb - preBend
pbr - preBendRelease
brb - bendReleaseBend
\n/ - tremolo bar dip
\n - tremolo bar dive
-/n - tremolo bar Release up
/n\ - tremolo bar inverted dip
/n - tremolo bar return
-\n - tremolo bar Release down
S - shift slide
s - legato slide
/ -  slide into from below or out of upwards
\ -  slide into from above or out of downwards
~ - vibrato
W - wide vibrato
tr - trill
TP - tremolo picking
T - tapping
S - slap
P - pop
< - fade in
^ - brush up
v - brush down
comments
We did not receive enough feedback on this tab! Please rate:
print report bad tab
1 2 3 4 5
I want to post or [tab]
guest
You may want to rate the tab now too:
select rating
Please do not post tabs as comments. Select "correction" instead!