Oops, an error
Loading. Please wait.

Opiate Tab

by Tool
ver1
ver1

Album

Whole song

More versions @911Tabs.com
15,876 views 15 this week
no commentswrite comment
1 2 3 4 5
accurate
x 5
Autoscroll
+/-
esc
set tempo
stop
Contributor
WARNING: You are trying to view
                                    content from Ultimate-Guitar.com
                                    in an unauthorized application,
                                    which is prohibited.

                                    Please use an official Ultimate
                                    Guitar Tabs application for iPhone,
                                    iPad or Android to access legitimate
                                    chords, guitar, bass, and drum tabs
                                    from Ultimate-Guitar.com database.

                                    Type "ultimate guitar tabs" in Apple
                                    App Store's or Android Market's
                                    search to find the application.
Band- Tool
Album- Opiate

Track Listings:
1.Sweat
2.Hush
3.Part Of Me
4.Cold And Ugly
5.Jerk-Off
6.Opiate

1.Sweat

(Drop D)
 
  [Intro] 
1|------------- |(play 4x)  |----------------------------0-----------| 
2|------------- |           |----------------------------3-----------| 
3|-------------:|           |----------------------------2-(let ring)| 
4|-------------:|           |----------------------------0-----------| 
5|------------- |           |--------------1-0---1-0-0---0-----------| 
6|1-0-1-3-4-3-0 |           |1---1-1-1-1---1-0---1-0-0---0-----------| 
 
  [Rhythm Figure 1] 
1|------------| -----------(play 2x) |-------------------------| 
2|------------| -------------------- |-------------------------| 
3|------------|:--------------------:|-------------------------| 
4|2----------2|:--------2----------2:|--------2----5--5-5-7-5\3| 
5|2----------2| --------2----------2 |--------2----5--5-5-7-5\3| 
6|2--0-2-0-2-2| 0-3-0-2-2--0-1-0-2-2 |0-3-0-2-2--0-5--5-5-7-5\3| 
 
Play Rhythm Figure 1 two more times:. . .i'm sweating, and breathing. . . 
 
  [Chorus]:. . .seems like i've been here before. . . 
1|------------------------------------------------|(repeat chorus 
2|------------------------------------------------|    once) 
3|------------------------------------------------| 
4|2----2----2--5--5-5/7\5--2--0-2--0-2--5--5-5/7\3| 
5|2--0-2--0-2--5--5-5/7\5--2--0-2--0-2--5--5-5/7\3| 
6|2--0-2--0-2--5--5-5/7\5--2--0-2--0-2--5--5-5/7\3| 
 
  [Rhythm Figure 2]:. . .the way you whisper. . .           |(let ring)| 
1|0---0---0|------------|0---0---0|0-0---0---0---|  Repeat  |----------| 
2|3---3---3|/6-6-5-5-5--|3---3---3|1-1---1---1(0)| bars 1-3 |7--7--7---| 
3|2---2---2|/5-5-4-4-4--|2---2---2|0-0---0---0(0)|   then   |6--6--6---| 
4|0---0---0|/3-3-2-2-2-0|0---0---0|2-2---2---2(0)|   play:  |4--4--6---| 
5|--3---3--|------------|--3---3--|3-3-4-3-4-3(0)|          |4--4--4---| 
6|---------|------------|---------|--------------|          |----------| 
   [Bar1]      [Bar2]      [Bar3]      [Bar4]                  [Bar5] 
 
Play Rhythm Figure 1 twice: . . .sun is setting cool again. . . 
   [the first time normal. . .the second time muffle all except E-chords] 
 
Play Chorus 4 times:. . .seems like i've been here before 
 
Next play the following bars of Rhythm Figure 2: . . .drags me under. . . 
        1, 2, 3, 4,   1, 2, 3, 4,   1, 4 
 
Some would debate as to whether the next part is solely bass, but it's fun 
to beat the buhle out of your guitar, so I recommend playing it anyway. 
You can always buy new strings. . . 
 
  [Rhythm Figure 3]:. . .TAKES ME HOME. . . 
1|------------------|----------------------------------------------|Repeat 
2|------------------|----------------------------------------------| Bar2 
3|------------------|----------------------------------------------| once. 
4|2--2--2----3-0-1-0|2------------2------------2------------3-0-1-0| 
5|2--2--2----3-0-1-0|2------------2------------2------------3-0-1-0| 
6|2--2--2----3-0-1-0|2000000000000200000000000020000000000003-0-1-0| 
       [Bar1]                             [Bar2] 
 
Play Intro 4 times, then play Bar 2 of         3|-----------| 
Rhythm Figure 3 two more times, then play      4|2---2-2-2-2| 
Intro 4 more times, and finally, play. . . .   5|2---2-2-2-2| 
                                               6|2---2-2-2-2| 
 
Play Chorus four more times:. . .seems so familiar. . . 
 
Now play these bars from Rhythm Figure 2: . . .the way you whisper. . . 
        1,2,3,4,  1,2,3,4,  1,2,3,4,  1,2 
 
   . . .and lastly: . . .takes me home. . . 
1|0---0---0--------------------------------------------------| 
2|3---3---3--7-7-7-7-7-7-7-7-7-------------------------------| 
3|2---2---2--6-6-6-6-6-6-6-6-6---------[bend up when you're--| 
4|0---0---0--4-4-6-4-4-6-4-4-6-------2--tired of holding it]-| 
5|--3---3----4-4-4-4-4-4-4-4-4-------2-----------------------| 
6|-----------------------------------2-----------------------|

2.Hush

Intro (bass)

Here comes guitar:
E|------------------------------|
B|-------------14---12-12-------|
G|---7---------13---11-11-------|
D|---7---------11---9--9--------|
A|---5--------------------------|
D|------------------------------|


Oh yeahhhhh:
E|------------------------------|-------|
B|------------------------------|-------|
G|---2/4-4-4----------------5---|-------|
D|---2/4-4-4---0-2-3-2-0-0--5---|-3-2-0-|
A|---0/2-2-2---0-2-3-2-0-0--3---|-3-2-0-|
D|-------------0-2-3-2-0-0------|-3-2-0-|

Directly after that part comes some little stuff:

E|-----------------------|
B|-----------------------|
G|-----------------------|
D|-----------------------| 4x
A|----------------5\2----|
D|---0-2-3-2-0-----------|
Pm................................

Directly after that part at about (0:40)

E|------------------------------|-------|
B|------------------------------|-------|
G|------------------------------|-------|
D|------------------------------|-------| 4x
A|-0h2-XX-2-----------5---------|-------|
D|----------0-2-3-2-0-----------|-3-2-0-|

Chorus: Strum each chord the appropriate amount of times.
E|------------------------------|
B|------------------------------|
G|--4-4-4-4--2-2-2-2------------|
D|--4-4-4-4--2-2-2-2------------|
A|--2-2-2-2--0-0-0-0------------|
D|------------------------------|

Back to this a couple times.
E|------------------------------|-------|
B|------------------------------|-------|
G|---2/4-4-4----------------5---|-------|
D|---2/4-4-4---0-2-3-2-0-0--5---|-3-2-0-|
A|---0/2-2-2---0-2-3-2-0-0--3---|-3-2-0-|
D|-------------0-2-3-2-0-0------|-3-2-0-|

Another verse part:

E|--------------------|
B|--------------------|
G|--------------------|
D|--------------------| 3x
A|--------------5-2---|
D|--2-3-2-0-----------|
Pm................................

Don't palm mute anymore and add the slide back in.

E|--------------------|
B|--------------------|
G|--------------------|
D|--------------------| 2x
A|--------------5\2v--|
D|--2-3-2-0-----------|

And then:

E|---------------------------------------|
B|---------------------------------------|
G|---------------------------------------|
D|----------7-4-----------7-9---7-9-7----|
A|--------------2-3-2-0---------------7v-|
D|--2-3-2-0------------------------------|

Chorus: Strum each chord the appropriate amount of times.
E|------------------------------|
B|------------------------------|
G|--4-4-4-4--2-2-2-2------------|
D|--4-4-4-4--2-2-2-2------------|
A|--2-2-2-2--0-0-0-0------------|
D|------------------------------|

This part is fun to play:

E|-----------------|
B|-----------------|
G|--4-2------------|
D|--4-2-3p2--------|
A|--2-0-3p2--------|
D|------3p2--------|

So this this:

E|----------------------------------|
B|----------------------------------|
G|---------------------------5-5-5--|
D|--3p2-2-3p2-2-3p2-2-3p2-2--5-5-5--|
A|--3p2-2-3p2-2-3p2-2-3p2-2--3-3-3--|
D|--3p2-2-3p2-2-3p2-2-3p2-2---------|


Ok if you listen closely you can hear something really, really crazy going on in the
background dubbed over this.  I'm not even gonna waste my time trying to figure that
out.  If you have the musical talent to play that part then you shouldn't even be
looking at this tab.

E|------------------------------|-------|
B|------------------------------|-------|
G|---2/4-4-4----------------5---|-------|
D|---2/4-4-4---0-2-3-2-0-0--5---|-3-2-0-|
A|---0/2-2-2---0-2-3-2-0-0--3---|-3-2-0-|
D|-------------0-2-3-2-0-0------|-3-2-0-|

Then:

E|------------------------------|-------|
B|------------------------------|-------|
G|------------------------------|-------|
D|------------------------------|-------| 4x
A|-0h2-XX-2-----------5---------|-------|
D|----------0-2-3-2-0-----------|-3-2-0-|

And lastly:

E|--------------------|
B|--------------------|
G|---2-2-2-2-2-2---4--|
D|---2-2-2-2-2-2---4--|
A|---0-0-0-0-0-0---2--|
D|--------------------|
Pm..........................................

3.Part Of Me

INTRO 
E-------------------------------------------------------------------------
B-------------------------------------------------------------------------
G-----------------5-XX-5--------------------------------------------------
D--2-XX-2---XX----5-XX-5--XX---2-XX-2---XX---5--4--4----------------------
A--2-XX-2---XX----3-XX-3--XX---2-XX-2---XX---5--4--4----------------------
D--2-XX-2---XX------------XX---2-XX-2---XX---5--4--4----------------------

CHORUS
E--------------------------------------------------------------------------
B--------------------------------------------------------------------------
G--------------------------------------------------------------------------
D--0-6-5---3-----0-6-5---3-3-3----------- ---------------------------------
A--0-6-5---3-----0-6-5---3-3-3----------- ---------------------------------
D--0-6-5---3-----0-6-5---3-3-3------------ --------------------------------
   *****         *****

VERSE:
RIFF 1
E---------------------------------------------------------------------------
B---------------------------------------------------------------------------
G----------5----------5----------5------------------------------------------
D-----2-X--5--X-2-X---5--X---2---5------------------------------------------
A-----2-X--3--X-2-X---3--X---2---3------------------------------------------
D-----2-X-----X-2-X------X---2----------------------------------------------

RIFF 2
E---------------------------------------------------------------------------
B---------------------------------------------------------------------------
G---------------------------------------------------------------------------
D-------------------------------------6-------------------------------------
A----------6p5p0-8--6p5p0-8-6-5--------------------------------------------
D---------------------------------------------------------------------------

RIFF 4
E---------------------------------------------------------------------------
B---------------------------------------------------------------------------
G---------------------------------------------------------------------------
D---------------------------------------------------------------------------
A---------------------------------------------------------------------------
D----0--6--5--0----3-----0--6--5--0--3--3--3--------------------------------
     *********           ********
BASS SOLO BACKUP
E---------------------------------------------------------------------------
B---------------------------------------------------------------------------
G---------------------------------------------------------------------------
D---------------------------------------------------------------------------
A---------------------------------------------------------------------------
D--0--0--0--0--0--0--0--0--0-0-0-0-0----------------------------------------
   *********************************
GUITAR SOLO
E---------------------------------------------------------------------------
B---------------------------------------------------------------------------
G---9~--------------11---9~-------------------------------11----------------
D----------10--14---------------10--14----9~----10--14--------14~-----------
A---------------------------------------------------------------------------
D---------------------------------------------------------------------------

4.Cold And Ugly

[Riff 1] X4
|----------------------------------------------------------|
|----------------------------------------------------------|
|-----------------------------------------------------5-5--|
|-0---0-0-3p0-0-0---0-0-6p0-5---0---0-0-3p0-0-0---0-0-5-5--|
|-0---0-0-3p0-0-0---0-0-6p0-5---0---0-0-3p0-0-0---0-0-3-3--|
|-0---0-0-3p0-0-0---0-0-6p0-5---0---0-0-3p0-0-0---0-0------|
    PM...     ...   ...             ...     ...   ...

[Fill 1] x1
|--------------------------------------------------------|
|--------------------------------------------------------|
|--------------------------------------------------------|
|-0---0-0-3p0-0-0---0-0-6p0-5---0---0-0-3p0-0-0---/6-5~--|
|-0---0-0-3p0-0-0---0-0-6p0-5---0---0-0-3p0-0-0----------|
|-0---0-0-3p0-0-0---0-0-6p0-5---0---0-0-3p0-0-0----------|
    PM...     ...   ...             ...     ...

[Riff 1] Play w/out palm-muting x1

[Fill 2] x1
|--------------------------------------------------------|
|--------------------------------------------------------|
|-------------------------------------------5------------|
|-/7-7-7-7-7-7-7---7-7-7-5-4----7-7-7-7-7-7--------------|
|--------------------------------------------------------|
|--------------------------------------------------------|

[Verse 1] x1
|-------------------------------7^-----------------------|
|-------6-5~-------------6-5~----------------------------|
|--7~---------5~--5/7------------------------------------|
|--------------------------------------------------------|
|--------------------------------------------------------|
|--------------------------------------------------------|

[Riff 1] x2

[Riff 2] x4       
|--------------------------------------------------------|  
|--------------------------------------------------------|
|--------------------------------------------------------| 
|--0---0-0----------------------3p0----------------------|
|--0---0-0------3---------3p0----------------------------|
|--0---0-0--3h5---5--3h5---------------------------------|
          <-occationally use A.H. here-> 

[Riff 1] play w/out palm-muting x1

[Fill 2] x1

[Verse 2] x1
|--------------------------------|------|-----------------|
|--------------------------------|------|-----------------|
|--------------------------------|------|-5-5-5-5-5-5-5-5-|
|-------3-2~----------------3-2--|-Rest-|-5-5-5-5-5-5-5-5-|
|--5~----------5~----(1)/5~------|------|-3-3-3-3-3-3-3-3-|
|--------------------------------|------|-----------------|
 
[Riff 2] x4

[Riff 3] x3
|------------------------------------------------------|
|------------------------------------------------------|
|------------------------------------------------------|
|--0---0-0--5\3--3-0--3-0---0--0-0--5\3--3-0-3-0-5-----|
|--0---0-0--5\3--3-0--------0--0-0--5\3--3-0-----------| 
|--0---0-0--5\3--3-0--------0--0-0--5\3--3-0-----------|
 PM.......                     ...

//Rest for a few measures while bass plays\\

[Fill 3]  
|---------|
|---------|
|---7--5--|
|---7--5--|
|---5--3--|
|---------|

[Riff 4] x5
|---------------------------------|
|---------------------------------|
|---------------------------------|
|--0-5h7-5p0-3h5-3p0-0-0-0-12-10--|
|--0-5h7-5p0-3h5-3p0-0-0-0-12-10--|
|--0-5h7-5p0-3h5-3p0-0-0-0-12-10--|

[Fill 4] x1
|---------------------------------|
|---------------------------------|
|---------------------------------|
|--0-5h7-5p0-3h5-3p0-0-0-0--------|
|--0-5h7-5p0-3h5-3p0-0-0-0--5-3---|
|--0-5h7-5p0-3h5-3p0-0-0-0--------|

*[Solo] Break out the most insane overdrive you have!
|--------------------------------------------------------------|
|--------------------------------------------------------------|
|-------------7h10p10-h10p7-h10--12-12--10--10-----------------|
|-------10h12----------------------------------12-10-12h10-12--|
|--8h10--------------------------------------------------------|
|--------------------------------------------------------------|

|-----------------------------------------------------------------------------|
|-----------------------------------------------------------------------------|
|--------------------------------10-----10h12p10-12--10h12p10-12p10-12p10-----|
|--10-12-10-12-12-12h15p12-10h12----12-----------ph-----------------------12--|
|-----------------------------------------------------------------------------|
|-----------------------------------------------------------------------------|

|-----------------------------------------------------------------------------|
|-----------------------------------------------------------------------------|
|---------------------------------------------------10h12-(trill hard)-12b----|
|--10h12-10h12b-10h12-12h15-10h12-12h15-10h12p10h12---------------------------|
|-----------------------------------------------------------------------------|
|-----------------------------------------------------------------------------|

|----------------------------------------|
|-----------------------13---------------|
|--12r-10---------------12-(trem pick)---|
|-------------12---10---10---------------|
|-------------12---10--------------------|
|-------------12---10--------------------|

//Guitar rests here for a few measures\\

"Underneath her skin and jewelry..."

Come back in with a pick scrape on the low D string and then play...

[Riff 1] x2

[Riff 2] x7

[Outro] x1
|--------------------------------------------------------|
|-------------------------------6------------------------|   
|---------------5---------5--------7---------------------|
|--0--0-0--3-5-----5-3-5-----7----------7--10--12--10--7-| 
|--0--0-0-------------------------------5---8--10---8--5-|
|--0--0-0------------------------------------------------|

5.Jerk-Off

(distortion)

*feedback*

e----------------------------------------
b----------------------------------------
g----------------------------------------
d---------------------------------------- x4
a------19----20--19------19----20p19-----
d--19-----19---------19-----19-------20--

                           x3
e-----------------------------|---------------------------
b-----------------------------|---------------------------
g-----------------------------|---------------------------
d-----------------------------|---------------------------
a-----7---8--7-----7---8p7----|-----7---8--7-----7---8p7--
d--7----7-------7----7-----8--|--7----7-------7----7------

e-----------------------
b-----------------------
g-----------------------
d--8--7----------------- x2
a--8--7-----------------
d--8--7-----------------

e------------------------------
b------------------------------
g------------------------------
d--12--0-0-12-0-12-0-12---3-3-- x4
a--12--0-0-12-0-12-0-12---3-3--
d--12--0-0-12-0-12-0-12---3-3--

e--------------------------------------
b--------------------------------------
g--------------------------------------
d-------------------------------------- x4
a--5-555-5-555-5-555--8-888-3-333-333--
d--5-555-5-555-5-555--8-888-3-333-333--
  pm - - - - - - - - - - - - - - - - |

e------------------------------
b------------------------------
g------------------------------
d--0-5--0-5--0-5--0-8--0-33-3-- x4
a--0-5--0-5--0-5--0-8--0-33-3--
d--0-5--0-5--0-5--0-8--0-33-3--

                           x3
e-----------------------------|---------------------------
b-----------------------------|---------------------------
g-----------------------------|---------------------------
d-----------------------------|---------------------------
a-----7---8--7-----7---8p7----|-----7---8--7-----7---8p7--
d--7----7-------7----7-----8--|--7----7-------7----7------

e-----------------------
b-----------------------
g-----------------------
d--8--7----------------- x2
a--8--7-----------------
d--8--7-----------------

e------------------------------
b------------------------------
g------------------------------
d--12--0-0-12-0-12-0-12---3-3-- x4
a--12--0-0-12-0-12-0-12---3-3--
d--12--0-0-12-0-12-0-12---3-3--

e--------------------------------------
b--------------------------------------
g--------------------------------------
d-------------------------------------- x4
a--5-555-5-555-5-555--8-888-3-333-333--
d--5-555-5-555-5-555--8-888-3-333-333--
  pm - - - - - - - - - - - - - - - - |

e------------------------------
b------------------------------
g------------------------------
d--0-5--0-5--0-5--0-8--0-33-3-- x4
a--0-5--0-5--0-5--0-8--0-33-3--
d--0-5--0-5--0-5--0-8--0-33-3--

e-----------------------------
b-----------------------------
g-----------------------------
d-----------------------------
a-----7---8--7-----7---8p7----
d--7----7-------7----7-----8--

e---------------------------------------------------------
b---------------------------------------------------------
g---------------------------------------------------------
d-----2---3--2-----2---3p2--------3---4--3-----3---4p3----
a---------------------------------------------------------
d--2----2-------2----2------4--3----3-------3----3-----4--

e---------------------------------------------------------
b---------------------------------------------------------
g---------------------------------------------------------
d-----2---3--2-----2---3p2--------3---4--3-----3---4p3----
a---------------------------------------------------------
d--2----2-------2----2------4--3----3-------3----3-----6--

e--------------------------------------------------------------
b--------------------------------------------------------------
g--------------------------------------------------------------
d-----5---6--5-----5---6p5--------5---6--5-----5---6p5--8--10--
a-------------------------------------------------------8--10--
d--5----5-------5----5------6--5----5-------5----5------8--10--

*hold for two bars*

*rest for ten more bars*

e------------------------------
b------------------------------
g------------------------------
d--0-5--0-5--0-5--0-8--0-33-3-- x4
a--0-5--0-5--0-5--0-8--0-33-3--
d--0-5--0-5--0-5--0-8--0-33-3--

e------------------------------------
b--15--(tremolo pick for four bars)--
g--14--------------------------------
d------------------------------------
a------------------------------------
d------------------------------------

                             x3
e-------------------------------|--------------------
b-------------------------------|--------------------
g-------------------------------|--------------------
d--17--19--15--12--15p12-15-16--|--17--19--15b-------
a--17--19--15--12--15p12-15-16--|--17--19--15b-------
d--17--19--15--12--15p12-15-16--|--17--19--15b-------

                            x7
e------------------------------|------------------------------
b------------------------------|------------------------------
g------------------------------|------------------------------
d--0-5--0-5--0-5--0-8--0-33-3--|--0-5--0-5--0-5--0-5--0-55-5--
a--0-5--0-5--0-5--0-8--0-33-3--|--0-5--0-5--0-5--0-5--0-55-5--
d--0-5--0-5--0-5--0-8--0-33-3--|--0-5--0-5--0-5--0-5--0-55-5--


6.Opiate

***Intro on bass:
G|--(5)----------------------------------------|----------------------------|
D|------(5)------------------------------------|----------------------------|
A|-----------0---2--------------------------0--|--2----------------------0--|
D|---------------------------------------------|----------------------------|
                        Choices always were a     problem for you
                  **FDBK PITCH: E
G|-------------------------------|------------------------------------------|
D|-------------------------------|------------------------------------------|
A|--2----------------------------|------------------------------------------|
D|-------------------------------|------------------------------------------|
    What you need    is someone     strong to guide you.
***Bass riff throughout entire song unless otherwise noted:
G|--------------------------------|-----------------------------|
D|--------------------------------|-----------------------------|
A|--X-X-X-X-2----2----------------|--X-X-X-X-2----2-------------|
D|-----------------2-----2---3-3--|-----------------2---2--3-3--|
    P.M....      P.M............     P.M....     P.M..........
E|--------------------------------|-----------------------------|
B|--------------------------------|-----------------------------|
G|--4-4-4-4-4---------------------|--4-4-4-4-4------------------|
D|--4-4-4-4-4----0h2---2-2---3-3--|--4-4-4-4-4---0h2--2-2--3-3--|
A|--2-2-2-2-2----0h2---2-2---3-3--|--2-2-2-2-2---0h2--2-2--3-3--|
D|---------------0h2---2-2---3-3--|--------------0h2--2-2--3-3--|
    Deaf  and    blind and  dumb and born  to   follow
    what  you  need  is   someone    strong to guide you.  Like
    me.                      Like    me.                   Like
    me.                      Like    me!
***Guitar is silent for the following lines:
    If    you  want   to get your   soul  to   heaven,
    trust in    me, now, don't you  judge or   question.
    You   are   broken, now, but    faith can  heal you.
    Just  do    everything   I      tell  you  to do.
E|----------------------------------|----------------------------------|
B|--12-12-12-12-12-\----------------|--12-12-12-12-12-\----------------|
G|--11-11-11-11-11-\-9--9-9--10-10--|--11-11-11-11-11-\-9--9-9--10-10--|
D|--9--9--9--9--9--\-9--9-9--10-10--|--9--9--9--9--9--\-9--9-9--10-10--|
A|--9--9--9--9--9--\-7--7-7--8--8---|--9--9--9--9--9--\-7--7-7--8--8---|
D|----------------------------------|----------------------------------|
    Deaf  and    blind  and  dumb and  born    to  follow,
    what  you    need   is   someone   strong  to  guide you.
    Deaf  and    blind  and  dumb and  born    to  follow,
    let   me     lay    my   holy      hand    up-      hand upon you!
                                      **Bend on second and fourth times
E|----------------------------------|----------------------------------|
B|--3-3---3-3-----------------------|--3-3---3-3-^---------------------|
G|--2-2---2-2-----------------------|--2-2---2-2-^---------------------|
D|--0-0---0-0-----------------------|--0-0---0-0-----------------------|
A|--0-0---0-0-----------------------|--0-0---0-0-----------------------|
D|----------------------------------|----------------------------------|
                  My   god's  will                        becomes   me.
                  When he     speaks              he speaks through me.
                  He   has    needs                     like    I   do.
                  We   both   want                      to   rape  you.
E|-------------5--5--5--5--4--4--4--|-------------5--5--5--5--4--4--4--|
B|--3-3---3-3-----------------------|--3-3---3-3-----------------------|
G|--2-2---2-2-----------------------|--2-2---2-2-----------------------|
D|--0-0---0-0-----------------------|--0-0---0-0-----------------------|
A|--0-0---0-0-----------------------|--0-0---0-0-----------------------|
D|----------------------------------|----------------------------------|
   *** Repeat once
E|----------------------------------|----------------------------------|
B|--------------------4--4-4---5-5--|--------------------4--4-4---5-5--|
G|--10-10-10-10-10--X-3--3-3---4-4--|--10-10-10-10-10--X-3--3-3---4-4--|
D|--9--9--9--9--9---X-2--2-2---3-3--|--9--9--9--9--9---X-2--2-2---3-3--|
A|--9--9--9--9--9---X-2--2-2---3-3--|--9--9--9--9--9---X-2--2-2---3-3--|
D|--9--9--9--9--9---X-2--2-2---3-3--|--9--9--9--9--9---X-2--2-2---3-3--|
    Jesus Christ why don't you come    save  my  life,   now?
    Open        my eyes,  blind me     with  your light, now.
    Jesus Christ why don't you come    save  my  life,   now?
    Open        my eyes,  blind me     with  your light, now.
                     **FDBK PITCH: B                          **Bass
E|----------------------------------|----------------------------------|
B|----------------------------------|----------------------------------|
G|--4-------------------------------|-------------------------(5)------|
D|--4-------------------------------|-----------------------------(5)--|
A|--2-------------------------------|----------------------------------|
D|----------------------------------|----------------------------------|
    **Bass
G|-------------------------(5)------|-------------------------(5)------|
D|-----------------------------(5)--|-----------------------------(5)--|
A|--2-----------0-------------------|--2-----------0-------------------|
D|----------------------------------|----------------------------------|
    P.M.......                         P.M.......
E|----------------------------------|----------------------------------|
B|----------------------------------|----------------------------------|
G|--4-4-4-4-4-----------------------|--4-4-4-4-4-----------------------|
D|--4-4-4-4-4-----------------------|--4-4-4-4-4-----------------------|
A|--2-2-2-2-2-----------------------|--2-2-2-2-2-----------------------|
D|----------------------------------|----------------------------------|
    If    you  want   to get your      soul  to   heaven,
    trust in    me, now, don't you     judge or   question.
    You   are   broken, now, but       faith can  heal you.
    Just  do    everything   I         tell  you  to do.
***Follow this with the exact same "Jesus Christ" part, the
***"Deaf and blind" part, and the "My god's will" part.***Outro:
The outro for guitar just holds this chord:E|-----B|--3--G|--2--D|--0--A|--0--
D|--0--While the bass plays:G|-------------------------------|
D|-------------------------------|A|-------------------------------|
D|--0-0-0-0-0-----2-2-2-2-2------|

This is a short album by Tool, so I tabbed it.ENJOY!!!!
comments
print report bad tab
I want to post or [tab]
guest
You may want to rate the tab now too:
select rating
Please do not post tabs as comments. Select "correction" instead!